ISO-10303-21;
HEADER;
FILE_DESCRIPTION (( 'STEP AP203' ),
    '1' );
FILE_NAME ('BTC_BTC2-( )12.STEP',
    '2021-08-13T19:04:00',
    ( '' ),
    ( '' ),
    'SwSTEP 2.0',
    'SolidWorks 2018',
    '' );
FILE_SCHEMA (( 'CONFIG_CONTROL_DESIGN' ));
ENDSEC;

DATA;
#1 = DATE_AND_TIME ( #64, #175 ) ;
#2 = ORIENTED_EDGE ( 'NONE', *, *, #271, .F. ) ;
#3 = DIRECTION ( 'NONE',  ( -1.000000000000000000, -0.0000000000000000000, -0.0000000000000000000 ) ) ;
#4 = DIRECTION ( 'NONE',  ( -0.0000000000000000000, 0.0000000000000000000, 1.000000000000000000 ) ) ;
#5 = VERTEX_POINT ( 'NONE', #54 ) ;
#6 = CARTESIAN_POINT ( 'NONE',  ( 0.0000000000000000000, 0.0000000000000000000, 0.0000000000000000000 ) ) ;
#7 =( CONVERSION_BASED_UNIT ( 'INCH', #312 ) LENGTH_UNIT ( ) NAMED_UNIT ( #139 ) );
#8 = ORIENTED_EDGE ( 'NONE', *, *, #172, .F. ) ;
#9 = AXIS2_PLACEMENT_3D ( 'NONE', #265, #33, #208 ) ;
#10 = DIRECTION ( 'NONE',  ( -1.000000000000000000, -0.0000000000000000000, -0.0000000000000000000 ) ) ;
#11 = ADVANCED_FACE ( 'NONE', ( #315, #49 ), #177, .F. ) ;
#12 = SECURITY_CLASSIFICATION_LEVEL ( 'unclassified' ) ;
#13 = APPROVAL_STATUS ( 'not_yet_approved' ) ;
#14 = EDGE_CURVE ( 'NONE', #22, #22, #118, .T. ) ;
#15 = EDGE_LOOP ( 'NONE', ( #225 ) ) ;
#16 = AXIS2_PLACEMENT_3D ( 'NONE', #351, #126, #327 ) ;
#17 = EDGE_LOOP ( 'NONE', ( #273 ) ) ;
#18 = DESIGN_CONTEXT ( 'detailed design', #87, 'design' ) ;
#19 = COORDINATED_UNIVERSAL_TIME_OFFSET ( 6, 0, .BEHIND. ) ;
#20 = EDGE_LOOP ( 'NONE', ( #256 ) ) ;
#21 = DIRECTION ( 'NONE',  ( 0.0000000000000000000, 0.0000000000000000000, 1.000000000000000000 ) ) ;
#22 = VERTEX_POINT ( 'NONE', #29 ) ;
#23 = PRODUCT_RELATED_PRODUCT_CATEGORY ( 'detail', '', ( #113 ) ) ;
#24 = EDGE_CURVE ( 'NONE', #155, #155, #45, .T. ) ;
#25 = CARTESIAN_POINT ( 'NONE',  ( 0.4400000000000017231, 0.0000000000000000000, 0.0000000000000000000 ) ) ;
#26 = CARTESIAN_POINT ( 'NONE',  ( 0.0000000000000000000, 0.0000000000000000000, 0.2201250000000000151 ) ) ;
#27 = DIRECTION ( 'NONE',  ( 0.0000000000000000000, 0.0000000000000000000, 1.000000000000000000 ) ) ;
#28 = PRODUCT_DEFINITION_FORMATION_WITH_SPECIFIED_SOURCE ( 'ANY', '', #113, .NOT_KNOWN. ) ;
#29 = CARTESIAN_POINT ( 'NONE',  ( 0.06549707730741015366, 0.0000000000000000000, 0.3630000000000006000 ) ) ;
#30 = CIRCLE ( 'NONE', #318, 0.3629999999999999893 ) ;
#31 = CARTESIAN_POINT ( 'NONE',  ( 0.0000000000000000000, 0.0000000000000000000, 0.0000000000000000000 ) ) ;
#32 = AXIS2_PLACEMENT_3D ( 'NONE', #293, #229, #108 ) ;
#33 = DIRECTION ( 'NONE',  ( -1.000000000000000000, -0.0000000000000000000, -0.0000000000000000000 ) ) ;
#34 = PERSON_AND_ORGANIZATION_ROLE ( 'classification_officer' ) ;
#35 = ORIENTED_EDGE ( 'NONE', *, *, #14, .T. ) ;
#36 = DATE_TIME_ROLE ( 'classification_date' ) ;
#37 = ADVANCED_FACE ( 'NONE', ( #329, #250 ), #279, .T. ) ;
#38 = DATE_AND_TIME ( #44, #117 ) ;
#39 = AXIS2_PLACEMENT_3D ( 'NONE', #303, #219, #332 ) ;
#40 = PERSON_AND_ORGANIZATION_ROLE ( 'design_supplier' ) ;
#41 = AXIS2_PLACEMENT_3D ( 'NONE', #6, #335, #210 ) ;
#42 = EDGE_LOOP ( 'NONE', ( #124 ) ) ;
#43 = CIRCLE ( 'NONE', #41, 0.2201250000000000151 ) ;
#44 = CALENDAR_DATE ( 2021, 13, 8 ) ;
#45 = CIRCLE ( 'NONE', #350, 0.2827500000000031655 ) ;
#46 = COORDINATED_UNIVERSAL_TIME_OFFSET ( 6, 0, .BEHIND. ) ;
#47 = FACE_OUTER_BOUND ( 'NONE', #173, .T. ) ;
#48 = DIRECTION ( 'NONE',  ( -1.000000000000000000, -0.0000000000000000000, -0.0000000000000000000 ) ) ;
#49 = FACE_OUTER_BOUND ( 'NONE', #42, .T. ) ;
#50 = CYLINDRICAL_SURFACE ( 'NONE', #280, 0.2074999999999937450 ) ;
#51 = CC_DESIGN_PERSON_AND_ORGANIZATION_ASSIGNMENT ( #137, #62, ( #113 ) ) ;
#52 = EDGE_LOOP ( 'NONE', ( #324 ) ) ;
#53 = CARTESIAN_POINT ( 'NONE',  ( 0.3680862251845798960, 0.0000000000000000000, 0.2827500000000031655 ) ) ;
#54 = CARTESIAN_POINT ( 'NONE',  ( 0.5100000000000017852, 0.0000000000000000000, 0.2979999999999974336 ) ) ;
#55 = CONICAL_SURFACE ( 'NONE', #16, 0.2979999999999974336, 0.3665191429190057248 ) ;
#56 = ADVANCED_FACE ( 'NONE', ( #203, #340 ), #55, .T. ) ;
#57 = PERSON ( 'UNSPECIFIED', 'UNSPECIFIED', 'UNSPECIFIED', ('UNSPECIFIED'), ('UNSPECIFIED'), ('UNSPECIFIED') ) ;
#58 = MECHANICAL_CONTEXT ( 'NONE', #162, 'mechanical' ) ;
#59 = ADVANCED_FACE ( 'NONE', ( #47, #245 ), #352, .T. ) ;
#60 = ORIENTED_EDGE ( 'NONE', *, *, #197, .T. ) ;
#61 = AXIS2_PLACEMENT_3D ( 'NONE', #233, #110, #305 ) ;
#62 = PERSON_AND_ORGANIZATION_ROLE ( 'design_owner' ) ;
#63 = CONICAL_SURFACE ( 'NONE', #224, 0.2827500000000031655, 0.2617993877990686391 ) ;
#64 = CALENDAR_DATE ( 2021, 13, 8 ) ;
#65 = EDGE_LOOP ( 'NONE', ( #130 ) ) ;
#66 = VERTEX_POINT ( 'NONE', #272 ) ;
#67 = FACE_OUTER_BOUND ( 'NONE', #65, .T. ) ;
#68 = APPROVAL ( #274, 'UNSPECIFIED' ) ;
#69 = EDGE_LOOP ( 'NONE', ( #220 ) ) ;
#70 = CALENDAR_DATE ( 2021, 13, 8 ) ;
#71 = LOCAL_TIME ( 14, 4, 0.0000000000000000000, #19 ) ;
#72 = ORIENTED_EDGE ( 'NONE', *, *, #271, .T. ) ;
#73 = CARTESIAN_POINT ( 'NONE',  ( 0.08104203485069813584, 0.0000000000000000000, 0.0000000000000000000 ) ) ;
#74 = FACE_OUTER_BOUND ( 'NONE', #91, .T. ) ;
#75 = AXIS2_PLACEMENT_3D ( 'NONE', #25, #83, #270 ) ;
#76 = DIRECTION ( 'NONE',  ( 1.000000000000000000, 0.0000000000000000000, 0.0000000000000000000 ) ) ;
#77 = DIRECTION ( 'NONE',  ( -1.000000000000000000, -0.0000000000000000000, -0.0000000000000000000 ) ) ;
#78 = ORIENTED_EDGE ( 'NONE', *, *, #24, .T. ) ;
#79 = CARTESIAN_POINT ( 'NONE',  ( 0.0000000000000000000, 0.0000000000000000000, 0.0000000000000000000 ) ) ;
#80 = APPLICATION_PROTOCOL_DEFINITION ( 'international standard', 'config_control_design', 1994, #87 ) ;
#81 = DIRECTION ( 'NONE',  ( 0.0000000000000000000, 0.0000000000000000000, 1.000000000000000000 ) ) ;
#82 = SECURITY_CLASSIFICATION ( '', '', #12 ) ;
#83 = DIRECTION ( 'NONE',  ( 1.000000000000000000, 0.0000000000000000000, 0.0000000000000000000 ) ) ;
#84 = CARTESIAN_POINT ( 'NONE',  ( 0.3756221235694399696, 0.0000000000000000000, 0.0000000000000000000 ) ) ;
#85 = DIRECTION ( 'NONE',  ( -1.000000000000000000, -0.0000000000000000000, -0.0000000000000000000 ) ) ;
#86 = CARTESIAN_POINT ( 'NONE',  ( 0.08104203485069813584, 0.0000000000000000000, 0.3049854286469299014 ) ) ;
#87 = APPLICATION_CONTEXT ( 'configuration controlled 3d designs of mechanical parts and assemblies' ) ;
#88 = FACE_BOUND ( 'NONE', #69, .T. ) ;
#89 = APPROVAL ( #13, 'UNSPECIFIED' ) ;
#90 = AXIS2_PLACEMENT_3D ( 'NONE', #73, #48, #205 ) ;
#91 = EDGE_LOOP ( 'NONE', ( #281 ) ) ;
#92 = PRODUCT_DEFINITION ( 'UNKNOWN', '', #28, #18 ) ;
#93 = PERSON_AND_ORGANIZATION ( #57, #128 ) ;
#94 = CIRCLE ( 'NONE', #254, 0.2979999999999974336 ) ;
#95 = ORIENTED_EDGE ( 'NONE', *, *, #97, .T. ) ;
#96 = UNCERTAINTY_MEASURE_WITH_UNIT (LENGTH_MEASURE( 1.000000000000000082E-05 ), #7, 'distance_accuracy_value', 'NONE');
#97 = EDGE_CURVE ( 'NONE', #100, #100, #164, .T. ) ;
#98 = PERSON_AND_ORGANIZATION ( #57, #128 ) ;
#99 = AXIS2_PLACEMENT_3D ( 'NONE', #212, #301, #209 ) ;
#100 = VERTEX_POINT ( 'NONE', #238 ) ;
#101 = CARTESIAN_POINT ( 'NONE',  ( 0.1100198096393709551, 0.0000000000000000000, 0.0000000000000000000 ) ) ;
#102 = ORIENTED_EDGE ( 'NONE', *, *, #216, .T. ) ;
#103 = PLANE ( 'NONE',  #176 ) ;
#104 = FACE_OUTER_BOUND ( 'NONE', #52, .T. ) ;
#105 = CARTESIAN_POINT ( 'NONE',  ( 0.5550000000000017142, -0.2807261184233936224, 0.0000000000000000000 ) ) ;
#106 = PERSON_AND_ORGANIZATION ( #57, #128 ) ;
#107 = APPROVAL_STATUS ( 'not_yet_approved' ) ;
#108 = DIRECTION ( 'NONE',  ( 0.0000000000000000000, 0.0000000000000000000, 1.000000000000000000 ) ) ;
#109 = APPROVAL ( #107, 'UNSPECIFIED' ) ;
#110 = DIRECTION ( 'NONE',  ( -1.000000000000000000, -0.0000000000000000000, -0.0000000000000000000 ) ) ;
#111 = ADVANCED_FACE ( 'NONE', ( #74, #196 ), #63, .T. ) ;
#112 = CARTESIAN_POINT ( 'NONE',  ( 0.1100198096393709551, 0.0000000000000000000, 0.2827500000000031655 ) ) ;
#113 = PRODUCT ( 'BTC_BTC2-( )12', 'BTC_BTC2-( )12', '', ( #58 ) ) ;
#114 = ORIENTED_EDGE ( 'NONE', *, *, #119, .F. ) ;
#115 = FACE_OUTER_BOUND ( 'NONE', #168, .T. ) ;
#116 = APPROVAL_ROLE ( '' ) ;
#117 = LOCAL_TIME ( 14, 4, 0.0000000000000000000, #184 ) ;
#118 = CIRCLE ( 'NONE', #314, 0.3630000000000006000 ) ;
#119 = EDGE_CURVE ( 'NONE', #235, #235, #150, .T. ) ;
#120 = APPROVAL_PERSON_ORGANIZATION ( #330, #89, #116 ) ;
#121 = EDGE_LOOP ( 'NONE', ( #302 ) ) ;
#122 = FACE_BOUND ( 'NONE', #147, .T. ) ;
#123 = PERSON_AND_ORGANIZATION ( #57, #128 ) ;
#124 = ORIENTED_EDGE ( 'NONE', *, *, #197, .F. ) ;
#125 = AXIS2_PLACEMENT_3D ( 'NONE', #156, #154, #207 ) ;
#126 = DIRECTION ( 'NONE',  ( -1.000000000000000000, -0.0000000000000000000, -0.0000000000000000000 ) ) ;
#127 = TOROIDAL_SURFACE ( 'NONE', #61, 0.3243138840019610947, 0.05068611599804190987 ) ;
#128 = ORGANIZATION ( 'UNSPECIFIED', 'UNSPECIFIED', '' ) ;
#129 = DIRECTION ( 'NONE',  ( -1.000000000000000000, -0.0000000000000000000, -0.0000000000000000000 ) ) ;
#130 = ORIENTED_EDGE ( 'NONE', *, *, #290, .T. ) ;
#131 = CC_DESIGN_PERSON_AND_ORGANIZATION_ASSIGNMENT ( #98, #40, ( #28 ) ) ;
#132 = CARTESIAN_POINT ( 'NONE',  ( 0.4250000000000017653, 0.0000000000000000000, 0.2979999999999972671 ) ) ;
#133 = DIRECTION ( 'NONE',  ( 0.0000000000000000000, 0.0000000000000000000, 1.000000000000000000 ) ) ;
#134 = ORIENTED_EDGE ( 'NONE', *, *, #246, .F. ) ;
#135 = ADVANCED_FACE ( 'NONE', ( #291, #276 ), #282, .T. ) ;
#136 = EDGE_CURVE ( 'NONE', #149, #149, #174, .T. ) ;
#137 = PERSON_AND_ORGANIZATION ( #57, #128 ) ;
#138 = EDGE_LOOP ( 'NONE', ( #230 ) ) ;
#139 = DIMENSIONAL_EXPONENTS ( 1.000000000000000000, 0.0000000000000000000, 0.0000000000000000000, 0.0000000000000000000, 0.0000000000000000000, 0.0000000000000000000, 0.0000000000000000000 ) ;
#140 = DATE_AND_TIME ( #214, #222 ) ;
#141 = EDGE_LOOP ( 'NONE', ( #336 ) ) ;
#142 = FACE_OUTER_BOUND ( 'NONE', #223, .T. ) ;
#143 =( GEOMETRIC_REPRESENTATION_CONTEXT ( 3 ) GLOBAL_UNCERTAINTY_ASSIGNED_CONTEXT ( ( #96 ) ) GLOBAL_UNIT_ASSIGNED_CONTEXT ( ( #7, #213, #262 ) ) REPRESENTATION_CONTEXT ( 'NONE', 'WORKASPACE' ) );
#144 = EDGE_LOOP ( 'NONE', ( #35 ) ) ;
#145 = CC_DESIGN_PERSON_AND_ORGANIZATION_ASSIGNMENT ( #226, #306, ( #28 ) ) ;
#146 = PERSON_AND_ORGANIZATION ( #57, #128 ) ;
#147 = EDGE_LOOP ( 'NONE', ( #60 ) ) ;
#148 = CC_DESIGN_APPROVAL ( #68, ( #28 ) ) ;
#149 = VERTEX_POINT ( 'NONE', #132 ) ;
#150 = CIRCLE ( 'NONE', #90, 0.3049854286469299014 ) ;
#151 = DIRECTION ( 'NONE',  ( 0.0000000000000000000, 0.0000000000000000000, 1.000000000000000000 ) ) ;
#152 = CARTESIAN_POINT ( 'NONE',  ( 0.5100000000000017852, 0.0000000000000000000, 0.0000000000000000000 ) ) ;
#153 = EDGE_LOOP ( 'NONE', ( #114 ) ) ;
#154 = DIRECTION ( 'NONE',  ( -1.000000000000000000, -0.0000000000000000000, -0.0000000000000000000 ) ) ;
#155 = VERTEX_POINT ( 'NONE', #112 ) ;
#156 = CARTESIAN_POINT ( 'NONE',  ( 0.05040042753140993453, 0.0000000000000000000, 0.0000000000000000000 ) ) ;
#157 = CARTESIAN_POINT ( 'NONE',  ( 0.0000000000000000000, -0.2201250000000000151, 0.0000000000000000000 ) ) ;
#158 = COORDINATED_UNIVERSAL_TIME_OFFSET ( 6, 0, .BEHIND. ) ;
#159 = DIRECTION ( 'NONE',  ( 0.0000000000000000000, 0.0000000000000000000, 1.000000000000000000 ) ) ;
#160 = DIRECTION ( 'NONE',  ( -1.000000000000000000, -0.0000000000000000000, -0.0000000000000000000 ) ) ;
#161 =( LENGTH_UNIT ( ) NAMED_UNIT ( * ) SI_UNIT ( $, .METRE. ) );
#162 = APPLICATION_CONTEXT ( 'configuration controlled 3d designs of mechanical parts and assemblies' ) ;
#163 = VERTEX_POINT ( 'NONE', #165 ) ;
#164 = CIRCLE ( 'NONE', #32, 0.2074999999999940781 ) ;
#165 = CARTESIAN_POINT ( 'NONE',  ( 0.0000000000000000000, 0.0000000000000000000, 0.3629999999999999893 ) ) ;
#166 = AXIS2_PLACEMENT_3D ( 'NONE', #79, #3, #81 ) ;
#167 = APPROVAL_ROLE ( '' ) ;
#168 = EDGE_LOOP ( 'NONE', ( #134 ) ) ;
#169 = PERSON_AND_ORGANIZATION_ROLE ( 'creator' ) ;
#170 = FACE_OUTER_BOUND ( 'NONE', #153, .T. ) ;
#171 = APPROVAL_PERSON_ORGANIZATION ( #123, #109, #167 ) ;
#172 = EDGE_CURVE ( 'NONE', #5, #5, #94, .T. ) ;
#173 = EDGE_LOOP ( 'NONE', ( #180 ) ) ;
#174 = CIRCLE ( 'NONE', #311, 0.2979999999999972671 ) ;
#175 = LOCAL_TIME ( 14, 4, 0.0000000000000000000, #158 ) ;
#176 = AXIS2_PLACEMENT_3D ( 'NONE', #105, #255, #294 ) ;
#177 = CYLINDRICAL_SURFACE ( 'NONE', #334, 0.1902500000000000024 ) ;
#178 = SHAPE_DEFINITION_REPRESENTATION ( #319, #181 ) ;
#179 = CIRCLE ( 'NONE', #322, 0.2807261184233936224 ) ;
#180 = ORIENTED_EDGE ( 'NONE', *, *, #172, .T. ) ;
#181 = ADVANCED_BREP_SHAPE_REPRESENTATION ( 'BTC_BTC2-( )12', ( #275, #39 ), #143 ) ;
#182 = FACE_BOUND ( 'NONE', #138, .T. ) ;
#183 = DIRECTION ( 'NONE',  ( 0.0000000000000000000, 0.0000000000000000000, 1.000000000000000000 ) ) ;
#184 = COORDINATED_UNIVERSAL_TIME_OFFSET ( 6, 0, .BEHIND. ) ;
#185 = EDGE_CURVE ( 'NONE', #346, #346, #218, .T. ) ;
#186 = CARTESIAN_POINT ( 'NONE',  ( 0.3756221235694399696, 0.0000000000000000000, 0.1902500000000000024 ) ) ;
#187 = DIRECTION ( 'NONE',  ( 0.0000000000000000000, 0.0000000000000000000, 1.000000000000000000 ) ) ;
#188 = CARTESIAN_POINT ( 'NONE',  ( 0.05040042753140993453, 0.0000000000000000000, 0.1902500000000000024 ) ) ;
#189 = APPLICATION_PROTOCOL_DEFINITION ( 'international standard', 'config_control_design', 1994, #162 ) ;
#190 = CARTESIAN_POINT ( 'NONE',  ( 0.5550000000000017142, 0.0000000000000000000, 0.2807261184233936224 ) ) ;
#191 = ORIENTED_EDGE ( 'NONE', *, *, #185, .T. ) ;
#192 = AXIS2_PLACEMENT_3D ( 'NONE', #297, #323, #21 ) ;
#193 = ADVANCED_FACE ( 'NONE', ( #88, #267 ), #103, .T. ) ;
#194 = EDGE_LOOP ( 'NONE', ( #102 ) ) ;
#195 = VERTEX_POINT ( 'NONE', #53 ) ;
#196 = FACE_BOUND ( 'NONE', #285, .T. ) ;
#197 = EDGE_CURVE ( 'NONE', #251, #251, #347, .T. ) ;
#198 = EDGE_LOOP ( 'NONE', ( #78 ) ) ;
#199 = CIRCLE ( 'NONE', #9, 0.2827500000000031655 ) ;
#200 = APPROVAL_DATE_TIME ( #1, #109 ) ;
#201 = CC_DESIGN_SECURITY_CLASSIFICATION ( #82, ( #28 ) ) ;
#202 = EDGE_LOOP ( 'NONE', ( #308 ) ) ;
#203 = FACE_BOUND ( 'NONE', #194, .T. ) ;
#204 = CARTESIAN_POINT ( 'NONE',  ( 0.4250000000000017653, 0.0000000000000000000, 0.0000000000000000000 ) ) ;
#205 = DIRECTION ( 'NONE',  ( 0.0000000000000000000, 0.0000000000000000000, 1.000000000000000000 ) ) ;
#206 = CLOSED_SHELL ( 'NONE', ( #278, #37, #333, #135, #111, #59, #56, #193, #211, #309, #11, #237, #240 ) ) ;
#207 = DIRECTION ( 'NONE',  ( 0.0000000000000000000, 0.0000000000000000000, 1.000000000000000000 ) ) ;
#208 = DIRECTION ( 'NONE',  ( 0.0000000000000000000, 0.0000000000000000000, 1.000000000000000000 ) ) ;
#209 = DIRECTION ( 'NONE',  ( 0.0000000000000000000, 0.0000000000000000000, 1.000000000000000000 ) ) ;
#210 = DIRECTION ( 'NONE',  ( 0.0000000000000000000, 0.0000000000000000000, 1.000000000000000000 ) ) ;
#211 = ADVANCED_FACE ( 'NONE', ( #142, #236 ), #50, .F. ) ;
#212 = CARTESIAN_POINT ( 'NONE',  ( 0.05040042753140993453, 0.0000000000000000000, 0.0000000000000000000 ) ) ;
#213 =( NAMED_UNIT ( * ) PLANE_ANGLE_UNIT ( ) SI_UNIT ( $, .RADIAN. ) );
#214 = CALENDAR_DATE ( 2021, 13, 8 ) ;
#215 = EDGE_LOOP ( 'NONE', ( #289 ) ) ;
#216 = EDGE_CURVE ( 'NONE', #304, #304, #179, .T. ) ;
#217 = CARTESIAN_POINT ( 'NONE',  ( 0.1100198096393709551, 0.0000000000000000000, 0.0000000000000000000 ) ) ;
#218 = CIRCLE ( 'NONE', #125, 0.1902500000000000024 ) ;
#219 = DIRECTION ( 'NONE',  ( 0.0000000000000000000, 0.0000000000000000000, 1.000000000000000000 ) ) ;
#220 = ORIENTED_EDGE ( 'NONE', *, *, #228, .T. ) ;
#221 = AXIS2_PLACEMENT_3D ( 'NONE', #84, #266, #269 ) ;
#222 = LOCAL_TIME ( 14, 4, 0.0000000000000000000, #46 ) ;
#223 = EDGE_LOOP ( 'NONE', ( #95 ) ) ;
#224 = AXIS2_PLACEMENT_3D ( 'NONE', #292, #76, #257 ) ;
#225 = ORIENTED_EDGE ( 'NONE', *, *, #228, .F. ) ;
#226 = PERSON_AND_ORGANIZATION ( #57, #128 ) ;
#227 = DIRECTION ( 'NONE',  ( -1.000000000000000000, -0.0000000000000000000, -0.0000000000000000000 ) ) ;
#228 = EDGE_CURVE ( 'NONE', #66, #66, #258, .T. ) ;
#229 = DIRECTION ( 'NONE',  ( -1.000000000000000000, -0.0000000000000000000, -0.0000000000000000000 ) ) ;
#230 = ORIENTED_EDGE ( 'NONE', *, *, #185, .F. ) ;
#231 = DIRECTION ( 'NONE',  ( -1.000000000000000000, -0.0000000000000000000, -0.0000000000000000000 ) ) ;
#232 = CONICAL_SURFACE ( 'NONE', #75, 0.2074999999999940781, 0.2617993877990686946 ) ;
#233 = CARTESIAN_POINT ( 'NONE',  ( 0.03274853865370499356, 0.0000000000000000000, 0.0000000000000000000 ) ) ;
#234 = PLANE ( 'NONE',  #300 ) ;
#235 = VERTEX_POINT ( 'NONE', #86 ) ;
#236 = FACE_OUTER_BOUND ( 'NONE', #15, .T. ) ;
#237 = ADVANCED_FACE ( 'NONE', ( #67, #182 ), #337, .F. ) ;
#238 = CARTESIAN_POINT ( 'NONE',  ( 0.4400000000000017231, 0.0000000000000000000, 0.2074999999999940781 ) ) ;
#239 = DATE_TIME_ROLE ( 'creation_date' ) ;
#240 = ADVANCED_FACE ( 'NONE', ( #104, #252 ), #234, .T. ) ;
#241 = EDGE_LOOP ( 'NONE', ( #191 ) ) ;
#242 = TOROIDAL_SURFACE ( 'NONE', #341, 0.3127500000000033031, 0.03000000000000015848 ) ;
#243 = APPROVAL_DATE_TIME ( #140, #89 ) ;
#244 = CC_DESIGN_APPROVAL ( #109, ( #92 ) ) ;
#245 = FACE_OUTER_BOUND ( 'NONE', #202, .T. ) ;
#246 = EDGE_CURVE ( 'NONE', #163, #163, #30, .T. ) ;
#247 = EDGE_LOOP ( 'NONE', ( #349 ) ) ;
#248 = APPROVAL_PERSON_ORGANIZATION ( #106, #68, #277 ) ;
#249 = CARTESIAN_POINT ( 'NONE',  ( 0.06549707730741015366, 0.0000000000000000000, 0.0000000000000000000 ) ) ;
#250 = FACE_OUTER_BOUND ( 'NONE', #17, .T. ) ;
#251 = VERTEX_POINT ( 'NONE', #186 ) ;
#252 = FACE_BOUND ( 'NONE', #20, .T. ) ;
#253 = CARTESIAN_POINT ( 'NONE',  ( 0.0000000000000000000, 0.0000000000000000000, 0.0000000000000000000 ) ) ;
#254 = AXIS2_PLACEMENT_3D ( 'NONE', #152, #77, #326 ) ;
#255 = DIRECTION ( 'NONE',  ( 1.000000000000000000, 0.0000000000000000000, 0.0000000000000000000 ) ) ;
#256 = ORIENTED_EDGE ( 'NONE', *, *, #290, .F. ) ;
#257 = DIRECTION ( 'NONE',  ( 0.0000000000000000000, 0.0000000000000000000, -1.000000000000000000 ) ) ;
#258 = CIRCLE ( 'NONE', #342, 0.2074999999999934119 ) ;
#259 = DIRECTION ( 'NONE',  ( -1.000000000000000000, -0.0000000000000000000, -0.0000000000000000000 ) ) ;
#260 = COORDINATED_UNIVERSAL_TIME_OFFSET ( 6, 0, .BEHIND. ) ;
#261 = DIRECTION ( 'NONE',  ( 0.0000000000000000000, 0.0000000000000000000, 1.000000000000000000 ) ) ;
#262 =( NAMED_UNIT ( * ) SI_UNIT ( $, .STERADIAN. ) SOLID_ANGLE_UNIT ( ) );
#263 = CARTESIAN_POINT ( 'NONE',  ( 0.0000000000000000000, 0.0000000000000000000, 0.0000000000000000000 ) ) ;
#264 = DATE_AND_TIME ( #288, #71 ) ;
#265 = CARTESIAN_POINT ( 'NONE',  ( 0.3680862251845798960, 0.0000000000000000000, 0.0000000000000000000 ) ) ;
#266 = DIRECTION ( 'NONE',  ( -1.000000000000000000, -0.0000000000000000000, -0.0000000000000000000 ) ) ;
#267 = FACE_OUTER_BOUND ( 'NONE', #141, .T. ) ;
#268 = CC_DESIGN_PERSON_AND_ORGANIZATION_ASSIGNMENT ( #93, #169, ( #92 ) ) ;
#269 = DIRECTION ( 'NONE',  ( 0.0000000000000000000, 0.0000000000000000000, 1.000000000000000000 ) ) ;
#270 = DIRECTION ( 'NONE',  ( 0.0000000000000000000, 0.0000000000000000000, -1.000000000000000000 ) ) ;
#271 = EDGE_CURVE ( 'NONE', #195, #195, #199, .T. ) ;
#272 = CARTESIAN_POINT ( 'NONE',  ( 0.5550000000000017142, 0.0000000000000000000, 0.2074999999999934119 ) ) ;
#273 = ORIENTED_EDGE ( 'NONE', *, *, #14, .F. ) ;
#274 = APPROVAL_STATUS ( 'not_yet_approved' ) ;
#275 = MANIFOLD_SOLID_BREP ( 'Revolve1', #206 ) ;
#276 = FACE_OUTER_BOUND ( 'NONE', #121, .T. ) ;
#277 = APPROVAL_ROLE ( '' ) ;
#278 = ADVANCED_FACE ( 'NONE', ( #321, #115 ), #127, .T. ) ;
#279 = CONICAL_SURFACE ( 'NONE', #284, 0.3630000000000006000, 1.308996938995828474 ) ;
#280 = AXIS2_PLACEMENT_3D ( 'NONE', #263, #259, #133 ) ;
#281 = ORIENTED_EDGE ( 'NONE', *, *, #136, .T. ) ;
#282 = CYLINDRICAL_SURFACE ( 'NONE', #166, 0.2827500000000031655 ) ;
#283 = CC_DESIGN_APPROVAL ( #89, ( #82 ) ) ;
#284 = AXIS2_PLACEMENT_3D ( 'NONE', #249, #227, #183 ) ;
#285 = EDGE_LOOP ( 'NONE', ( #2 ) ) ;
#286 = CC_DESIGN_DATE_AND_TIME_ASSIGNMENT ( #338, #239, ( #92 ) ) ;
#287 = CARTESIAN_POINT ( 'NONE',  ( 0.06549707730741015366, 0.0000000000000000000, 0.0000000000000000000 ) ) ;
#288 = CALENDAR_DATE ( 2021, 13, 8 ) ;
#289 = ORIENTED_EDGE ( 'NONE', *, *, #97, .F. ) ;
#290 = EDGE_CURVE ( 'NONE', #339, #339, #43, .T. ) ;
#291 = FACE_OUTER_BOUND ( 'NONE', #343, .T. ) ;
#292 = CARTESIAN_POINT ( 'NONE',  ( 0.3680862251845798960, 0.0000000000000000000, 0.0000000000000000000 ) ) ;
#293 = CARTESIAN_POINT ( 'NONE',  ( 0.4400000000000017231, 0.0000000000000000000, 0.0000000000000000000 ) ) ;
#294 = DIRECTION ( 'NONE',  ( 0.0000000000000000000, 0.0000000000000000000, -1.000000000000000000 ) ) ;
#295 = DIRECTION ( 'NONE',  ( 0.0000000000000000000, 0.0000000000000000000, 1.000000000000000000 ) ) ;
#296 = DIRECTION ( 'NONE',  ( -1.000000000000000000, 0.0000000000000000000, -0.0000000000000000000 ) ) ;
#297 = CARTESIAN_POINT ( 'NONE',  ( 0.0000000000000000000, 0.0000000000000000000, 0.0000000000000000000 ) ) ;
#298 = CARTESIAN_POINT ( 'NONE',  ( 0.5550000000000017142, 0.0000000000000000000, 0.0000000000000000000 ) ) ;
#299 = DIRECTION ( 'NONE',  ( 0.0000000000000000000, 0.0000000000000000000, 1.000000000000000000 ) ) ;
#300 = AXIS2_PLACEMENT_3D ( 'NONE', #157, #296, #4 ) ;
#301 = DIRECTION ( 'NONE',  ( -1.000000000000000000, -0.0000000000000000000, -0.0000000000000000000 ) ) ;
#302 = ORIENTED_EDGE ( 'NONE', *, *, #24, .F. ) ;
#303 = CARTESIAN_POINT ( 'NONE',  ( 0.0000000000000000000, 0.0000000000000000000, 0.0000000000000000000 ) ) ;
#304 = VERTEX_POINT ( 'NONE', #190 ) ;
#305 = DIRECTION ( 'NONE',  ( 0.0000000000000000000, 0.0000000000000000000, 1.000000000000000000 ) ) ;
#306 = PERSON_AND_ORGANIZATION_ROLE ( 'creator' ) ;
#307 = CC_DESIGN_DATE_AND_TIME_ASSIGNMENT ( #264, #36, ( #82 ) ) ;
#308 = ORIENTED_EDGE ( 'NONE', *, *, #136, .F. ) ;
#309 = ADVANCED_FACE ( 'NONE', ( #122, #325 ), #232, .F. ) ;
#310 = APPROVAL_DATE_TIME ( #38, #68 ) ;
#311 = AXIS2_PLACEMENT_3D ( 'NONE', #204, #231, #295 ) ;
#312 = LENGTH_MEASURE_WITH_UNIT ( LENGTH_MEASURE( 0.02539999999999999897 ), #161 );
#313 = FACE_OUTER_BOUND ( 'NONE', #198, .T. ) ;
#314 = AXIS2_PLACEMENT_3D ( 'NONE', #287, #320, #261 ) ;
#315 = FACE_OUTER_BOUND ( 'NONE', #241, .T. ) ;
#316 = DIRECTION ( 'NONE',  ( 0.0000000000000000000, 0.0000000000000000000, 1.000000000000000000 ) ) ;
#317 = LOCAL_TIME ( 14, 4, 0.0000000000000000000, #260 ) ;
#318 = AXIS2_PLACEMENT_3D ( 'NONE', #31, #328, #299 ) ;
#319 = PRODUCT_DEFINITION_SHAPE ( 'NONE', 'NONE',  #92 ) ;
#320 = DIRECTION ( 'NONE',  ( -1.000000000000000000, -0.0000000000000000000, -0.0000000000000000000 ) ) ;
#321 = FACE_OUTER_BOUND ( 'NONE', #144, .T. ) ;
#322 = AXIS2_PLACEMENT_3D ( 'NONE', #298, #85, #27 ) ;
#323 = DIRECTION ( 'NONE',  ( -1.000000000000000000, -0.0000000000000000000, -0.0000000000000000000 ) ) ;
#324 = ORIENTED_EDGE ( 'NONE', *, *, #246, .T. ) ;
#325 = FACE_OUTER_BOUND ( 'NONE', #215, .T. ) ;
#326 = DIRECTION ( 'NONE',  ( 0.0000000000000000000, 0.0000000000000000000, 1.000000000000000000 ) ) ;
#327 = DIRECTION ( 'NONE',  ( 0.0000000000000000000, 0.0000000000000000000, 1.000000000000000000 ) ) ;
#328 = DIRECTION ( 'NONE',  ( -1.000000000000000000, -0.0000000000000000000, -0.0000000000000000000 ) ) ;
#329 = FACE_BOUND ( 'NONE', #247, .T. ) ;
#330 = PERSON_AND_ORGANIZATION ( #57, #128 ) ;
#331 = CARTESIAN_POINT ( 'NONE',  ( 0.5550000000000017142, 0.0000000000000000000, 0.0000000000000000000 ) ) ;
#332 = DIRECTION ( 'NONE',  ( 1.000000000000000000, 0.0000000000000000000, 0.0000000000000000000 ) ) ;
#333 = ADVANCED_FACE ( 'NONE', ( #313, #170 ), #242, .F. ) ;
#334 = AXIS2_PLACEMENT_3D ( 'NONE', #253, #348, #316 ) ;
#335 = DIRECTION ( 'NONE',  ( -1.000000000000000000, -0.0000000000000000000, -0.0000000000000000000 ) ) ;
#336 = ORIENTED_EDGE ( 'NONE', *, *, #216, .F. ) ;
#337 = CONICAL_SURFACE ( 'NONE', #99, 0.1902500000000000024, 0.5350737153604366858 ) ;
#338 = DATE_AND_TIME ( #70, #317 ) ;
#339 = VERTEX_POINT ( 'NONE', #26 ) ;
#340 = FACE_OUTER_BOUND ( 'NONE', #345, .T. ) ;
#341 = AXIS2_PLACEMENT_3D ( 'NONE', #217, #10, #159 ) ;
#342 = AXIS2_PLACEMENT_3D ( 'NONE', #331, #160, #187 ) ;
#343 = EDGE_LOOP ( 'NONE', ( #72 ) ) ;
#344 = CC_DESIGN_PERSON_AND_ORGANIZATION_ASSIGNMENT ( #146, #34, ( #82 ) ) ;
#345 = EDGE_LOOP ( 'NONE', ( #8 ) ) ;
#346 = VERTEX_POINT ( 'NONE', #188 ) ;
#347 = CIRCLE ( 'NONE', #221, 0.1902500000000000024 ) ;
#348 = DIRECTION ( 'NONE',  ( -1.000000000000000000, -0.0000000000000000000, -0.0000000000000000000 ) ) ;
#349 = ORIENTED_EDGE ( 'NONE', *, *, #119, .T. ) ;
#350 = AXIS2_PLACEMENT_3D ( 'NONE', #101, #129, #151 ) ;
#351 = CARTESIAN_POINT ( 'NONE',  ( 0.5100000000000017852, 0.0000000000000000000, 0.0000000000000000000 ) ) ;
#352 = CYLINDRICAL_SURFACE ( 'NONE', #192, 0.2979999999999973226 ) ;
ENDSEC;
END-ISO-10303-21;
