ISO-10303-21;
HEADER;
FILE_DESCRIPTION (( 'STEP AP203' ),
    '1' );
FILE_NAME ('MGP98T-( )6-20.STEP',
    '2021-11-17T16:45:09',
    ( '' ),
    ( '' ),
    'SwSTEP 2.0',
    'SolidWorks 2018',
    '' );
FILE_SCHEMA (( 'CONFIG_CONTROL_DESIGN' ));
ENDSEC;

DATA;
#1 = LOCAL_TIME ( 10, 45, 9.000000000000000000, #193 ) ;
#2 = CC_DESIGN_DATE_AND_TIME_ASSIGNMENT ( #121, #223, ( #290 ) ) ;
#3 = FACE_BOUND ( 'NONE', #340, .T. ) ;
#4 = ORIENTED_EDGE ( 'NONE', *, *, #436, .T. ) ;
#5 = EDGE_LOOP ( 'NONE', ( #190 ) ) ;
#6 = DIRECTION ( 'NONE',  ( 0.0000000000000000000, 0.0000000000000000000, 1.000000000000000000 ) ) ;
#7 = LOCAL_TIME ( 10, 45, 9.000000000000000000, #273 ) ;
#8 = DATE_AND_TIME ( #92, #174 ) ;
#9 = DIRECTION ( 'NONE',  ( 0.0000000000000000000, 0.0000000000000000000, 1.000000000000000000 ) ) ;
#10 = COORDINATED_UNIVERSAL_TIME_OFFSET ( 6, 0, .BEHIND. ) ;
#11 = AXIS2_PLACEMENT_3D ( 'NONE', #32, #134, #207 ) ;
#12 = CARTESIAN_POINT ( 'NONE',  ( 2.466397652295269971, 0.0000000000000000000, 0.0000000000000000000 ) ) ;
#13 = DIRECTION ( 'NONE',  ( -1.000000000000000000, -0.0000000000000000000, -0.0000000000000000000 ) ) ;
#14 = SECURITY_CLASSIFICATION ( '', '', #189 ) ;
#15 = DIRECTION ( 'NONE',  ( -1.000000000000000000, -0.0000000000000000000, -0.0000000000000000000 ) ) ;
#16 =( GEOMETRIC_REPRESENTATION_CONTEXT ( 3 ) GLOBAL_UNCERTAINTY_ASSIGNED_CONTEXT ( ( #83 ) ) GLOBAL_UNIT_ASSIGNED_CONTEXT ( ( #85, #344, #212 ) ) REPRESENTATION_CONTEXT ( 'NONE', 'WORKASPACE' ) );
#17 = EDGE_LOOP ( 'NONE', ( #57 ) ) ;
#18 = CARTESIAN_POINT ( 'NONE',  ( 1.711781520507869470, 0.0000000000000000000, 0.08730145659525989643 ) ) ;
#19 = CARTESIAN_POINT ( 'NONE',  ( 0.1214999824824982283, 0.0000000000000000000, 0.0000000000000000000 ) ) ;
#20 = PRODUCT_DEFINITION_FORMATION_WITH_SPECIFIED_SOURCE ( 'ANY', '', #359, .NOT_KNOWN. ) ;
#21 = ORIENTED_EDGE ( 'NONE', *, *, #41, .T. ) ;
#22 = APPROVAL_STATUS ( 'not_yet_approved' ) ;
#23 = COORDINATED_UNIVERSAL_TIME_OFFSET ( 6, 0, .BEHIND. ) ;
#24 = APPLICATION_PROTOCOL_DEFINITION ( 'international standard', 'config_control_design', 1994, #351 ) ;
#25 = SECURITY_CLASSIFICATION ( '', '', #291 ) ;
#26 = PERSON_AND_ORGANIZATION ( #152, #425 ) ;
#27 = AXIS2_PLACEMENT_3D ( 'NONE', #165, #271, #373 ) ;
#28 = CARTESIAN_POINT ( 'NONE',  ( 2.456328466790339782, 0.0000000000000000000, 0.0000000000000000000 ) ) ;
#29 = FACE_OUTER_BOUND ( 'NONE', #45, .T. ) ;
#30 = EDGE_CURVE ( 'NONE', #316, #316, #415, .T. ) ;
#31 = ADVANCED_FACE ( 'NONE', ( #252 ), #66, .T. ) ;
#32 = CARTESIAN_POINT ( 'NONE',  ( 0.4537877729670087845, 0.0000000000000000000, 0.0000000000000000000 ) ) ;
#33 = CIRCLE ( 'NONE', #430, 0.09624990365375546419 ) ;
#34 = DIRECTION ( 'NONE',  ( 0.0000000000000000000, 0.0000000000000000000, 1.000000000000000000 ) ) ;
#35 = EDGE_LOOP ( 'NONE', ( #63 ) ) ;
#36 = DIRECTION ( 'NONE',  ( -1.000000000000000000, -0.0000000000000000000, -0.0000000000000000000 ) ) ;
#37 = DIRECTION ( 'NONE',  ( -1.000000000000000000, -0.0000000000000000000, -0.0000000000000000000 ) ) ;
#38 = ADVANCED_FACE ( 'NONE', ( #435, #155 ), #69, .F. ) ;
#39 = DIRECTION ( 'NONE',  ( -1.000000000000000000, -0.0000000000000000000, -0.0000000000000000000 ) ) ;
#40 = DATE_AND_TIME ( #70, #396 ) ;
#41 = EDGE_CURVE ( 'NONE', #229, #229, #401, .T. ) ;
#42 = VERTEX_POINT ( 'NONE', #47 ) ;
#43 = FACE_OUTER_BOUND ( 'NONE', #346, .T. ) ;
#44 = DIRECTION ( 'NONE',  ( 0.0000000000000000000, 0.0000000000000000000, 1.000000000000000000 ) ) ;
#45 = EDGE_LOOP ( 'NONE', ( #226 ) ) ;
#46 = EDGE_CURVE ( 'NONE', #42, #42, #118, .T. ) ;
#47 = CARTESIAN_POINT ( 'NONE',  ( 0.1040000000000007585, 0.0000000000000000000, 0.2264715020202910378 ) ) ;
#48 = CC_DESIGN_DATE_AND_TIME_ASSIGNMENT ( #255, #429, ( #14 ) ) ;
#49 = APPROVAL_ROLE ( '' ) ;
#50 = COORDINATED_UNIVERSAL_TIME_OFFSET ( 6, 0, .BEHIND. ) ;
#51 = DIRECTION ( 'NONE',  ( 1.000000000000000000, 0.0000000000000000000, 0.0000000000000000000 ) ) ;
#52 = FACE_OUTER_BOUND ( 'NONE', #35, .T. ) ;
#53 = CARTESIAN_POINT ( 'NONE',  ( 2.487000000000000099, 0.0000000000000000000, 0.07549992449999982924 ) ) ;
#54 = AXIS2_PLACEMENT_3D ( 'NONE', #98, #232, #324 ) ;
#55 = APPROVAL_STATUS ( 'not_yet_approved' ) ;
#56 = CC_DESIGN_PERSON_AND_ORGANIZATION_ASSIGNMENT ( #360, #312, ( #297 ) ) ;
#57 = ORIENTED_EDGE ( 'NONE', *, *, #95, .T. ) ;
#58 = ORIENTED_EDGE ( 'NONE', *, *, #146, .T. ) ;
#59 = DATE_TIME_ROLE ( 'classification_date' ) ;
#60 = AXIS2_PLACEMENT_3D ( 'NONE', #364, #129, #68 ) ;
#61 = CIRCLE ( 'NONE', #89, 0.2313342950185754976 ) ;
#62 = EDGE_CURVE ( 'NONE', #433, #433, #142, .T. ) ;
#63 = ORIENTED_EDGE ( 'NONE', *, *, #192, .F. ) ;
#64 = CC_DESIGN_APPROVAL ( #87, ( #20 ) ) ;
#65 = APPROVAL_DATE_TIME ( #147, #167 ) ;
#66 = CONICAL_SURFACE ( 'NONE', #139, 0.0003781575984522876220, 1.549001366447832595 ) ;
#67 = AXIS2_PLACEMENT_3D ( 'NONE', #231, #196, #326 ) ;
#68 = DIRECTION ( 'NONE',  ( -0.0000000000000000000, 0.0000000000000000000, 1.000000000000000000 ) ) ;
#69 = PLANE ( 'NONE',  #60 ) ;
#70 = CALENDAR_DATE ( 2021, 17, 11 ) ;
#71 = FACE_OUTER_BOUND ( 'NONE', #96, .T. ) ;
#72 = TOROIDAL_SURFACE ( 'NONE', #67, 0.1137498861362583047, 0.01749998248250283356 ) ;
#73 = DIRECTION ( 'NONE',  ( 0.0000000000000000000, 0.0000000000000000000, 1.000000000000000000 ) ) ;
#74 = ADVANCED_FACE ( 'NONE', ( #137, #163 ), #72, .F. ) ;
#75 = CARTESIAN_POINT ( 'NONE',  ( 2.456328466790339782, 0.0000000000000000000, 0.0000000000000000000 ) ) ;
#76 = COORDINATED_UNIVERSAL_TIME_OFFSET ( 6, 0, .BEHIND. ) ;
#77 = ADVANCED_FACE ( 'NONE', ( #274, #407 ), #82, .T. ) ;
#78 = ORIENTED_EDGE ( 'NONE', *, *, #220, .T. ) ;
#79 = MECHANICAL_CONTEXT ( 'NONE', #420, 'mechanical' ) ;
#80 = PERSON_AND_ORGANIZATION ( #152, #425 ) ;
#81 = FACE_BOUND ( 'NONE', #132, .T. ) ;
#82 = CONICAL_SURFACE ( 'NONE', #157, 0.09299990690700012108, 0.1830416396402059220 ) ;
#83 = UNCERTAINTY_MEASURE_WITH_UNIT (LENGTH_MEASURE( 1.000000000000000082E-05 ), #85, 'distance_accuracy_value', 'NONE');
#84 = DIRECTION ( 'NONE',  ( -1.000000000000000000, -0.0000000000000000000, -0.0000000000000000000 ) ) ;
#85 =( CONVERSION_BASED_UNIT ( 'INCH', #335 ) LENGTH_UNIT ( ) NAMED_UNIT ( #105 ) );
#86 = PERSON_AND_ORGANIZATION ( #152, #425 ) ;
#87 = APPROVAL ( #55, 'UNSPECIFIED' ) ;
#88 = CIRCLE ( 'NONE', #11, 0.09299990690700012108 ) ;
#89 = AXIS2_PLACEMENT_3D ( 'NONE', #408, #37, #9 ) ;
#90 = APPROVAL_ROLE ( '' ) ;
#91 = APPROVAL_ROLE ( '' ) ;
#92 = CALENDAR_DATE ( 2021, 17, 11 ) ;
#93 = PRODUCT ( 'MGP98T-( )6-20', 'MGP98T-( )6-20', '', ( #79 ) ) ;
#94 = DATE_AND_TIME ( #264, #7 ) ;
#95 = EDGE_CURVE ( 'NONE', #182, #182, #387, .T. ) ;
#96 = EDGE_LOOP ( 'NONE', ( #283 ) ) ;
#97 = EDGE_LOOP ( 'NONE', ( #337 ) ) ;
#98 = CARTESIAN_POINT ( 'NONE',  ( 0.1040000000000007585, 0.0000000000000000000, 0.0000000000000000000 ) ) ;
#99 = APPROVAL_DATE_TIME ( #279, #161 ) ;
#100 = AXIS2_PLACEMENT_3D ( 'NONE', #246, #44, #289 ) ;
#101 = ORIENTED_EDGE ( 'NONE', *, *, #192, .T. ) ;
#102 = PLANE ( 'NONE',  #355 ) ;
#103 = CARTESIAN_POINT ( 'NONE',  ( -4.370956789862821150E-15, 0.0000000000000000000, 0.0000000000000000000 ) ) ;
#104 = CC_DESIGN_PERSON_AND_ORGANIZATION_ASSIGNMENT ( #296, #391, ( #20 ) ) ;
#105 = DIMENSIONAL_EXPONENTS ( 1.000000000000000000, 0.0000000000000000000, 0.0000000000000000000, 0.0000000000000000000, 0.0000000000000000000, 0.0000000000000000000, 0.0000000000000000000 ) ;
#106 = AXIS2_PLACEMENT_3D ( 'NONE', #238, #410, #34 ) ;
#107 = CALENDAR_DATE ( 2021, 17, 11 ) ;
#108 = APPLICATION_CONTEXT ( 'configuration controlled 3d designs of mechanical parts and assemblies' ) ;
#109 = FACE_OUTER_BOUND ( 'NONE', #298, .T. ) ;
#110 = FACE_OUTER_BOUND ( 'NONE', #201, .T. ) ;
#111 = EDGE_LOOP ( 'NONE', ( #127 ) ) ;
#112 = DATE_TIME_ROLE ( 'creation_date' ) ;
#113 = DESIGN_CONTEXT ( 'detailed design', #108, 'design' ) ;
#114 = CARTESIAN_POINT ( 'NONE',  ( 2.487000000000000099, 0.0000000000000000000, 0.0000000000000000000 ) ) ;
#115 = CALENDAR_DATE ( 2021, 17, 11 ) ;
#116 = CARTESIAN_POINT ( 'NONE',  ( 0.4537877729670087845, 0.0000000000000000000, 0.09299990690700012108 ) ) ;
#117 = APPLICATION_PROTOCOL_DEFINITION ( 'international standard', 'config_control_design', 1994, #420 ) ;
#118 = CIRCLE ( 'NONE', #54, 0.2264715020202910378 ) ;
#119 = AXIS2_PLACEMENT_3D ( 'NONE', #114, #341, #423 ) ;
#120 = ORIENTED_EDGE ( 'NONE', *, *, #339, .F. ) ;
#121 = DATE_AND_TIME ( #115, #320 ) ;
#122 = FACE_BOUND ( 'NONE', #353, .T. ) ;
#123 = TOROIDAL_SURFACE ( 'NONE', #208, 0.2264715020202910378, 0.007499992492500474027 ) ;
#124 = EDGE_LOOP ( 'NONE', ( #275 ) ) ;
#125 = DIRECTION ( 'NONE',  ( 0.0000000000000000000, 0.0000000000000000000, -1.000000000000000000 ) ) ;
#126 = AXIS2_PLACEMENT_3D ( 'NONE', #272, #378, #204 ) ;
#127 = ORIENTED_EDGE ( 'NONE', *, *, #30, .T. ) ;
#128 = EDGE_CURVE ( 'NONE', #397, #397, #375, .T. ) ;
#129 = DIRECTION ( 'NONE',  ( -1.000000000000000000, 0.0000000000000000000, -0.0000000000000000000 ) ) ;
#130 = APPROVAL_DATE_TIME ( #224, #87 ) ;
#131 = DIRECTION ( 'NONE',  ( 0.0000000000000000000, 0.0000000000000000000, 1.000000000000000000 ) ) ;
#132 = EDGE_LOOP ( 'NONE', ( #295 ) ) ;
#133 = ADVANCED_FACE ( 'NONE', ( #395, #260 ), #345, .T. ) ;
#134 = DIRECTION ( 'NONE',  ( -1.000000000000000000, -0.0000000000000000000, -0.0000000000000000000 ) ) ;
#135 = DIRECTION ( 'NONE',  ( 0.0000000000000000000, 0.0000000000000000000, 1.000000000000000000 ) ) ;
#136 = COORDINATED_UNIVERSAL_TIME_OFFSET ( 6, 0, .BEHIND. ) ;
#137 = FACE_OUTER_BOUND ( 'NONE', #160, .T. ) ;
#138 = EDGE_LOOP ( 'NONE', ( #377 ) ) ;
#139 = AXIS2_PLACEMENT_3D ( 'NONE', #406, #269, #202 ) ;
#140 = CALENDAR_DATE ( 2021, 17, 11 ) ;
#141 = APPROVAL_ROLE ( '' ) ;
#142 = CIRCLE ( 'NONE', #267, 0.1137498861362599423 ) ;
#143 = EDGE_CURVE ( 'NONE', #194, #194, #61, .T. ) ;
#144 = CARTESIAN_POINT ( 'NONE',  ( 2.456328466790339782, 0.0000000000000000000, 0.08749991249999995724 ) ) ;
#145 = CARTESIAN_POINT ( 'NONE',  ( 2.487000000000000099, 0.0000000000000000000, 0.0000000000000000000 ) ) ;
#146 = EDGE_CURVE ( 'NONE', #256, #256, #357, .T. ) ;
#147 = DATE_AND_TIME ( #249, #424 ) ;
#148 = CC_DESIGN_PERSON_AND_ORGANIZATION_ASSIGNMENT ( #287, #318, ( #14 ) ) ;
#149 = FACE_OUTER_BOUND ( 'NONE', #159, .T. ) ;
#150 = APPROVAL_STATUS ( 'not_yet_approved' ) ;
#151 = EDGE_LOOP ( 'NONE', ( #206 ) ) ;
#152 = PERSON ( 'UNSPECIFIED', 'UNSPECIFIED', 'UNSPECIFIED', ('UNSPECIFIED'), ('UNSPECIFIED'), ('UNSPECIFIED') ) ;
#153 = PERSON_AND_ORGANIZATION ( #152, #425 ) ;
#154 = CYLINDRICAL_SURFACE ( 'NONE', #328, 0.09299990690700012108 ) ;
#155 = FACE_BOUND ( 'NONE', #321, .T. ) ;
#156 = APPROVAL_PERSON_ORGANIZATION ( #257, #167, #90 ) ;
#157 = AXIS2_PLACEMENT_3D ( 'NONE', #370, #301, #125 ) ;
#158 = VERTEX_POINT ( 'NONE', #18 ) ;
#159 = EDGE_LOOP ( 'NONE', ( #168 ) ) ;
#160 = EDGE_LOOP ( 'NONE', ( #244 ) ) ;
#161 = APPROVAL ( #383, 'UNSPECIFIED' ) ;
#162 = PERSON_AND_ORGANIZATION ( #152, #425 ) ;
#163 = FACE_OUTER_BOUND ( 'NONE', #362, .T. ) ;
#164 = APPROVAL_PERSON_ORGANIZATION ( #350, #87, #317 ) ;
#165 = CARTESIAN_POINT ( 'NONE',  ( 1.711781520507869470, 0.0000000000000000000, 0.0000000000000000000 ) ) ;
#166 = FACE_OUTER_BOUND ( 'NONE', #230, .T. ) ;
#167 = APPROVAL ( #434, 'UNSPECIFIED' ) ;
#168 = ORIENTED_EDGE ( 'NONE', *, *, #41, .F. ) ;
#169 = DIRECTION ( 'NONE',  ( -1.000000000000000000, -0.0000000000000000000, -0.0000000000000000000 ) ) ;
#170 = ADVANCED_FACE ( 'NONE', ( #352, #110 ), #123, .T. ) ;
#171 = DIRECTION ( 'NONE',  ( 0.0000000000000000000, 0.0000000000000000000, 1.000000000000000000 ) ) ;
#172 = APPROVAL_DATE_TIME ( #94, #205 ) ;
#173 = APPROVAL_STATUS ( 'not_yet_approved' ) ;
#174 = LOCAL_TIME ( 10, 45, 9.000000000000000000, #268 ) ;
#175 = EDGE_CURVE ( 'NONE', #158, #158, #313, .T. ) ;
#176 = CARTESIAN_POINT ( 'NONE',  ( 0.3596079568637376433, 0.0000000000000000000, 0.0000000000000000000 ) ) ;
#177 = DIRECTION ( 'NONE',  ( -0.0000000000000000000, 0.0000000000000000000, 1.000000000000000000 ) ) ;
#178 = CARTESIAN_POINT ( 'NONE',  ( 2.466397652295269971, 0.0000000000000000000, 0.07549992449999982924 ) ) ;
#179 = LOCAL_TIME ( 10, 45, 9.000000000000000000, #50 ) ;
#180 = PERSON_AND_ORGANIZATION ( #152, #425 ) ;
#181 = CARTESIAN_POINT ( 'NONE',  ( 0.4160000000000001474, 0.0000000000000000000, 0.09624990365375001022 ) ) ;
#182 = VERTEX_POINT ( 'NONE', #388 ) ;
#183 = ORIENTED_EDGE ( 'NONE', *, *, #46, .T. ) ;
#184 = AXIS2_PLACEMENT_3D ( 'NONE', #103, #15, #135 ) ;
#185 = ORIENTED_EDGE ( 'NONE', *, *, #128, .F. ) ;
#186 = PERSON_AND_ORGANIZATION_ROLE ( 'design_owner' ) ;
#187 = CC_DESIGN_PERSON_AND_ORGANIZATION_ASSIGNMENT ( #80, #384, ( #297 ) ) ;
#188 = PERSON_AND_ORGANIZATION ( #152, #425 ) ;
#189 = SECURITY_CLASSIFICATION_LEVEL ( 'unclassified' ) ;
#190 = ORIENTED_EDGE ( 'NONE', *, *, #146, .F. ) ;
#191 = AXIS2_PLACEMENT_3D ( 'NONE', #380, #240, #171 ) ;
#192 = EDGE_CURVE ( 'NONE', #413, #413, #88, .T. ) ;
#193 = COORDINATED_UNIVERSAL_TIME_OFFSET ( 6, 0, .BEHIND. ) ;
#194 = VERTEX_POINT ( 'NONE', #213 ) ;
#195 = EDGE_LOOP ( 'NONE', ( #354 ) ) ;
#196 = DIRECTION ( 'NONE',  ( -1.000000000000000000, -0.0000000000000000000, -0.0000000000000000000 ) ) ;
#197 = PRODUCT_DEFINITION_SHAPE ( 'NONE', 'NONE',  #348 ) ;
#198 = CARTESIAN_POINT ( 'NONE',  ( 0.1040000000000008556, 0.0000000000000000000, 0.0000000000000000000 ) ) ;
#199 = LOCAL_TIME ( 10, 45, 9.000000000000000000, #23 ) ;
#200 = FACE_OUTER_BOUND ( 'NONE', #245, .T. ) ;
#201 = EDGE_LOOP ( 'NONE', ( #183 ) ) ;
#202 = DIRECTION ( 'NONE',  ( 0.0000000000000000000, 0.0000000000000000000, -1.000000000000000000 ) ) ;
#203 = DATE_AND_TIME ( #419, #179 ) ;
#204 = DIRECTION ( 'NONE',  ( 0.0000000000000000000, 0.0000000000000000000, 1.000000000000000000 ) ) ;
#205 = APPROVAL ( #150, 'UNSPECIFIED' ) ;
#206 = ORIENTED_EDGE ( 'NONE', *, *, #175, .F. ) ;
#207 = DIRECTION ( 'NONE',  ( 0.0000000000000000000, 0.0000000000000000000, 1.000000000000000000 ) ) ;
#208 = AXIS2_PLACEMENT_3D ( 'NONE', #417, #338, #412 ) ;
#209 = DESIGN_CONTEXT ( 'detailed design', #390, 'design' ) ;
#210 = CC_DESIGN_PERSON_AND_ORGANIZATION_ASSIGNMENT ( #162, #431, ( #290 ) ) ;
#211 = FACE_OUTER_BOUND ( 'NONE', #221, .T. ) ;
#212 =( NAMED_UNIT ( * ) SI_UNIT ( $, .STERADIAN. ) SOLID_ANGLE_UNIT ( ) );
#213 = CARTESIAN_POINT ( 'NONE',  ( 0.09079009230292714450, 0.0000000000000000000, 0.2313342950185754976 ) ) ;
#214 = APPROVAL_DATE_TIME ( #405, #265 ) ;
#215 = CARTESIAN_POINT ( 'NONE',  ( 0.4386128213486799043, 0.0000000000000000000, 0.09019081643478979449 ) ) ;
#216 = FACE_OUTER_BOUND ( 'NONE', #17, .T. ) ;
#217 = CARTESIAN_POINT ( 'NONE',  ( 0.4386128213486799043, 0.0000000000000000000, 0.0000000000000000000 ) ) ;
#218 = DIRECTION ( 'NONE',  ( 0.0000000000000000000, 0.0000000000000000000, 1.000000000000000000 ) ) ;
#219 = APPROVAL_PERSON_ORGANIZATION ( #180, #263, #49 ) ;
#220 = EDGE_CURVE ( 'NONE', #374, #374, #392, .T. ) ;
#221 = EDGE_LOOP ( 'NONE', ( #262 ) ) ;
#222 = PERSON_AND_ORGANIZATION_ROLE ( 'classification_officer' ) ;
#223 = DATE_TIME_ROLE ( 'creation_date' ) ;
#224 = DATE_AND_TIME ( #330, #385 ) ;
#225 = CONICAL_SURFACE ( 'NONE', #27, 0.08730145659525989643, 0.8726646259964307983 ) ;
#226 = ORIENTED_EDGE ( 'NONE', *, *, #339, .T. ) ;
#227 = PERSON_AND_ORGANIZATION ( #152, #425 ) ;
#228 = DIRECTION ( 'NONE',  ( 0.0000000000000000000, 0.0000000000000000000, 1.000000000000000000 ) ) ;
#229 = VERTEX_POINT ( 'NONE', #181 ) ;
#230 = EDGE_LOOP ( 'NONE', ( #325 ) ) ;
#231 = CARTESIAN_POINT ( 'NONE',  ( 0.1214999824824982283, 0.0000000000000000000, 0.0000000000000000000 ) ) ;
#232 = DIRECTION ( 'NONE',  ( -1.000000000000000000, -0.0000000000000000000, -0.0000000000000000000 ) ) ;
#233 = PERSON_AND_ORGANIZATION ( #152, #425 ) ;
#234 = AXIS2_PLACEMENT_3D ( 'NONE', #250, #218, #51 ) ;
#235 = DIRECTION ( 'NONE',  ( 0.0000000000000000000, 0.0000000000000000000, 1.000000000000000000 ) ) ;
#236 = AXIS2_PLACEMENT_3D ( 'NONE', #299, #402, #329 ) ;
#237 = ADVANCED_FACE ( 'NONE', ( #166, #43 ), #399, .T. ) ;
#238 = CARTESIAN_POINT ( 'NONE',  ( 0.4386128213486799043, 0.0000000000000000000, 0.0000000000000000000 ) ) ;
#239 = COORDINATED_UNIVERSAL_TIME_OFFSET ( 6, 0, .BEHIND. ) ;
#240 = DIRECTION ( 'NONE',  ( -1.000000000000000000, -0.0000000000000000000, -0.0000000000000000000 ) ) ;
#241 = ADVANCED_FACE ( 'NONE', ( #211, #81 ), #225, .T. ) ;
#242 = VERTEX_POINT ( 'NONE', #53 ) ;
#243 = TOROIDAL_SURFACE ( 'NONE', #382, -0.007649713763047503480, 0.3596893114347007314 ) ;
#244 = ORIENTED_EDGE ( 'NONE', *, *, #62, .F. ) ;
#245 = EDGE_LOOP ( 'NONE', ( #185 ) ) ;
#246 = CARTESIAN_POINT ( 'NONE',  ( 0.0000000000000000000, 0.0000000000000000000, 0.0000000000000000000 ) ) ;
#247 = AXIS2_PLACEMENT_3D ( 'NONE', #400, #270, #6 ) ;
#248 = DIRECTION ( 'NONE',  ( 0.0000000000000000000, 0.0000000000000000000, 1.000000000000000000 ) ) ;
#249 = CALENDAR_DATE ( 2021, 17, 11 ) ;
#250 = CARTESIAN_POINT ( 'NONE',  ( 0.0000000000000000000, 0.0000000000000000000, 0.0000000000000000000 ) ) ;
#251 = FACE_OUTER_BOUND ( 'NONE', #97, .T. ) ;
#252 = FACE_OUTER_BOUND ( 'NONE', #111, .T. ) ;
#253 = DIRECTION ( 'NONE',  ( -1.000000000000000000, -0.0000000000000000000, -0.0000000000000000000 ) ) ;
#254 = CC_DESIGN_PERSON_AND_ORGANIZATION_ASSIGNMENT ( #393, #222, ( #25 ) ) ;
#255 = DATE_AND_TIME ( #334, #1 ) ;
#256 = VERTEX_POINT ( 'NONE', #215 ) ;
#257 = PERSON_AND_ORGANIZATION ( #152, #425 ) ;
#258 = APPROVAL_DATE_TIME ( #40, #263 ) ;
#259 = APPLICATION_PROTOCOL_DEFINITION ( 'international standard', 'config_control_design', 1994, #390 ) ;
#260 = FACE_OUTER_BOUND ( 'NONE', #138, .T. ) ;
#261 = CC_DESIGN_PERSON_AND_ORGANIZATION_ASSIGNMENT ( #26, #186, ( #359 ) ) ;
#262 = ORIENTED_EDGE ( 'NONE', *, *, #95, .F. ) ;
#263 = APPROVAL ( #173, 'UNSPECIFIED' ) ;
#264 = CALENDAR_DATE ( 2021, 17, 11 ) ;
#265 = APPROVAL ( #22, 'UNSPECIFIED' ) ;
#266 = DIRECTION ( 'NONE',  ( 1.000000000000000000, 0.0000000000000000000, 0.0000000000000000000 ) ) ;
#267 = AXIS2_PLACEMENT_3D ( 'NONE', #198, #367, #228 ) ;
#268 = COORDINATED_UNIVERSAL_TIME_OFFSET ( 6, 0, .BEHIND. ) ;
#269 = DIRECTION ( 'NONE',  ( 1.000000000000000000, 0.0000000000000000000, 0.0000000000000000000 ) ) ;
#270 = DIRECTION ( 'NONE',  ( -1.000000000000000000, -0.0000000000000000000, -0.0000000000000000000 ) ) ;
#271 = DIRECTION ( 'NONE',  ( -1.000000000000000000, -0.0000000000000000000, -0.0000000000000000000 ) ) ;
#272 = CARTESIAN_POINT ( 'NONE',  ( -4.370956789862821150E-15, 0.0000000000000000000, 0.0000000000000000000 ) ) ;
#273 = COORDINATED_UNIVERSAL_TIME_OFFSET ( 6, 0, .BEHIND. ) ;
#274 = FACE_BOUND ( 'NONE', #5, .T. ) ;
#275 = ORIENTED_EDGE ( 'NONE', *, *, #143, .F. ) ;
#276 = CARTESIAN_POINT ( 'NONE',  ( 1.711781520507869470, 0.0000000000000000000, 0.0000000000000000000 ) ) ;
#277 = DIRECTION ( 'NONE',  ( -1.000000000000000000, -0.0000000000000000000, -0.0000000000000000000 ) ) ;
#278 = CARTESIAN_POINT ( 'NONE',  ( 0.1214999824824982283, 0.0000000000000000000, 0.09624990365375546419 ) ) ;
#279 = DATE_AND_TIME ( #107, #199 ) ;
#280 = CC_DESIGN_APPROVAL ( #167, ( #14 ) ) ;
#281 = CONICAL_SURFACE ( 'NONE', #300, 0.07549992449999982924, 0.8726646259972463682 ) ;
#282 =( LENGTH_UNIT ( ) NAMED_UNIT ( * ) SI_UNIT ( $, .METRE. ) );
#283 = ORIENTED_EDGE ( 'NONE', *, *, #220, .F. ) ;
#284 = DIRECTION ( 'NONE',  ( 0.0000000000000000000, 0.0000000000000000000, 1.000000000000000000 ) ) ;
#285 = AXIS2_PLACEMENT_3D ( 'NONE', #332, #169, #73 ) ;
#286 = DIRECTION ( 'NONE',  ( -1.000000000000000000, 0.0000000000000000000, -0.0000000000000000000 ) ) ;
#287 = PERSON_AND_ORGANIZATION ( #152, #425 ) ;
#288 = CC_DESIGN_APPROVAL ( #263, ( #348 ) ) ;
#289 = DIRECTION ( 'NONE',  ( 1.000000000000000000, 0.0000000000000000000, 0.0000000000000000000 ) ) ;
#290 = PRODUCT_DEFINITION ( 'UNKNOWN', '', #20, #209 ) ;
#291 = SECURITY_CLASSIFICATION_LEVEL ( 'unclassified' ) ;
#292 = CYLINDRICAL_SURFACE ( 'NONE', #126, 0.07549992449999982924 ) ;
#293 = AXIS2_PLACEMENT_3D ( 'NONE', #75, #36, #305 ) ;
#294 = MECHANICAL_CONTEXT ( 'NONE', #351, 'mechanical' ) ;
#295 = ORIENTED_EDGE ( 'NONE', *, *, #175, .T. ) ;
#296 = PERSON_AND_ORGANIZATION ( #152, #425 ) ;
#297 = PRODUCT_DEFINITION_FORMATION_WITH_SPECIFIED_SOURCE ( 'ANY', '', #93, .NOT_KNOWN. ) ;
#298 = EDGE_LOOP ( 'NONE', ( #363 ) ) ;
#299 = CARTESIAN_POINT ( 'NONE',  ( 0.4160000000000001474, 0.0000000000000000000, 0.0000000000000000000 ) ) ;
#300 = AXIS2_PLACEMENT_3D ( 'NONE', #12, #13, #235 ) ;
#301 = DIRECTION ( 'NONE',  ( 1.000000000000000000, 0.0000000000000000000, 0.0000000000000000000 ) ) ;
#302 = CC_DESIGN_PERSON_AND_ORGANIZATION_ASSIGNMENT ( #227, #308, ( #93 ) ) ;
#303 = COORDINATED_UNIVERSAL_TIME_OFFSET ( 6, 0, .BEHIND. ) ;
#304 = DIRECTION ( 'NONE',  ( 0.0000000000000000000, 0.0000000000000000000, -1.000000000000000000 ) ) ;
#305 = DIRECTION ( 'NONE',  ( 0.0000000000000000000, 0.0000000000000000000, 1.000000000000000000 ) ) ;
#306 = CC_DESIGN_PERSON_AND_ORGANIZATION_ASSIGNMENT ( #366, #310, ( #348 ) ) ;
#307 = DIRECTION ( 'NONE',  ( 0.0000000000000000000, 0.0000000000000000000, 1.000000000000000000 ) ) ;
#308 = PERSON_AND_ORGANIZATION_ROLE ( 'design_owner' ) ;
#309 = AXIS2_PLACEMENT_3D ( 'NONE', #217, #84, #284 ) ;
#310 = PERSON_AND_ORGANIZATION_ROLE ( 'creator' ) ;
#311 = APPROVAL_PERSON_ORGANIZATION ( #153, #205, #358 ) ;
#312 = PERSON_AND_ORGANIZATION_ROLE ( 'creator' ) ;
#313 = CIRCLE ( 'NONE', #403, 0.08730145659525989643 ) ;
#314 = DIRECTION ( 'NONE',  ( -1.000000000000000000, -0.0000000000000000000, -0.0000000000000000000 ) ) ;
#315 = AXIS2_PLACEMENT_3D ( 'NONE', #28, #266, #304 ) ;
#316 = VERTEX_POINT ( 'NONE', #418 ) ;
#317 = APPROVAL_ROLE ( '' ) ;
#318 = PERSON_AND_ORGANIZATION_ROLE ( 'classification_officer' ) ;
#319 = PERSON_AND_ORGANIZATION_ROLE ( 'creator' ) ;
#320 = LOCAL_TIME ( 10, 45, 9.000000000000000000, #10 ) ;
#321 = EDGE_LOOP ( 'NONE', ( #376 ) ) ;
#322 = CC_DESIGN_DATE_AND_TIME_ASSIGNMENT ( #8, #112, ( #348 ) ) ;
#323 = APPROVAL_PERSON_ORGANIZATION ( #233, #265, #91 ) ;
#324 = DIRECTION ( 'NONE',  ( 0.0000000000000000000, 0.0000000000000000000, 1.000000000000000000 ) ) ;
#325 = ORIENTED_EDGE ( 'NONE', *, *, #436, .F. ) ;
#326 = DIRECTION ( 'NONE',  ( 0.0000000000000000000, 0.0000000000000000000, 1.000000000000000000 ) ) ;
#327 = ADVANCED_FACE ( 'NONE', ( #71, #29 ), #292, .T. ) ;
#328 = AXIS2_PLACEMENT_3D ( 'NONE', #414, #277, #307 ) ;
#329 = DIRECTION ( 'NONE',  ( 0.0000000000000000000, 0.0000000000000000000, 1.000000000000000000 ) ) ;
#330 = CALENDAR_DATE ( 2021, 17, 11 ) ;
#331 = ADVANCED_FACE ( 'NONE', ( #200, #3 ), #281, .T. ) ;
#332 = CARTESIAN_POINT ( 'NONE',  ( 2.466397652295269971, 0.0000000000000000000, 0.0000000000000000000 ) ) ;
#333 = ADVANCED_FACE ( 'NONE', ( #52, #216 ), #154, .T. ) ;
#334 = CALENDAR_DATE ( 2021, 17, 11 ) ;
#335 = LENGTH_MEASURE_WITH_UNIT ( LENGTH_MEASURE( 0.02539999999999999897 ), #282 );
#336 = CIRCLE ( 'NONE', #119, 0.07549992449999982924 ) ;
#337 = ORIENTED_EDGE ( 'NONE', *, *, #30, .F. ) ;
#338 = DIRECTION ( 'NONE',  ( -1.000000000000000000, -0.0000000000000000000, -0.0000000000000000000 ) ) ;
#339 = EDGE_CURVE ( 'NONE', #242, #242, #336, .T. ) ;
#340 = EDGE_LOOP ( 'NONE', ( #78 ) ) ;
#341 = DIRECTION ( 'NONE',  ( -1.000000000000000000, -0.0000000000000000000, -0.0000000000000000000 ) ) ;
#342 = CC_DESIGN_SECURITY_CLASSIFICATION ( #25, ( #297 ) ) ;
#343 = APPROVAL_PERSON_ORGANIZATION ( #188, #161, #141 ) ;
#344 =( NAMED_UNIT ( * ) PLANE_ANGLE_UNIT ( ) SI_UNIT ( $, .RADIAN. ) );
#345 = CONICAL_SURFACE ( 'NONE', #315, 0.08749991249999995724, 0.0002665458518513495268 ) ;
#346 = EDGE_LOOP ( 'NONE', ( #21 ) ) ;
#347 = DIRECTION ( 'NONE',  ( 0.0000000000000000000, 0.0000000000000000000, 1.000000000000000000 ) ) ;
#348 = PRODUCT_DEFINITION ( 'UNKNOWN', '', #297, #113 ) ;
#349 = CARTESIAN_POINT ( 'NONE',  ( 0.1040000000000008556, 0.0000000000000000000, 0.1137498861362599423 ) ) ;
#350 = PERSON_AND_ORGANIZATION ( #152, #425 ) ;
#351 = APPLICATION_CONTEXT ( 'configuration controlled 3d designs of mechanical parts and assemblies' ) ;
#352 = FACE_OUTER_BOUND ( 'NONE', #124, .T. ) ;
#353 = EDGE_LOOP ( 'NONE', ( #58 ) ) ;
#354 = ORIENTED_EDGE ( 'NONE', *, *, #46, .F. ) ;
#355 = AXIS2_PLACEMENT_3D ( 'NONE', #145, #286, #177 ) ;
#356 = CONICAL_SURFACE ( 'NONE', #309, 0.09019081643478979449, 0.2617993877988284424 ) ;
#357 = CIRCLE ( 'NONE', #106, 0.09019081643478979449 ) ;
#358 = APPROVAL_ROLE ( '' ) ;
#359 = PRODUCT ( 'MGP98T-( )6-20', 'MGP98T-( )6-20', '', ( #294 ) ) ;
#360 = PERSON_AND_ORGANIZATION ( #152, #425 ) ;
#361 = CC_DESIGN_DATE_AND_TIME_ASSIGNMENT ( #203, #59, ( #25 ) ) ;
#362 = EDGE_LOOP ( 'NONE', ( #4 ) ) ;
#363 = ORIENTED_EDGE ( 'NONE', *, *, #143, .T. ) ;
#364 = CARTESIAN_POINT ( 'NONE',  ( 0.1040000000000008001, 0.1137498861362599423, 0.0000000000000000000 ) ) ;
#365 = PRODUCT_DEFINITION_SHAPE ( 'NONE', 'NONE',  #290 ) ;
#366 = PERSON_AND_ORGANIZATION ( #152, #425 ) ;
#367 = DIRECTION ( 'NONE',  ( -1.000000000000000000, -0.0000000000000000000, -0.0000000000000000000 ) ) ;
#368 = FACE_OUTER_BOUND ( 'NONE', #409, .T. ) ;
#369 = ADVANCED_FACE ( 'NONE', ( #368 ), #102, .F. ) ;
#370 = CARTESIAN_POINT ( 'NONE',  ( 0.4537877729670087845, 0.0000000000000000000, 0.0000000000000000000 ) ) ;
#371 = MANIFOLD_SOLID_BREP ( 'Revolve1', #428 ) ;
#372 = CC_DESIGN_APPROVAL ( #205, ( #290 ) ) ;
#373 = DIRECTION ( 'NONE',  ( 0.0000000000000000000, 0.0000000000000000000, 1.000000000000000000 ) ) ;
#374 = VERTEX_POINT ( 'NONE', #178 ) ;
#375 = CIRCLE ( 'NONE', #293, 0.08749991249999995724 ) ;
#376 = ORIENTED_EDGE ( 'NONE', *, *, #62, .T. ) ;
#377 = ORIENTED_EDGE ( 'NONE', *, *, #128, .T. ) ;
#378 = DIRECTION ( 'NONE',  ( -1.000000000000000000, -0.0000000000000000000, -0.0000000000000000000 ) ) ;
#379 = ADVANCED_FACE ( 'NONE', ( #251, #109 ), #243, .T. ) ;
#380 = CARTESIAN_POINT ( 'NONE',  ( 1.706999952952999111, 0.0000000000000000000, 0.0000000000000000000 ) ) ;
#381 = APPLICATION_PROTOCOL_DEFINITION ( 'international standard', 'config_control_design', 1994, #108 ) ;
#382 = AXIS2_PLACEMENT_3D ( 'NONE', #176, #314, #347 ) ;
#383 = APPROVAL_STATUS ( 'not_yet_approved' ) ;
#384 = PERSON_AND_ORGANIZATION_ROLE ( 'design_supplier' ) ;
#385 = LOCAL_TIME ( 10, 45, 9.000000000000000000, #239 ) ;
#386 = VERTEX_POINT ( 'NONE', #278 ) ;
#387 = CIRCLE ( 'NONE', #191, 0.09299990690700012108 ) ;
#388 = CARTESIAN_POINT ( 'NONE',  ( 1.706999952952999111, 0.0000000000000000000, 0.09299990690700012108 ) ) ;
#389 = PRODUCT_RELATED_PRODUCT_CATEGORY ( 'detail', '', ( #93 ) ) ;
#390 = APPLICATION_CONTEXT ( 'configuration controlled 3d designs of mechanical parts and assemblies' ) ;
#391 = PERSON_AND_ORGANIZATION_ROLE ( 'design_supplier' ) ;
#392 = CIRCLE ( 'NONE', #285, 0.07549992449999982924 ) ;
#393 = PERSON_AND_ORGANIZATION ( #152, #425 ) ;
#394 = CC_DESIGN_APPROVAL ( #265, ( #25 ) ) ;
#395 = FACE_BOUND ( 'NONE', #151, .T. ) ;
#396 = LOCAL_TIME ( 10, 45, 9.000000000000000000, #136 ) ;
#397 = VERTEX_POINT ( 'NONE', #144 ) ;
#398 = PRODUCT_RELATED_PRODUCT_CATEGORY ( 'detail', '', ( #359 ) ) ;
#399 = CYLINDRICAL_SURFACE ( 'NONE', #184, 0.09624990365375274415 ) ;
#400 = CARTESIAN_POINT ( 'NONE',  ( 8.243235134840374301E-06, 0.0000000000000000000, 0.0000000000000000000 ) ) ;
#401 = CIRCLE ( 'NONE', #236, 0.09624990365375001022 ) ;
#402 = DIRECTION ( 'NONE',  ( -1.000000000000000000, -0.0000000000000000000, -0.0000000000000000000 ) ) ;
#403 = AXIS2_PLACEMENT_3D ( 'NONE', #276, #39, #131 ) ;
#404 = ADVANCED_FACE ( 'NONE', ( #149, #122 ), #356, .T. ) ;
#405 = DATE_AND_TIME ( #140, #432 ) ;
#406 = CARTESIAN_POINT ( 'NONE',  ( 8.243235134840374301E-06, 0.0000000000000000000, 0.0000000000000000000 ) ) ;
#407 = FACE_OUTER_BOUND ( 'NONE', #426, .T. ) ;
#408 = CARTESIAN_POINT ( 'NONE',  ( 0.09079009230292714450, 0.0000000000000000000, 0.0000000000000000000 ) ) ;
#409 = EDGE_LOOP ( 'NONE', ( #120 ) ) ;
#410 = DIRECTION ( 'NONE',  ( -1.000000000000000000, -0.0000000000000000000, -0.0000000000000000000 ) ) ;
#411 = CC_DESIGN_APPROVAL ( #161, ( #297 ) ) ;
#412 = DIRECTION ( 'NONE',  ( 0.0000000000000000000, 0.0000000000000000000, 1.000000000000000000 ) ) ;
#413 = VERTEX_POINT ( 'NONE', #116 ) ;
#414 = CARTESIAN_POINT ( 'NONE',  ( -4.370956789862821150E-15, 0.0000000000000000000, 0.0000000000000000000 ) ) ;
#415 = CIRCLE ( 'NONE', #247, 0.0003781575984522876220 ) ;
#416 = ADVANCED_BREP_SHAPE_REPRESENTATION ( 'MGP98T-( )6-20', ( #371, #234 ), #16 ) ;
#417 = CARTESIAN_POINT ( 'NONE',  ( 0.09650000750750030443, 0.0000000000000000000, 0.0000000000000000000 ) ) ;
#418 = CARTESIAN_POINT ( 'NONE',  ( 8.243235134840374301E-06, 0.0000000000000000000, 0.0003781575984522876220 ) ) ;
#419 = CALENDAR_DATE ( 2021, 17, 11 ) ;
#420 = APPLICATION_CONTEXT ( 'configuration controlled 3d designs of mechanical parts and assemblies' ) ;
#421 = SHAPE_DEFINITION_REPRESENTATION ( #365, #416 ) ;
#422 = CC_DESIGN_SECURITY_CLASSIFICATION ( #14, ( #20 ) ) ;
#423 = DIRECTION ( 'NONE',  ( 0.0000000000000000000, 0.0000000000000000000, 1.000000000000000000 ) ) ;
#424 = LOCAL_TIME ( 10, 45, 9.000000000000000000, #76 ) ;
#425 = ORGANIZATION ( 'UNSPECIFIED', 'UNSPECIFIED', '' ) ;
#426 = EDGE_LOOP ( 'NONE', ( #101 ) ) ;
#427 = CC_DESIGN_PERSON_AND_ORGANIZATION_ASSIGNMENT ( #86, #319, ( #20 ) ) ;
#428 = CLOSED_SHELL ( 'NONE', ( #170, #379, #31, #369, #327, #331, #133, #241, #333, #77, #404, #237, #74, #38 ) ) ;
#429 = DATE_TIME_ROLE ( 'classification_date' ) ;
#430 = AXIS2_PLACEMENT_3D ( 'NONE', #19, #253, #248 ) ;
#431 = PERSON_AND_ORGANIZATION_ROLE ( 'creator' ) ;
#432 = LOCAL_TIME ( 10, 45, 9.000000000000000000, #303 ) ;
#433 = VERTEX_POINT ( 'NONE', #349 ) ;
#434 = APPROVAL_STATUS ( 'not_yet_approved' ) ;
#435 = FACE_OUTER_BOUND ( 'NONE', #195, .T. ) ;
#436 = EDGE_CURVE ( 'NONE', #386, #386, #33, .T. ) ;
ENDSEC;
END-ISO-10303-21;
