ISO-10303-21;
HEADER;
FILE_DESCRIPTION (( 'STEP AP203' ),
    '1' );
FILE_NAME ('MGP98T-( )6-10.STEP',
    '2021-11-17T16:43:13',
    ( '' ),
    ( '' ),
    'SwSTEP 2.0',
    'SolidWorks 2018',
    '' );
FILE_SCHEMA (( 'CONFIG_CONTROL_DESIGN' ));
ENDSEC;

DATA;
#1 = DATE_AND_TIME ( #207, #330 ) ;
#2 = CARTESIAN_POINT ( 'NONE',  ( 1.127999602428140014, 0.0000000000000000000, 0.0000000000000000000 ) ) ;
#3 = SHAPE_DEFINITION_REPRESENTATION ( #76, #239 ) ;
#4 = TOROIDAL_SURFACE ( 'NONE', #287, 0.1137498861362585684, 0.01749998248249846206 ) ;
#5 = PRODUCT_DEFINITION ( 'UNKNOWN', '', #93, #173 ) ;
#6 = PERSON_AND_ORGANIZATION_ROLE ( 'creator' ) ;
#7 = AXIS2_PLACEMENT_3D ( 'NONE', #66, #286, #318 ) ;
#8 = CARTESIAN_POINT ( 'NONE',  ( 0.0000000000000000000, 0.0000000000000000000, 0.0000000000000000000 ) ) ;
#9 = CARTESIAN_POINT ( 'NONE',  ( 1.127999602428140014, 0.0000000000000000000, -0.09299990690699984353 ) ) ;
#10 = FACE_OUTER_BOUND ( 'NONE', #414, .T. ) ;
#11 = ORIENTED_EDGE ( 'NONE', *, *, #175, .F. ) ;
#12 = PERSON_AND_ORGANIZATION_ROLE ( 'design_supplier' ) ;
#13 = ORIENTED_EDGE ( 'NONE', *, *, #86, .T. ) ;
#14 = CARTESIAN_POINT ( 'NONE',  ( 0.0000000000000000000, 0.0000000000000000000, 0.0000000000000000000 ) ) ;
#15 = UNCERTAINTY_MEASURE_WITH_UNIT (LENGTH_MEASURE( 1.000000000000000082E-05 ), #48, 'distance_accuracy_value', 'NONE');
#16 = LOCAL_TIME ( 10, 43, 13.00000000000000000, #392 ) ;
#17 = ORIENTED_EDGE ( 'NONE', *, *, #264, .F. ) ;
#18 = PERSON_AND_ORGANIZATION_ROLE ( 'creator' ) ;
#19 = CC_DESIGN_PERSON_AND_ORGANIZATION_ASSIGNMENT ( #88, #351, ( #259 ) ) ;
#20 = PERSON_AND_ORGANIZATION ( #51, #118 ) ;
#21 = CIRCLE ( 'NONE', #41, 0.09299990690699984353 ) ;
#22 = APPROVAL_PERSON_ORGANIZATION ( #91, #227, #134 ) ;
#23 = EDGE_CURVE ( 'NONE', #109, #109, #406, .T. ) ;
#24 = FACE_OUTER_BOUND ( 'NONE', #261, .T. ) ;
#25 = ORIENTED_EDGE ( 'NONE', *, *, #167, .T. ) ;
#26 = ADVANCED_FACE ( 'NONE', ( #219, #277 ), #244, .T. ) ;
#27 = CARTESIAN_POINT ( 'NONE',  ( 1.904999649475140000, 0.0000000000000000000, 0.0000000000000000000 ) ) ;
#28 = CALENDAR_DATE ( 2021, 17, 11 ) ;
#29 = DIRECTION ( 'NONE',  ( 0.0000000000000000000, 0.0000000000000000000, -1.000000000000000000 ) ) ;
#30 = FACE_OUTER_BOUND ( 'NONE', #177, .T. ) ;
#31 = ORIENTED_EDGE ( 'NONE', *, *, #264, .T. ) ;
#32 = DIRECTION ( 'NONE',  ( 0.0000000000000000000, 0.0000000000000000000, 1.000000000000000000 ) ) ;
#33 = DIRECTION ( 'NONE',  ( 0.0000000000000000000, 0.0000000000000000000, -1.000000000000000000 ) ) ;
#34 = ADVANCED_FACE ( 'NONE', ( #111 ), #273, .T. ) ;
#35 = AXIS2_PLACEMENT_3D ( 'NONE', #164, #105, #104 ) ;
#36 = DIRECTION ( 'NONE',  ( 0.0000000000000000000, 0.0000000000000000000, -1.000000000000000000 ) ) ;
#37 = COORDINATED_UNIVERSAL_TIME_OFFSET ( 6, 0, .BEHIND. ) ;
#38 = ORIENTED_EDGE ( 'NONE', *, *, #167, .F. ) ;
#39 = APPROVAL ( #298, 'UNSPECIFIED' ) ;
#40 = DIRECTION ( 'NONE',  ( 1.000000000000000000, -0.0000000000000000000, -0.0000000000000000000 ) ) ;
#41 = AXIS2_PLACEMENT_3D ( 'NONE', #314, #282, #383 ) ;
#42 = DIRECTION ( 'NONE',  ( 0.0000000000000000000, 0.0000000000000000000, -1.000000000000000000 ) ) ;
#43 = APPROVAL_STATUS ( 'not_yet_approved' ) ;
#44 = PERSON_AND_ORGANIZATION ( #51, #118 ) ;
#45 = CARTESIAN_POINT ( 'NONE',  ( 1.884397301770409872, 0.0000000000000000000, -0.07549992450000010680 ) ) ;
#46 = CALENDAR_DATE ( 2021, 17, 11 ) ;
#47 = FACE_OUTER_BOUND ( 'NONE', #293, .T. ) ;
#48 =( CONVERSION_BASED_UNIT ( 'INCH', #114 ) LENGTH_UNIT ( ) NAMED_UNIT ( #124 ) );
#49 = APPLICATION_PROTOCOL_DEFINITION ( 'international standard', 'config_control_design', 1994, #225 ) ;
#50 = AXIS2_PLACEMENT_3D ( 'NONE', #127, #194, #36 ) ;
#51 = PERSON ( 'UNSPECIFIED', 'UNSPECIFIED', 'UNSPECIFIED', ('UNSPECIFIED'), ('UNSPECIFIED'), ('UNSPECIFIED') ) ;
#52 = FACE_BOUND ( 'NONE', #398, .T. ) ;
#53 = APPROVAL_ROLE ( '' ) ;
#54 = ORIENTED_EDGE ( 'NONE', *, *, #86, .F. ) ;
#55 = LOCAL_TIME ( 10, 43, 13.00000000000000000, #385 ) ;
#56 = FACE_OUTER_BOUND ( 'NONE', #386, .T. ) ;
#57 = PRODUCT_DEFINITION_FORMATION_WITH_SPECIFIED_SOURCE ( 'ANY', '', #259, .NOT_KNOWN. ) ;
#58 = PERSON_AND_ORGANIZATION ( #51, #118 ) ;
#59 = AXIS2_PLACEMENT_3D ( 'NONE', #8, #196, #129 ) ;
#60 = DIRECTION ( 'NONE',  ( -0.0000000000000000000, 0.0000000000000000000, -1.000000000000000000 ) ) ;
#61 = DIRECTION ( 'NONE',  ( 0.0000000000000000000, 0.0000000000000000000, -1.000000000000000000 ) ) ;
#62 = EDGE_CURVE ( 'NONE', #364, #364, #144, .T. ) ;
#63 = LOCAL_TIME ( 10, 43, 13.00000000000000000, #370 ) ;
#64 = CARTESIAN_POINT ( 'NONE',  ( 1.884397301770409872, 0.0000000000000000000, 0.0000000000000000000 ) ) ;
#65 = EDGE_LOOP ( 'NONE', ( #147 ) ) ;
#66 = CARTESIAN_POINT ( 'NONE',  ( 1.884397301770409872, 0.0000000000000000000, 0.0000000000000000000 ) ) ;
#67 = ADVANCED_FACE ( 'NONE', ( #310, #296 ), #302, .T. ) ;
#68 = APPLICATION_PROTOCOL_DEFINITION ( 'international standard', 'config_control_design', 1994, #72 ) ;
#69 = CALENDAR_DATE ( 2021, 17, 11 ) ;
#70 = LOCAL_TIME ( 10, 43, 13.00000000000000000, #411 ) ;
#71 = CIRCLE ( 'NONE', #315, 0.08250000000000014266 ) ;
#72 = APPLICATION_CONTEXT ( 'configuration controlled 3d designs of mechanical parts and assemblies' ) ;
#73 = DIRECTION ( 'NONE',  ( 0.0000000000000000000, 0.0000000000000000000, 1.000000000000000000 ) ) ;
#74 = SECURITY_CLASSIFICATION_LEVEL ( 'unclassified' ) ;
#75 = DATE_AND_TIME ( #69, #290 ) ;
#76 = PRODUCT_DEFINITION_SHAPE ( 'NONE', 'NONE',  #5 ) ;
#77 = FACE_BOUND ( 'NONE', #372, .T. ) ;
#78 = DATE_TIME_ROLE ( 'classification_date' ) ;
#79 = APPROVAL_ROLE ( '' ) ;
#80 = CC_DESIGN_PERSON_AND_ORGANIZATION_ASSIGNMENT ( #96, #12, ( #57 ) ) ;
#81 = PERSON_AND_ORGANIZATION_ROLE ( 'design_supplier' ) ;
#82 = APPROVAL_DATE_TIME ( #400, #359 ) ;
#83 = CONICAL_SURFACE ( 'NONE', #299, 0.08250000000000014266, 0.1953180562175696466 ) ;
#84 = EDGE_LOOP ( 'NONE', ( #38 ) ) ;
#85 = APPROVAL_STATUS ( 'not_yet_approved' ) ;
#86 = EDGE_CURVE ( 'NONE', #192, #192, #71, .T. ) ;
#87 = CC_DESIGN_PERSON_AND_ORGANIZATION_ASSIGNMENT ( #58, #18, ( #5 ) ) ;
#88 = PERSON_AND_ORGANIZATION ( #51, #118 ) ;
#89 = CIRCLE ( 'NONE', #209, 0.003489586632983564252 ) ;
#90 = AXIS2_PLACEMENT_3D ( 'NONE', #211, #95, #311 ) ;
#91 = PERSON_AND_ORGANIZATION ( #51, #118 ) ;
#92 = LOCAL_TIME ( 10, 43, 13.00000000000000000, #348 ) ;
#93 = PRODUCT_DEFINITION_FORMATION_WITH_SPECIFIED_SOURCE ( 'ANY', '', #170, .NOT_KNOWN. ) ;
#94 = ADVANCED_FACE ( 'NONE', ( #125, #30 ), #218, .T. ) ;
#95 = DIRECTION ( 'NONE',  ( 1.000000000000000000, -0.0000000000000000000, -0.0000000000000000000 ) ) ;
#96 = PERSON_AND_ORGANIZATION ( #51, #118 ) ;
#97 = EDGE_LOOP ( 'NONE', ( #206 ) ) ;
#98 = ADVANCED_FACE ( 'NONE', ( #249, #47 ), #269, .T. ) ;
#99 = AXIS2_PLACEMENT_3D ( 'NONE', #157, #189, #32 ) ;
#100 = DIRECTION ( 'NONE',  ( 0.0000000000000000000, 0.0000000000000000000, -1.000000000000000000 ) ) ;
#101 = APPROVAL_PERSON_ORGANIZATION ( #44, #257, #53 ) ;
#102 = CC_DESIGN_PERSON_AND_ORGANIZATION_ASSIGNMENT ( #180, #289, ( #122 ) ) ;
#103 = ORIENTED_EDGE ( 'NONE', *, *, #107, .T. ) ;
#104 = DIRECTION ( 'NONE',  ( 0.0000000000000000000, 0.0000000000000000000, -1.000000000000000000 ) ) ;
#105 = DIRECTION ( 'NONE',  ( 1.000000000000000000, -0.0000000000000000000, -0.0000000000000000000 ) ) ;
#106 = APPROVAL_STATUS ( 'not_yet_approved' ) ;
#107 = EDGE_CURVE ( 'NONE', #291, #291, #243, .T. ) ;
#108 = DATE_TIME_ROLE ( 'classification_date' ) ;
#109 = VERTEX_POINT ( 'NONE', #166 ) ;
#110 = CALENDAR_DATE ( 2021, 17, 11 ) ;
#111 = FACE_OUTER_BOUND ( 'NONE', #349, .T. ) ;
#112 = EDGE_LOOP ( 'NONE', ( #169 ) ) ;
#113 = DATE_AND_TIME ( #205, #55 ) ;
#114 = LENGTH_MEASURE_WITH_UNIT ( LENGTH_MEASURE( 0.02539999999999999897 ), #357 );
#115 = CARTESIAN_POINT ( 'NONE',  ( 0.1214996319576397421, 0.0000000000000000000, 0.0000000000000000000 ) ) ;
#116 = CC_DESIGN_PERSON_AND_ORGANIZATION_ASSIGNMENT ( #347, #329, ( #93 ) ) ;
#117 = DESIGN_CONTEXT ( 'detailed design', #72, 'design' ) ;
#118 = ORGANIZATION ( 'UNSPECIFIED', 'UNSPECIFIED', '' ) ;
#119 = DIRECTION ( 'NONE',  ( 1.000000000000000000, -0.0000000000000000000, -0.0000000000000000000 ) ) ;
#120 = EDGE_LOOP ( 'NONE', ( #54 ) ) ;
#121 = AXIS2_PLACEMENT_3D ( 'NONE', #115, #407, #148 ) ;
#122 = SECURITY_CLASSIFICATION ( '', '', #74 ) ;
#123 = CARTESIAN_POINT ( 'NONE',  ( 0.1039996494751401906, 0.0000000000000000000, 0.0000000000000000000 ) ) ;
#124 = DIMENSIONAL_EXPONENTS ( 1.000000000000000000, 0.0000000000000000000, 0.0000000000000000000, 0.0000000000000000000, 0.0000000000000000000, 0.0000000000000000000, 0.0000000000000000000 ) ;
#125 = FACE_OUTER_BOUND ( 'NONE', #65, .T. ) ;
#126 = EDGE_LOOP ( 'NONE', ( #402 ) ) ;
#127 = CARTESIAN_POINT ( 'NONE',  ( 0.1039996494751401906, 0.0000000000000000000, 0.0000000000000000000 ) ) ;
#128 = CARTESIAN_POINT ( 'NONE',  ( 9.116999847955044485E-05, 0.0000000000000000000, 0.0000000000000000000 ) ) ;
#129 = DIRECTION ( 'NONE',  ( 1.000000000000000000, 0.0000000000000000000, 0.0000000000000000000 ) ) ;
#130 = DIRECTION ( 'NONE',  ( 1.000000000000000000, -0.0000000000000000000, -0.0000000000000000000 ) ) ;
#131 = CIRCLE ( 'NONE', #174, 0.08730145659525989643 ) ;
#132 = APPROVAL_STATUS ( 'not_yet_approved' ) ;
#133 = APPLICATION_CONTEXT ( 'configuration controlled 3d designs of mechanical parts and assemblies' ) ;
#134 = APPROVAL_ROLE ( '' ) ;
#135 = CALENDAR_DATE ( 2021, 17, 11 ) ;
#136 = FACE_OUTER_BOUND ( 'NONE', #355, .T. ) ;
#137 = EDGE_LOOP ( 'NONE', ( #356 ) ) ;
#138 = CC_DESIGN_APPROVAL ( #359, ( #241 ) ) ;
#139 = SECURITY_CLASSIFICATION_LEVEL ( 'unclassified' ) ;
#140 = DATE_AND_TIME ( #200, #143 ) ;
#141 = DATE_AND_TIME ( #110, #92 ) ;
#142 = ORIENTED_EDGE ( 'NONE', *, *, #107, .F. ) ;
#143 = LOCAL_TIME ( 10, 43, 13.00000000000000000, #309 ) ;
#144 = CIRCLE ( 'NONE', #90, 0.2313342950187819991 ) ;
#145 = DIRECTION ( 'NONE',  ( 1.000000000000000000, 0.0000000000000000000, -0.0000000000000000000 ) ) ;
#146 = CARTESIAN_POINT ( 'NONE',  ( 1.874328116265479682, 0.0000000000000000000, 0.0000000000000000000 ) ) ;
#147 = ORIENTED_EDGE ( 'NONE', *, *, #238, .T. ) ;
#148 = DIRECTION ( 'NONE',  ( 0.0000000000000000000, 0.0000000000000000000, -1.000000000000000000 ) ) ;
#149 = CC_DESIGN_PERSON_AND_ORGANIZATION_ASSIGNMENT ( #266, #81, ( #93 ) ) ;
#150 = DIRECTION ( 'NONE',  ( 0.0000000000000000000, 0.0000000000000000000, -1.000000000000000000 ) ) ;
#151 = DIRECTION ( 'NONE',  ( 0.0000000000000000000, 0.0000000000000000000, -1.000000000000000000 ) ) ;
#152 = ADVANCED_FACE ( 'NONE', ( #323, #374 ), #305, .T. ) ;
#153 = CARTESIAN_POINT ( 'NONE',  ( 0.09649965698264272029, 0.0000000000000000000, 0.0000000000000000000 ) ) ;
#154 = CONICAL_SURFACE ( 'NONE', #245, 0.09299990690699984353, 0.4968894175879485786 ) ;
#155 = ORIENTED_EDGE ( 'NONE', *, *, #256, .F. ) ;
#156 = ADVANCED_FACE ( 'NONE', ( #214, #378 ), #154, .T. ) ;
#157 = CARTESIAN_POINT ( 'NONE',  ( 1.132781169983010372, 0.0000000000000000000, 0.0000000000000000000 ) ) ;
#158 = EDGE_CURVE ( 'NONE', #396, #396, #186, .T. ) ;
#159 = ADVANCED_FACE ( 'NONE', ( #136 ), #413, .T. ) ;
#160 = APPROVAL ( #132, 'UNSPECIFIED' ) ;
#161 = APPROVAL_PERSON_ORGANIZATION ( #240, #359, #263 ) ;
#162 = PERSON_AND_ORGANIZATION ( #51, #118 ) ;
#163 = ORIENTED_EDGE ( 'NONE', *, *, #231, .T. ) ;
#164 = CARTESIAN_POINT ( 'NONE',  ( 1.904999649475140000, 0.0000000000000000000, 0.0000000000000000000 ) ) ;
#165 = AXIS2_PLACEMENT_3D ( 'NONE', #153, #40, #191 ) ;
#166 = CARTESIAN_POINT ( 'NONE',  ( 0.1214996319576397421, 0.0000000000000000000, -0.09624990365376011325 ) ) ;
#167 = EDGE_CURVE ( 'NONE', #223, #223, #333, .T. ) ;
#168 = CC_DESIGN_APPROVAL ( #257, ( #93 ) ) ;
#169 = ORIENTED_EDGE ( 'NONE', *, *, #158, .F. ) ;
#170 = PRODUCT ( 'MGP98T-( )6-10', 'MGP98T-( )6-10', '', ( #255 ) ) ;
#171 = PERSON_AND_ORGANIZATION ( #51, #118 ) ;
#172 = APPLICATION_CONTEXT ( 'configuration controlled 3d designs of mechanical parts and assemblies' ) ;
#173 = DESIGN_CONTEXT ( 'detailed design', #172, 'design' ) ;
#174 = AXIS2_PLACEMENT_3D ( 'NONE', #352, #130, #228 ) ;
#175 = EDGE_CURVE ( 'NONE', #201, #201, #344, .T. ) ;
#176 = CC_DESIGN_SECURITY_CLASSIFICATION ( #241, ( #93 ) ) ;
#177 = EDGE_LOOP ( 'NONE', ( #17 ) ) ;
#178 = DIRECTION ( 'NONE',  ( 1.000000000000000000, -0.0000000000000000000, -0.0000000000000000000 ) ) ;
#179 = APPROVAL_DATE_TIME ( #75, #227 ) ;
#180 = PERSON_AND_ORGANIZATION ( #51, #118 ) ;
#181 = CARTESIAN_POINT ( 'NONE',  ( 1.904999649475140000, 0.0000000000000000000, 0.0000000000000000000 ) ) ;
#182 = DIRECTION ( 'NONE',  ( 1.000000000000000000, -0.0000000000000000000, -0.0000000000000000000 ) ) ;
#183 = PRODUCT_DEFINITION ( 'UNKNOWN', '', #57, #117 ) ;
#184 = DIRECTION ( 'NONE',  ( 0.0000000000000000000, 0.0000000000000000000, -1.000000000000000000 ) ) ;
#185 = FACE_BOUND ( 'NONE', #120, .T. ) ;
#186 = CIRCLE ( 'NONE', #308, 0.08749991249999995724 ) ;
#187 = CC_DESIGN_APPROVAL ( #39, ( #5 ) ) ;
#188 = DIRECTION ( 'NONE',  ( 1.000000000000000000, -0.0000000000000000000, -0.0000000000000000000 ) ) ;
#189 = DIRECTION ( 'NONE',  ( -1.000000000000000000, 0.0000000000000000000, 0.0000000000000000000 ) ) ;
#190 = COORDINATED_UNIVERSAL_TIME_OFFSET ( 6, 0, .BEHIND. ) ;
#191 = DIRECTION ( 'NONE',  ( 0.0000000000000000000, 0.0000000000000000000, -1.000000000000000000 ) ) ;
#192 = VERTEX_POINT ( 'NONE', #322 ) ;
#193 = ORIENTED_EDGE ( 'NONE', *, *, #158, .T. ) ;
#194 = DIRECTION ( 'NONE',  ( 1.000000000000000000, -0.0000000000000000000, -0.0000000000000000000 ) ) ;
#195 = APPROVAL_ROLE ( '' ) ;
#196 = DIRECTION ( 'NONE',  ( 0.0000000000000000000, 0.0000000000000000000, 1.000000000000000000 ) ) ;
#197 = DATE_AND_TIME ( #28, #70 ) ;
#198 = EDGE_LOOP ( 'NONE', ( #279 ) ) ;
#199 = DIRECTION ( 'NONE',  ( 0.0000000000000000000, 0.0000000000000000000, 1.000000000000000000 ) ) ;
#200 = CALENDAR_DATE ( 2021, 17, 11 ) ;
#201 = VERTEX_POINT ( 'NONE', #45 ) ;
#202 = ORIENTED_EDGE ( 'NONE', *, *, #62, .T. ) ;
#203 = CC_DESIGN_APPROVAL ( #160, ( #57 ) ) ;
#204 = PRODUCT_DEFINITION_SHAPE ( 'NONE', 'NONE',  #183 ) ;
#205 = CALENDAR_DATE ( 2021, 17, 11 ) ;
#206 = ORIENTED_EDGE ( 'NONE', *, *, #23, .F. ) ;
#207 = CALENDAR_DATE ( 2021, 17, 11 ) ;
#208 = FACE_OUTER_BOUND ( 'NONE', #379, .T. ) ;
#209 = AXIS2_PLACEMENT_3D ( 'NONE', #128, #350, #151 ) ;
#210 = AXIS2_PLACEMENT_3D ( 'NONE', #14, #73, #230 ) ;
#211 = CARTESIAN_POINT ( 'NONE',  ( 0.09078974177806954649, 0.0000000000000000000, 0.0000000000000000000 ) ) ;
#212 = VERTEX_POINT ( 'NONE', #9 ) ;
#213 = DIRECTION ( 'NONE',  ( 0.0000000000000000000, 0.0000000000000000000, -1.000000000000000000 ) ) ;
#214 = FACE_BOUND ( 'NONE', #368, .T. ) ;
#215 = CC_DESIGN_DATE_AND_TIME_ASSIGNMENT ( #197, #292, ( #183 ) ) ;
#216 = DIRECTION ( 'NONE',  ( 1.000000000000000000, 0.0000000000000000000, -0.0000000000000000000 ) ) ;
#217 = CARTESIAN_POINT ( 'NONE',  ( 0.1214996319576386458, 0.0000000000000000000, 0.0000000000000000000 ) ) ;
#218 = CYLINDRICAL_SURFACE ( 'NONE', #334, 0.09299990690699984353 ) ;
#219 = FACE_OUTER_BOUND ( 'NONE', #268, .T. ) ;
#220 = DIRECTION ( 'NONE',  ( 1.000000000000000000, -0.0000000000000000000, -0.0000000000000000000 ) ) ;
#221 = DIRECTION ( 'NONE',  ( 0.0000000000000000000, 0.0000000000000000000, -1.000000000000000000 ) ) ;
#222 = PERSON_AND_ORGANIZATION ( #51, #118 ) ;
#223 = VERTEX_POINT ( 'NONE', #391 ) ;
#224 = ORIENTED_EDGE ( 'NONE', *, *, #175, .T. ) ;
#225 = APPLICATION_CONTEXT ( 'configuration controlled 3d designs of mechanical parts and assemblies' ) ;
#226 = CARTESIAN_POINT ( 'NONE',  ( 1.874328116265479682, 0.0000000000000000000, -0.08749991249999995724 ) ) ;
#227 = APPROVAL ( #43, 'UNSPECIFIED' ) ;
#228 = DIRECTION ( 'NONE',  ( 0.0000000000000000000, 0.0000000000000000000, -1.000000000000000000 ) ) ;
#229 = FACE_OUTER_BOUND ( 'NONE', #97, .T. ) ;
#230 = DIRECTION ( 'NONE',  ( 1.000000000000000000, 0.0000000000000000000, 0.0000000000000000000 ) ) ;
#231 = EDGE_CURVE ( 'NONE', #260, #260, #89, .T. ) ;
#232 = PERSON_AND_ORGANIZATION ( #51, #118 ) ;
#233 = ORIENTED_EDGE ( 'NONE', *, *, #231, .F. ) ;
#234 = APPLICATION_PROTOCOL_DEFINITION ( 'international standard', 'config_control_design', 1994, #172 ) ;
#235 = AXIS2_PLACEMENT_3D ( 'NONE', #123, #377, #42 ) ;
#236 = DATE_AND_TIME ( #135, #63 ) ;
#237 = CIRCLE ( 'NONE', #313, 0.09299990690699984353 ) ;
#238 = EDGE_CURVE ( 'NONE', #367, #367, #21, .T. ) ;
#239 = ADVANCED_BREP_SHAPE_REPRESENTATION ( 'MGP98T-( )6-10', ( #412, #59 ), #278 ) ;
#240 = PERSON_AND_ORGANIZATION ( #51, #118 ) ;
#241 = SECURITY_CLASSIFICATION ( '', '', #139 ) ;
#242 = PERSON_AND_ORGANIZATION ( #51, #118 ) ;
#243 = CIRCLE ( 'NONE', #283, 0.07549992450000010680 ) ;
#244 = PLANE ( 'NONE',  #270 ) ;
#245 = AXIS2_PLACEMENT_3D ( 'NONE', #381, #220, #61 ) ;
#246 = CYLINDRICAL_SURFACE ( 'NONE', #35, 0.07549992450000010680 ) ;
#247 = DIRECTION ( 'NONE',  ( 0.0000000000000000000, 0.0000000000000000000, -1.000000000000000000 ) ) ;
#248 = AXIS2_PLACEMENT_3D ( 'NONE', #146, #182, #213 ) ;
#249 = FACE_OUTER_BOUND ( 'NONE', #393, .T. ) ;
#250 = DIRECTION ( 'NONE',  ( 0.0000000000000000000, 0.0000000000000000000, 1.000000000000000000 ) ) ;
#251 = DIRECTION ( 'NONE',  ( 0.0000000000000000000, 0.0000000000000000000, -1.000000000000000000 ) ) ;
#252 = CALENDAR_DATE ( 2021, 17, 11 ) ;
#253 = APPROVAL_PERSON_ORGANIZATION ( #232, #275, #195 ) ;
#254 = APPLICATION_PROTOCOL_DEFINITION ( 'international standard', 'config_control_design', 1994, #133 ) ;
#255 = MECHANICAL_CONTEXT ( 'NONE', #133, 'mechanical' ) ;
#256 = EDGE_CURVE ( 'NONE', #404, #404, #326, .T. ) ;
#257 = APPROVAL ( #265, 'UNSPECIFIED' ) ;
#258 = CARTESIAN_POINT ( 'NONE',  ( 9.116999847955044485E-05, 0.0000000000000000000, -0.003489586632983564252 ) ) ;
#259 = PRODUCT ( 'MGP98T-( )6-10', 'MGP98T-( )6-10', '', ( #294 ) ) ;
#260 = VERTEX_POINT ( 'NONE', #258 ) ;
#261 = EDGE_LOOP ( 'NONE', ( #224 ) ) ;
#262 =( NAMED_UNIT ( * ) SI_UNIT ( $, .STERADIAN. ) SOLID_ANGLE_UNIT ( ) );
#263 = APPROVAL_ROLE ( '' ) ;
#264 = EDGE_CURVE ( 'NONE', #212, #212, #237, .T. ) ;
#265 = APPROVAL_STATUS ( 'not_yet_approved' ) ;
#266 = PERSON_AND_ORGANIZATION ( #51, #118 ) ;
#267 = DATE_AND_TIME ( #46, #331 ) ;
#268 = EDGE_LOOP ( 'NONE', ( #25 ) ) ;
#269 = TOROIDAL_SURFACE ( 'NONE', #358, -0.007649237657740183202, 0.3596891260866224016 ) ;
#270 = AXIS2_PLACEMENT_3D ( 'NONE', #306, #216, #340 ) ;
#271 = LOCAL_TIME ( 10, 43, 13.00000000000000000, #362 ) ;
#272 = COORDINATED_UNIVERSAL_TIME_OFFSET ( 6, 0, .BEHIND. ) ;
#273 = PLANE ( 'NONE',  #328 ) ;
#274 = CARTESIAN_POINT ( 'NONE',  ( 0.1909996494751395602, 0.0000000000000000000, 0.0000000000000000000 ) ) ;
#275 = APPROVAL ( #106, 'UNSPECIFIED' ) ;
#276 = APPROVAL_DATE_TIME ( #141, #275 ) ;
#277 = FACE_BOUND ( 'NONE', #316, .T. ) ;
#278 =( GEOMETRIC_REPRESENTATION_CONTEXT ( 3 ) GLOBAL_UNCERTAINTY_ASSIGNED_CONTEXT ( ( #15 ) ) GLOBAL_UNIT_ASSIGNED_CONTEXT ( ( #48, #325, #262 ) ) REPRESENTATION_CONTEXT ( 'NONE', 'WORKASPACE' ) );
#279 = ORIENTED_EDGE ( 'NONE', *, *, #346, .T. ) ;
#280 = DIRECTION ( 'NONE',  ( -1.000000000000000000, 0.0000000000000000000, 0.0000000000000000000 ) ) ;
#281 = ADVANCED_FACE ( 'NONE', ( #401, #229 ), #4, .F. ) ;
#282 = DIRECTION ( 'NONE',  ( 1.000000000000000000, -0.0000000000000000000, -0.0000000000000000000 ) ) ;
#283 = AXIS2_PLACEMENT_3D ( 'NONE', #320, #416, #221 ) ;
#284 = APPROVAL_PERSON_ORGANIZATION ( #354, #160, #295 ) ;
#285 = EDGE_LOOP ( 'NONE', ( #369 ) ) ;
#286 = DIRECTION ( 'NONE',  ( 1.000000000000000000, -0.0000000000000000000, -0.0000000000000000000 ) ) ;
#287 = AXIS2_PLACEMENT_3D ( 'NONE', #217, #321, #33 ) ;
#288 = DIRECTION ( 'NONE',  ( -1.000000000000000000, 0.0000000000000000000, 0.0000000000000000000 ) ) ;
#289 = PERSON_AND_ORGANIZATION_ROLE ( 'classification_officer' ) ;
#290 = LOCAL_TIME ( 10, 43, 13.00000000000000000, #190 ) ;
#291 = VERTEX_POINT ( 'NONE', #384 ) ;
#292 = DATE_TIME_ROLE ( 'creation_date' ) ;
#293 = EDGE_LOOP ( 'NONE', ( #339 ) ) ;
#294 = MECHANICAL_CONTEXT ( 'NONE', #225, 'mechanical' ) ;
#295 = APPROVAL_ROLE ( '' ) ;
#296 = FACE_OUTER_BOUND ( 'NONE', #112, .T. ) ;
#297 = EDGE_LOOP ( 'NONE', ( #202 ) ) ;
#298 = APPROVAL_STATUS ( 'not_yet_approved' ) ;
#299 = AXIS2_PLACEMENT_3D ( 'NONE', #324, #288, #199 ) ;
#300 = APPROVAL_DATE_TIME ( #366, #257 ) ;
#301 = FACE_OUTER_BOUND ( 'NONE', #137, .T. ) ;
#302 = CONICAL_SURFACE ( 'NONE', #248, 0.08749991249999995724, 0.0002676241888621868465 ) ;
#303 = CC_DESIGN_PERSON_AND_ORGANIZATION_ASSIGNMENT ( #162, #399, ( #170 ) ) ;
#304 = CALENDAR_DATE ( 2021, 17, 11 ) ;
#305 = TOROIDAL_SURFACE ( 'NONE', #165, 0.2264715020205024243, 0.007499992492497945668 ) ;
#306 = CARTESIAN_POINT ( 'NONE',  ( 0.1039996494751401906, 0.1137498861362599423, 0.0000000000000000000 ) ) ;
#307 = ADVANCED_FACE ( 'NONE', ( #56, #77 ), #338, .T. ) ;
#308 = AXIS2_PLACEMENT_3D ( 'NONE', #312, #343, #251 ) ;
#309 = COORDINATED_UNIVERSAL_TIME_OFFSET ( 6, 0, .BEHIND. ) ;
#310 = FACE_BOUND ( 'NONE', #198, .T. ) ;
#311 = DIRECTION ( 'NONE',  ( 0.0000000000000000000, 0.0000000000000000000, -1.000000000000000000 ) ) ;
#312 = CARTESIAN_POINT ( 'NONE',  ( 1.874328116265479682, 0.0000000000000000000, 0.0000000000000000000 ) ) ;
#313 = AXIS2_PLACEMENT_3D ( 'NONE', #2, #188, #100 ) ;
#314 = CARTESIAN_POINT ( 'NONE',  ( 0.2103625113022999649, 0.0000000000000000000, 0.0000000000000000000 ) ) ;
#315 = AXIS2_PLACEMENT_3D ( 'NONE', #274, #119, #150 ) ;
#316 = EDGE_LOOP ( 'NONE', ( #155 ) ) ;
#317 = ADVANCED_FACE ( 'NONE', ( #208, #52 ), #371, .T. ) ;
#318 = DIRECTION ( 'NONE',  ( 0.0000000000000000000, 0.0000000000000000000, -1.000000000000000000 ) ) ;
#319 = CC_DESIGN_PERSON_AND_ORGANIZATION_ASSIGNMENT ( #171, #397, ( #241 ) ) ;
#320 = CARTESIAN_POINT ( 'NONE',  ( 1.904999649475140000, 0.0000000000000000000, 0.0000000000000000000 ) ) ;
#321 = DIRECTION ( 'NONE',  ( 1.000000000000000000, -0.0000000000000000000, -0.0000000000000000000 ) ) ;
#322 = CARTESIAN_POINT ( 'NONE',  ( 0.1909996494751395602, 0.0000000000000000000, -0.08250000000000014266 ) ) ;
#323 = FACE_OUTER_BOUND ( 'NONE', #297, .T. ) ;
#324 = CARTESIAN_POINT ( 'NONE',  ( 0.1909996494751395602, 0.0000000000000000000, 0.0000000000000000000 ) ) ;
#325 =( NAMED_UNIT ( * ) PLANE_ANGLE_UNIT ( ) SI_UNIT ( $, .RADIAN. ) );
#326 = CIRCLE ( 'NONE', #235, 0.1137498861362599423 ) ;
#327 = CARTESIAN_POINT ( 'NONE',  ( 0.1039996494751401906, 0.0000000000000000000, -0.1137498861362599423 ) ) ;
#328 = AXIS2_PLACEMENT_3D ( 'NONE', #181, #145, #60 ) ;
#329 = PERSON_AND_ORGANIZATION_ROLE ( 'creator' ) ;
#330 = LOCAL_TIME ( 10, 43, 13.00000000000000000, #37 ) ;
#331 = LOCAL_TIME ( 10, 43, 13.00000000000000000, #272 ) ;
#332 = VERTEX_POINT ( 'NONE', #387 ) ;
#333 = CIRCLE ( 'NONE', #50, 0.2264715020205024243 ) ;
#334 = AXIS2_PLACEMENT_3D ( 'NONE', #27, #178, #184 ) ;
#335 = CC_DESIGN_APPROVAL ( #227, ( #122 ) ) ;
#336 = CC_DESIGN_SECURITY_CLASSIFICATION ( #122, ( #57 ) ) ;
#337 = APPROVAL_DATE_TIME ( #236, #39 ) ;
#338 = CONICAL_SURFACE ( 'NONE', #99, 0.08730145659525989643, 0.8726646259964071506 ) ;
#339 = ORIENTED_EDGE ( 'NONE', *, *, #62, .F. ) ;
#340 = DIRECTION ( 'NONE',  ( -0.0000000000000000000, 0.0000000000000000000, -1.000000000000000000 ) ) ;
#341 = CC_DESIGN_PERSON_AND_ORGANIZATION_ASSIGNMENT ( #20, #6, ( #183 ) ) ;
#342 = APPROVAL_DATE_TIME ( #267, #160 ) ;
#343 = DIRECTION ( 'NONE',  ( 1.000000000000000000, -0.0000000000000000000, -0.0000000000000000000 ) ) ;
#344 = CIRCLE ( 'NONE', #7, 0.07549992450000010680 ) ;
#345 = CLOSED_SHELL ( 'NONE', ( #98, #159, #34, #373, #317, #67, #307, #94, #156, #375, #281, #26, #152 ) ) ;
#346 = EDGE_CURVE ( 'NONE', #332, #332, #131, .T. ) ;
#347 = PERSON_AND_ORGANIZATION ( #51, #118 ) ;
#348 = COORDINATED_UNIVERSAL_TIME_OFFSET ( 6, 0, .BEHIND. ) ;
#349 = EDGE_LOOP ( 'NONE', ( #103 ) ) ;
#350 = DIRECTION ( 'NONE',  ( 1.000000000000000000, -0.0000000000000000000, -0.0000000000000000000 ) ) ;
#351 = PERSON_AND_ORGANIZATION_ROLE ( 'design_owner' ) ;
#352 = CARTESIAN_POINT ( 'NONE',  ( 1.132781169983010372, 0.0000000000000000000, 0.0000000000000000000 ) ) ;
#353 = PERSON_AND_ORGANIZATION_ROLE ( 'creator' ) ;
#354 = PERSON_AND_ORGANIZATION ( #51, #118 ) ;
#355 = EDGE_LOOP ( 'NONE', ( #233 ) ) ;
#356 = ORIENTED_EDGE ( 'NONE', *, *, #23, .T. ) ;
#357 =( LENGTH_UNIT ( ) NAMED_UNIT ( * ) SI_UNIT ( $, .METRE. ) );
#358 = AXIS2_PLACEMENT_3D ( 'NONE', #408, #405, #29 ) ;
#359 = APPROVAL ( #85, 'UNSPECIFIED' ) ;
#360 = AXIS2_PLACEMENT_3D ( 'NONE', #64, #280, #250 ) ;
#361 = DATE_TIME_ROLE ( 'creation_date' ) ;
#362 = COORDINATED_UNIVERSAL_TIME_OFFSET ( 6, 0, .BEHIND. ) ;
#363 = PRODUCT_RELATED_PRODUCT_CATEGORY ( 'detail', '', ( #259 ) ) ;
#364 = VERTEX_POINT ( 'NONE', #390 ) ;
#365 = ORIENTED_EDGE ( 'NONE', *, *, #346, .F. ) ;
#366 = DATE_AND_TIME ( #252, #16 ) ;
#367 = VERTEX_POINT ( 'NONE', #389 ) ;
#368 = EDGE_LOOP ( 'NONE', ( #13 ) ) ;
#369 = ORIENTED_EDGE ( 'NONE', *, *, #256, .T. ) ;
#370 = COORDINATED_UNIVERSAL_TIME_OFFSET ( 6, 0, .BEHIND. ) ;
#371 = CONICAL_SURFACE ( 'NONE', #360, 0.07549992450000010680, 0.8726646259972351549 ) ;
#372 = EDGE_LOOP ( 'NONE', ( #365 ) ) ;
#373 = ADVANCED_FACE ( 'NONE', ( #24, #10 ), #246, .T. ) ;
#374 = FACE_OUTER_BOUND ( 'NONE', #84, .T. ) ;
#375 = ADVANCED_FACE ( 'NONE', ( #301, #185 ), #83, .T. ) ;
#376 = DIRECTION ( 'NONE',  ( 1.000000000000000000, -0.0000000000000000000, -0.0000000000000000000 ) ) ;
#377 = DIRECTION ( 'NONE',  ( 1.000000000000000000, -0.0000000000000000000, -0.0000000000000000000 ) ) ;
#378 = FACE_OUTER_BOUND ( 'NONE', #126, .T. ) ;
#379 = EDGE_LOOP ( 'NONE', ( #193 ) ) ;
#380 = CC_DESIGN_PERSON_AND_ORGANIZATION_ASSIGNMENT ( #242, #353, ( #57 ) ) ;
#381 = CARTESIAN_POINT ( 'NONE',  ( 0.2103625113022999649, 0.0000000000000000000, 0.0000000000000000000 ) ) ;
#382 = AXIS2_PLACEMENT_3D ( 'NONE', #415, #376, #247 ) ;
#383 = DIRECTION ( 'NONE',  ( 0.0000000000000000000, 0.0000000000000000000, -1.000000000000000000 ) ) ;
#384 = CARTESIAN_POINT ( 'NONE',  ( 1.904999649475140000, 0.0000000000000000000, -0.07549992450000010680 ) ) ;
#385 = COORDINATED_UNIVERSAL_TIME_OFFSET ( 6, 0, .BEHIND. ) ;
#386 = EDGE_LOOP ( 'NONE', ( #31 ) ) ;
#387 = CARTESIAN_POINT ( 'NONE',  ( 1.132781169983010372, 0.0000000000000000000, -0.08730145659525989643 ) ) ;
#388 = CC_DESIGN_DATE_AND_TIME_ASSIGNMENT ( #140, #108, ( #122 ) ) ;
#389 = CARTESIAN_POINT ( 'NONE',  ( 0.2103625113022999649, 0.0000000000000000000, -0.09299990690699984353 ) ) ;
#390 = CARTESIAN_POINT ( 'NONE',  ( 0.09078974177806954649, 0.0000000000000000000, -0.2313342950187819991 ) ) ;
#391 = CARTESIAN_POINT ( 'NONE',  ( 0.1039996494751401906, 0.0000000000000000000, -0.2264715020205024243 ) ) ;
#392 = COORDINATED_UNIVERSAL_TIME_OFFSET ( 6, 0, .BEHIND. ) ;
#393 = EDGE_LOOP ( 'NONE', ( #163 ) ) ;
#394 = APPROVAL_PERSON_ORGANIZATION ( #222, #39, #79 ) ;
#395 = CC_DESIGN_DATE_AND_TIME_ASSIGNMENT ( #113, #361, ( #5 ) ) ;
#396 = VERTEX_POINT ( 'NONE', #226 ) ;
#397 = PERSON_AND_ORGANIZATION_ROLE ( 'classification_officer' ) ;
#398 = EDGE_LOOP ( 'NONE', ( #11 ) ) ;
#399 = PERSON_AND_ORGANIZATION_ROLE ( 'design_owner' ) ;
#400 = DATE_AND_TIME ( #304, #271 ) ;
#401 = FACE_OUTER_BOUND ( 'NONE', #285, .T. ) ;
#402 = ORIENTED_EDGE ( 'NONE', *, *, #238, .F. ) ;
#403 = PRODUCT_RELATED_PRODUCT_CATEGORY ( 'detail', '', ( #170 ) ) ;
#404 = VERTEX_POINT ( 'NONE', #327 ) ;
#405 = DIRECTION ( 'NONE',  ( 1.000000000000000000, -0.0000000000000000000, -0.0000000000000000000 ) ) ;
#406 = CIRCLE ( 'NONE', #121, 0.09624990365376011325 ) ;
#407 = DIRECTION ( 'NONE',  ( 1.000000000000000000, -0.0000000000000000000, -0.0000000000000000000 ) ) ;
#408 = CARTESIAN_POINT ( 'NONE',  ( 0.3596077816013072970, 0.0000000000000000000, 0.0000000000000000000 ) ) ;
#409 = CC_DESIGN_DATE_AND_TIME_ASSIGNMENT ( #1, #78, ( #241 ) ) ;
#410 = CC_DESIGN_APPROVAL ( #275, ( #183 ) ) ;
#411 = COORDINATED_UNIVERSAL_TIME_OFFSET ( 6, 0, .BEHIND. ) ;
#412 = MANIFOLD_SOLID_BREP ( 'Revolve1', #345 ) ;
#413 = CONICAL_SURFACE ( 'NONE', #382, 0.003489586632983564252, 1.544675965606392865 ) ;
#414 = EDGE_LOOP ( 'NONE', ( #142 ) ) ;
#415 = CARTESIAN_POINT ( 'NONE',  ( 9.116999847955044485E-05, 0.0000000000000000000, 0.0000000000000000000 ) ) ;
#416 = DIRECTION ( 'NONE',  ( 1.000000000000000000, -0.0000000000000000000, -0.0000000000000000000 ) ) ;
ENDSEC;
END-ISO-10303-21;
