ISO-10303-21;
HEADER;
FILE_DESCRIPTION (( 'STEP AP203' ),
    '1' );
FILE_NAME ('MGC-R8.STEP',
    '2021-11-04T18:49:22',
    ( '' ),
    ( '' ),
    'SwSTEP 2.0',
    'SolidWorks 2018',
    '' );
FILE_SCHEMA (( 'CONFIG_CONTROL_DESIGN' ));
ENDSEC;

DATA;
#1 = CARTESIAN_POINT ( 'NONE',  ( 0.0000000000000000000, 0.0000000000000000000, 0.0000000000000000000 ) ) ;
#2 = DIRECTION ( 'NONE',  ( 0.0000000000000000000, 0.0000000000000000000, -1.000000000000000000 ) ) ;
#3 = DIRECTION ( 'NONE',  ( -1.000000000000000000, 0.0000000000000000000, 0.0000000000000000000 ) ) ;
#4 = PERSON_AND_ORGANIZATION ( #26, #81 ) ;
#5 = ORIENTED_EDGE ( 'NONE', *, *, #142, .T. ) ;
#6 = CIRCLE ( 'NONE', #239, 0.1790000000000006031 ) ;
#7 = PERSON_AND_ORGANIZATION ( #26, #81 ) ;
#8 = EDGE_LOOP ( 'NONE', ( #103 ) ) ;
#9 = AXIS2_PLACEMENT_3D ( 'NONE', #247, #11, #203 ) ;
#10 = LOCAL_TIME ( 13, 49, 22.00000000000000000, #128 ) ;
#11 = DIRECTION ( 'NONE',  ( 1.000000000000000000, -0.0000000000000000000, -0.0000000000000000000 ) ) ;
#12 = DIRECTION ( 'NONE',  ( 1.000000000000000000, -0.0000000000000000000, -0.0000000000000000000 ) ) ;
#13 = EDGE_LOOP ( 'NONE', ( #42 ) ) ;
#14 = DIRECTION ( 'NONE',  ( 1.000000000000000000, 0.0000000000000000000, -0.0000000000000000000 ) ) ;
#15 = FACE_OUTER_BOUND ( 'NONE', #13, .T. ) ;
#16 = VERTEX_POINT ( 'NONE', #208 ) ;
#17 = CC_DESIGN_PERSON_AND_ORGANIZATION_ASSIGNMENT ( #53, #126, ( #253 ) ) ;
#18 = EDGE_LOOP ( 'NONE', ( #202 ) ) ;
#19 = APPROVAL_PERSON_ORGANIZATION ( #7, #161, #124 ) ;
#20 = AXIS2_PLACEMENT_3D ( 'NONE', #200, #174, #113 ) ;
#21 = FACE_BOUND ( 'NONE', #28, .T. ) ;
#22 = DIRECTION ( 'NONE',  ( 0.0000000000000000000, 0.0000000000000000000, -1.000000000000000000 ) ) ;
#23 = DIRECTION ( 'NONE',  ( 0.0000000000000000000, 0.0000000000000000000, 1.000000000000000000 ) ) ;
#24 = PERSON_AND_ORGANIZATION ( #26, #81 ) ;
#25 = APPROVAL ( #55, 'UNSPECIFIED' ) ;
#26 = PERSON ( 'UNSPECIFIED', 'UNSPECIFIED', 'UNSPECIFIED', ('UNSPECIFIED'), ('UNSPECIFIED'), ('UNSPECIFIED') ) ;
#27 = PLANE ( 'NONE',  #129 ) ;
#28 = EDGE_LOOP ( 'NONE', ( #212 ) ) ;
#29 = CARTESIAN_POINT ( 'NONE',  ( 0.0000000000000000000, 0.0000000000000000000, 0.0000000000000000000 ) ) ;
#30 =( CONVERSION_BASED_UNIT ( 'INCH', #162 ) LENGTH_UNIT ( ) NAMED_UNIT ( #204 ) );
#31 = CIRCLE ( 'NONE', #66, 0.1269999999999999740 ) ;
#32 = ADVANCED_FACE ( 'NONE', ( #171, #169 ), #48, .T. ) ;
#33 = DIRECTION ( 'NONE',  ( -0.0000000000000000000, 0.0000000000000000000, -1.000000000000000000 ) ) ;
#34 = CLOSED_SHELL ( 'NONE', ( #257, #32, #201, #51, #138, #117, #224, #177, #95 ) ) ;
#35 = PRODUCT_DEFINITION ( 'UNKNOWN', '', #248, #216 ) ;
#36 = DIRECTION ( 'NONE',  ( 0.0000000000000000000, 0.0000000000000000000, 1.000000000000000000 ) ) ;
#37 = AXIS2_PLACEMENT_3D ( 'NONE', #223, #92, #242 ) ;
#38 = APPLICATION_CONTEXT ( 'configuration controlled 3d designs of mechanical parts and assemblies' ) ;
#39 = DATE_AND_TIME ( #151, #159 ) ;
#40 = DATE_TIME_ROLE ( 'creation_date' ) ;
#41 = AXIS2_PLACEMENT_3D ( 'NONE', #74, #94, #71 ) ;
#42 = ORIENTED_EDGE ( 'NONE', *, *, #152, .T. ) ;
#43 = FACE_OUTER_BOUND ( 'NONE', #18, .T. ) ;
#44 = UNCERTAINTY_MEASURE_WITH_UNIT (LENGTH_MEASURE( 1.000000000000000082E-05 ), #30, 'distance_accuracy_value', 'NONE');
#45 = DIRECTION ( 'NONE',  ( 1.000000000000000000, -0.0000000000000000000, -0.0000000000000000000 ) ) ;
#46 = CC_DESIGN_DATE_AND_TIME_ASSIGNMENT ( #39, #188, ( #253 ) ) ;
#47 = DIRECTION ( 'NONE',  ( 1.000000000000000000, -0.0000000000000000000, -0.0000000000000000000 ) ) ;
#48 = CONICAL_SURFACE ( 'NONE', #114, 0.2093967216335299586, 1.090830782496395646 ) ;
#49 = VERTEX_POINT ( 'NONE', #84 ) ;
#50 = DIRECTION ( 'NONE',  ( -1.000000000000000000, 0.0000000000000000000, 0.0000000000000000000 ) ) ;
#51 = ADVANCED_FACE ( 'NONE', ( #263, #168 ), #27, .T. ) ;
#52 = DIRECTION ( 'NONE',  ( 0.0000000000000000000, 0.0000000000000000000, 1.000000000000000000 ) ) ;
#53 = PERSON_AND_ORGANIZATION ( #26, #81 ) ;
#54 = AXIS2_PLACEMENT_3D ( 'NONE', #116, #139, #23 ) ;
#55 = APPROVAL_STATUS ( 'not_yet_approved' ) ;
#56 = EDGE_LOOP ( 'NONE', ( #145 ) ) ;
#57 = DIRECTION ( 'NONE',  ( 1.000000000000000000, 0.0000000000000000000, 0.0000000000000000000 ) ) ;
#58 = FACE_OUTER_BOUND ( 'NONE', #8, .T. ) ;
#59 = CARTESIAN_POINT ( 'NONE',  ( 0.3530000000000003135, 0.0000000000000000000, -0.2009999999999999842 ) ) ;
#60 = CARTESIAN_POINT ( 'NONE',  ( 0.05762894338493006891, 0.0000000000000000000, -0.2093967216335299586 ) ) ;
#61 = APPLICATION_PROTOCOL_DEFINITION ( 'international standard', 'config_control_design', 1994, #250 ) ;
#62 = CIRCLE ( 'NONE', #206, 0.1524999999999999967 ) ;
#63 = AXIS2_PLACEMENT_3D ( 'NONE', #227, #97, #244 ) ;
#64 = VERTEX_POINT ( 'NONE', #179 ) ;
#65 = EDGE_LOOP ( 'NONE', ( #5 ) ) ;
#66 = AXIS2_PLACEMENT_3D ( 'NONE', #240, #134, #109 ) ;
#67 = EDGE_CURVE ( 'NONE', #70, #70, #6, .T. ) ;
#68 = FACE_OUTER_BOUND ( 'NONE', #241, .T. ) ;
#69 = DIRECTION ( 'NONE',  ( 0.0000000000000000000, 0.0000000000000000000, -1.000000000000000000 ) ) ;
#70 = VERTEX_POINT ( 'NONE', #260 ) ;
#71 = DIRECTION ( 'NONE',  ( 0.0000000000000000000, 0.0000000000000000000, -1.000000000000000000 ) ) ;
#72 = CARTESIAN_POINT ( 'NONE',  ( 0.3749999999999996669, 0.0000000000000000000, 0.0000000000000000000 ) ) ;
#73 = AXIS2_PLACEMENT_3D ( 'NONE', #271, #154, #22 ) ;
#74 = CARTESIAN_POINT ( 'NONE',  ( 0.03649221452296988466, 0.0000000000000000000, 0.0000000000000000000 ) ) ;
#75 = LOCAL_TIME ( 13, 49, 22.00000000000000000, #226 ) ;
#76 = CARTESIAN_POINT ( 'NONE',  ( 0.0000000000000000000, 0.2499999999999850953, 0.0000000000000000000 ) ) ;
#77 = ORIENTED_EDGE ( 'NONE', *, *, #108, .F. ) ;
#78 = CARTESIAN_POINT ( 'NONE',  ( 0.07146631238250625295, 0.0000000000000000000, -0.2009999999999999842 ) ) ;
#79 = CIRCLE ( 'NONE', #9, 0.2009999999999999842 ) ;
#80 = PERSON_AND_ORGANIZATION_ROLE ( 'design_owner' ) ;
#81 = ORGANIZATION ( 'UNSPECIFIED', 'UNSPECIFIED', '' ) ;
#82 = EDGE_LOOP ( 'NONE', ( #125 ) ) ;
#83 = COORDINATED_UNIVERSAL_TIME_OFFSET ( 6, 0, .BEHIND. ) ;
#84 = CARTESIAN_POINT ( 'NONE',  ( 0.02800000000000035794, 0.0000000000000000000, -0.1269999999999999740 ) ) ;
#85 = AXIS2_PLACEMENT_3D ( 'NONE', #219, #199, #222 ) ;
#86 = CARTESIAN_POINT ( 'NONE',  ( 0.3749999999999996669, 0.0000000000000000000, -0.1269999999999999740 ) ) ;
#87 = CC_DESIGN_PERSON_AND_ORGANIZATION_ASSIGNMENT ( #127, #80, ( #99 ) ) ;
#88 = CYLINDRICAL_SURFACE ( 'NONE', #37, 0.1269999999999999740 ) ;
#89 = EDGE_LOOP ( 'NONE', ( #91 ) ) ;
#90 = ORIENTED_EDGE ( 'NONE', *, *, #236, .T. ) ;
#91 = ORIENTED_EDGE ( 'NONE', *, *, #132, .F. ) ;
#92 = DIRECTION ( 'NONE',  ( 1.000000000000000000, -0.0000000000000000000, -0.0000000000000000000 ) ) ;
#93 = CARTESIAN_POINT ( 'NONE',  ( 0.3749999999999996669, 0.0000000000000000000, 0.0000000000000000000 ) ) ;
#94 = DIRECTION ( 'NONE',  ( 1.000000000000000000, -0.0000000000000000000, -0.0000000000000000000 ) ) ;
#95 = ADVANCED_FACE ( 'NONE', ( #15, #58 ), #233, .T. ) ;
#96 = DATE_AND_TIME ( #229, #75 ) ;
#97 = DIRECTION ( 'NONE',  ( 1.000000000000000000, -0.0000000000000000000, -0.0000000000000000000 ) ) ;
#98 = CC_DESIGN_PERSON_AND_ORGANIZATION_ASSIGNMENT ( #24, #102, ( #35 ) ) ;
#99 = PRODUCT ( 'MGC-R8', 'MGC-R8', '', ( #163 ) ) ;
#100 = ORIENTED_EDGE ( 'NONE', *, *, #217, .T. ) ;
#101 = CONICAL_SURFACE ( 'NONE', #54, 0.1524999999999999967, 0.7387031593541116825 ) ;
#102 = PERSON_AND_ORGANIZATION_ROLE ( 'creator' ) ;
#103 = ORIENTED_EDGE ( 'NONE', *, *, #236, .F. ) ;
#104 = DATE_AND_TIME ( #267, #172 ) ;
#105 = CYLINDRICAL_SURFACE ( 'NONE', #270, 0.2499999999999850953 ) ;
#106 = PERSON_AND_ORGANIZATION ( #26, #81 ) ;
#107 = ORIENTED_EDGE ( 'NONE', *, *, #149, .T. ) ;
#108 = EDGE_CURVE ( 'NONE', #16, #16, #110, .T. ) ;
#109 = DIRECTION ( 'NONE',  ( 0.0000000000000000000, 0.0000000000000000000, -1.000000000000000000 ) ) ;
#110 = CIRCLE ( 'NONE', #41, 0.2499999999999850953 ) ;
#111 = VERTEX_POINT ( 'NONE', #78 ) ;
#112 = MANIFOLD_SOLID_BREP ( 'Revolve1', #34 ) ;
#113 = DIRECTION ( 'NONE',  ( 0.0000000000000000000, 0.0000000000000000000, -1.000000000000000000 ) ) ;
#114 = AXIS2_PLACEMENT_3D ( 'NONE', #198, #3, #52 ) ;
#115 = COORDINATED_UNIVERSAL_TIME_OFFSET ( 6, 0, .BEHIND. ) ;
#116 = CARTESIAN_POINT ( 'NONE',  ( 0.0000000000000000000, 0.0000000000000000000, 0.0000000000000000000 ) ) ;
#117 = ADVANCED_FACE ( 'NONE', ( #155, #43 ), #88, .F. ) ;
#118 =( NAMED_UNIT ( * ) PLANE_ANGLE_UNIT ( ) SI_UNIT ( $, .RADIAN. ) );
#119 = CIRCLE ( 'NONE', #144, 0.1269999999999999740 ) ;
#120 = VERTEX_POINT ( 'NONE', #86 ) ;
#121 = EDGE_CURVE ( 'NONE', #64, #64, #62, .T. ) ;
#122 = ORIENTED_EDGE ( 'NONE', *, *, #121, .F. ) ;
#123 = APPROVAL_DATE_TIME ( #264, #25 ) ;
#124 = APPROVAL_ROLE ( '' ) ;
#125 = ORIENTED_EDGE ( 'NONE', *, *, #108, .T. ) ;
#126 = PERSON_AND_ORGANIZATION_ROLE ( 'classification_officer' ) ;
#127 = PERSON_AND_ORGANIZATION ( #26, #81 ) ;
#128 = COORDINATED_UNIVERSAL_TIME_OFFSET ( 6, 0, .BEHIND. ) ;
#129 = AXIS2_PLACEMENT_3D ( 'NONE', #76, #50, #196 ) ;
#130 = CONICAL_SURFACE ( 'NONE', #85, 0.1790000000000006031, 0.7853981633974482790 ) ;
#131 = EDGE_LOOP ( 'NONE', ( #122 ) ) ;
#132 = EDGE_CURVE ( 'NONE', #234, #234, #214, .T. ) ;
#133 = ADVANCED_BREP_SHAPE_REPRESENTATION ( 'MGC-R8', ( #112, #180 ), #184 ) ;
#134 = DIRECTION ( 'NONE',  ( 1.000000000000000000, -0.0000000000000000000, -0.0000000000000000000 ) ) ;
#135 = DIRECTION ( 'NONE',  ( 1.000000000000000000, -0.0000000000000000000, -0.0000000000000000000 ) ) ;
#136 = APPROVAL_PERSON_ORGANIZATION ( #191, #228, #211 ) ;
#137 = DIRECTION ( 'NONE',  ( 1.000000000000000000, -0.0000000000000000000, -0.0000000000000000000 ) ) ;
#138 = ADVANCED_FACE ( 'NONE', ( #173, #238 ), #101, .F. ) ;
#139 = DIRECTION ( 'NONE',  ( -1.000000000000000000, 0.0000000000000000000, 0.0000000000000000000 ) ) ;
#140 = APPROVAL_DATE_TIME ( #104, #228 ) ;
#141 = FACE_OUTER_BOUND ( 'NONE', #56, .T. ) ;
#142 = EDGE_CURVE ( 'NONE', #150, #150, #181, .T. ) ;
#143 = APPROVAL_STATUS ( 'not_yet_approved' ) ;
#144 = AXIS2_PLACEMENT_3D ( 'NONE', #262, #12, #266 ) ;
#145 = ORIENTED_EDGE ( 'NONE', *, *, #132, .T. ) ;
#146 = PLANE ( 'NONE',  #158 ) ;
#147 = APPROVAL_STATUS ( 'not_yet_approved' ) ;
#148 = EDGE_LOOP ( 'NONE', ( #100 ) ) ;
#149 = EDGE_CURVE ( 'NONE', #120, #120, #31, .T. ) ;
#150 = VERTEX_POINT ( 'NONE', #60 ) ;
#151 = CALENDAR_DATE ( 2021, 4, 11 ) ;
#152 = EDGE_CURVE ( 'NONE', #111, #111, #252, .T. ) ;
#153 = ORIENTED_EDGE ( 'NONE', *, *, #149, .F. ) ;
#154 = DIRECTION ( 'NONE',  ( 1.000000000000000000, -0.0000000000000000000, -0.0000000000000000000 ) ) ;
#155 = FACE_OUTER_BOUND ( 'NONE', #186, .T. ) ;
#156 = DIRECTION ( 'NONE',  ( 0.0000000000000000000, 0.0000000000000000000, -1.000000000000000000 ) ) ;
#157 = DIRECTION ( 'NONE',  ( 1.000000000000000000, -0.0000000000000000000, -0.0000000000000000000 ) ) ;
#158 = AXIS2_PLACEMENT_3D ( 'NONE', #160, #14, #33 ) ;
#159 = LOCAL_TIME ( 13, 49, 22.00000000000000000, #115 ) ;
#160 = CARTESIAN_POINT ( 'NONE',  ( 0.3749999999999996669, 0.1790000000000006031, 0.0000000000000000000 ) ) ;
#161 = APPROVAL ( #143, 'UNSPECIFIED' ) ;
#162 = LENGTH_MEASURE_WITH_UNIT ( LENGTH_MEASURE( 0.02539999999999999897 ), #166 );
#163 = MECHANICAL_CONTEXT ( 'NONE', #38, 'mechanical' ) ;
#164 = CALENDAR_DATE ( 2021, 4, 11 ) ;
#165 = PRODUCT_DEFINITION_SHAPE ( 'NONE', 'NONE',  #35 ) ;
#166 =( LENGTH_UNIT ( ) NAMED_UNIT ( * ) SI_UNIT ( $, .METRE. ) );
#167 = CC_DESIGN_DATE_AND_TIME_ASSIGNMENT ( #258, #40, ( #35 ) ) ;
#168 = FACE_OUTER_BOUND ( 'NONE', #89, .T. ) ;
#169 = FACE_BOUND ( 'NONE', #254, .T. ) ;
#170 = AXIS2_PLACEMENT_3D ( 'NONE', #29, #45, #69 ) ;
#171 = FACE_OUTER_BOUND ( 'NONE', #82, .T. ) ;
#172 = LOCAL_TIME ( 13, 49, 22.00000000000000000, #83 ) ;
#173 = FACE_BOUND ( 'NONE', #148, .T. ) ;
#174 = DIRECTION ( 'NONE',  ( 1.000000000000000000, -0.0000000000000000000, -0.0000000000000000000 ) ) ;
#175 = DIRECTION ( 'NONE',  ( 0.0000000000000000000, 0.0000000000000000000, -1.000000000000000000 ) ) ;
#176 = APPROVAL_PERSON_ORGANIZATION ( #249, #25, #265 ) ;
#177 = ADVANCED_FACE ( 'NONE', ( #194, #21 ), #130, .T. ) ;
#178 = EDGE_LOOP ( 'NONE', ( #153 ) ) ;
#179 = CARTESIAN_POINT ( 'NONE',  ( 0.0000000000000000000, 0.0000000000000000000, -0.1524999999999999967 ) ) ;
#180 = AXIS2_PLACEMENT_3D ( 'NONE', #231, #36, #57 ) ;
#181 = CIRCLE ( 'NONE', #73, 0.2093967216335299586 ) ;
#182 = EDGE_LOOP ( 'NONE', ( #190 ) ) ;
#183 = APPROVAL_DATE_TIME ( #96, #161 ) ;
#184 =( GEOMETRIC_REPRESENTATION_CONTEXT ( 3 ) GLOBAL_UNCERTAINTY_ASSIGNED_CONTEXT ( ( #44 ) ) GLOBAL_UNIT_ASSIGNED_CONTEXT ( ( #30, #118, #185 ) ) REPRESENTATION_CONTEXT ( 'NONE', 'WORKASPACE' ) );
#185 =( NAMED_UNIT ( * ) SI_UNIT ( $, .STERADIAN. ) SOLID_ANGLE_UNIT ( ) );
#186 = EDGE_LOOP ( 'NONE', ( #107 ) ) ;
#187 = PERSON_AND_ORGANIZATION_ROLE ( 'creator' ) ;
#188 = DATE_TIME_ROLE ( 'classification_date' ) ;
#189 = FACE_BOUND ( 'NONE', #178, .T. ) ;
#190 = ORIENTED_EDGE ( 'NONE', *, *, #152, .F. ) ;
#191 = PERSON_AND_ORGANIZATION ( #26, #81 ) ;
#192 = EDGE_LOOP ( 'NONE', ( #90 ) ) ;
#193 = CC_DESIGN_SECURITY_CLASSIFICATION ( #253, ( #248 ) ) ;
#194 = FACE_OUTER_BOUND ( 'NONE', #192, .T. ) ;
#195 = CC_DESIGN_APPROVAL ( #25, ( #248 ) ) ;
#196 = DIRECTION ( 'NONE',  ( 0.0000000000000000000, 0.0000000000000000000, 1.000000000000000000 ) ) ;
#197 = EDGE_LOOP ( 'NONE', ( #261 ) ) ;
#198 = CARTESIAN_POINT ( 'NONE',  ( 0.05762894338493006891, 0.0000000000000000000, 0.0000000000000000000 ) ) ;
#199 = DIRECTION ( 'NONE',  ( -1.000000000000000000, 0.0000000000000000000, 0.0000000000000000000 ) ) ;
#200 = CARTESIAN_POINT ( 'NONE',  ( 0.3749999999999996669, 0.0000000000000000000, 0.0000000000000000000 ) ) ;
#201 = ADVANCED_FACE ( 'NONE', ( #141, #268 ), #105, .T. ) ;
#202 = ORIENTED_EDGE ( 'NONE', *, *, #217, .F. ) ;
#203 = DIRECTION ( 'NONE',  ( 0.0000000000000000000, 0.0000000000000000000, -1.000000000000000000 ) ) ;
#204 = DIMENSIONAL_EXPONENTS ( 1.000000000000000000, 0.0000000000000000000, 0.0000000000000000000, 0.0000000000000000000, 0.0000000000000000000, 0.0000000000000000000, 0.0000000000000000000 ) ;
#205 = CARTESIAN_POINT ( 'NONE',  ( 0.0000000000000000000, 0.0000000000000000000, -0.2499999999999850953 ) ) ;
#206 = AXIS2_PLACEMENT_3D ( 'NONE', #1, #137, #156 ) ;
#207 = TOROIDAL_SURFACE ( 'NONE', #63, 0.2165999999999959347, 0.01559999999999602677 ) ;
#208 = CARTESIAN_POINT ( 'NONE',  ( 0.03649221452296988466, 0.0000000000000000000, -0.2499999999999850953 ) ) ;
#209 = LOCAL_TIME ( 13, 49, 22.00000000000000000, #237 ) ;
#210 = PERSON_AND_ORGANIZATION_ROLE ( 'design_supplier' ) ;
#211 = APPROVAL_ROLE ( '' ) ;
#212 = ORIENTED_EDGE ( 'NONE', *, *, #67, .F. ) ;
#213 = CC_DESIGN_PERSON_AND_ORGANIZATION_ASSIGNMENT ( #106, #210, ( #248 ) ) ;
#214 = CIRCLE ( 'NONE', #170, 0.2499999999999850953 ) ;
#215 = CC_DESIGN_APPROVAL ( #228, ( #253 ) ) ;
#216 = DESIGN_CONTEXT ( 'detailed design', #250, 'design' ) ;
#217 = EDGE_CURVE ( 'NONE', #49, #49, #119, .T. ) ;
#218 = CALENDAR_DATE ( 2021, 4, 11 ) ;
#219 = CARTESIAN_POINT ( 'NONE',  ( 0.3749999999999996669, 0.0000000000000000000, 0.0000000000000000000 ) ) ;
#220 = FACE_OUTER_BOUND ( 'NONE', #182, .T. ) ;
#221 = CC_DESIGN_APPROVAL ( #161, ( #35 ) ) ;
#222 = DIRECTION ( 'NONE',  ( 0.0000000000000000000, 0.0000000000000000000, 1.000000000000000000 ) ) ;
#223 = CARTESIAN_POINT ( 'NONE',  ( 0.3749999999999996669, 0.0000000000000000000, 0.0000000000000000000 ) ) ;
#224 = ADVANCED_FACE ( 'NONE', ( #68, #189 ), #146, .T. ) ;
#225 = DIRECTION ( 'NONE',  ( 0.0000000000000000000, 0.0000000000000000000, -1.000000000000000000 ) ) ;
#226 = COORDINATED_UNIVERSAL_TIME_OFFSET ( 6, 0, .BEHIND. ) ;
#227 = CARTESIAN_POINT ( 'NONE',  ( 0.07146631238250625295, 0.0000000000000000000, 0.0000000000000000000 ) ) ;
#228 = APPROVAL ( #147, 'UNSPECIFIED' ) ;
#229 = CALENDAR_DATE ( 2021, 4, 11 ) ;
#230 = AXIS2_PLACEMENT_3D ( 'NONE', #256, #135, #2 ) ;
#231 = CARTESIAN_POINT ( 'NONE',  ( 0.0000000000000000000, 0.0000000000000000000, 0.0000000000000000000 ) ) ;
#232 = APPLICATION_PROTOCOL_DEFINITION ( 'international standard', 'config_control_design', 1994, #38 ) ;
#233 = CYLINDRICAL_SURFACE ( 'NONE', #20, 0.2009999999999999842 ) ;
#234 = VERTEX_POINT ( 'NONE', #205 ) ;
#235 = ORIENTED_EDGE ( 'NONE', *, *, #67, .T. ) ;
#236 = EDGE_CURVE ( 'NONE', #272, #272, #79, .T. ) ;
#237 = COORDINATED_UNIVERSAL_TIME_OFFSET ( 6, 0, .BEHIND. ) ;
#238 = FACE_OUTER_BOUND ( 'NONE', #131, .T. ) ;
#239 = AXIS2_PLACEMENT_3D ( 'NONE', #72, #47, #225 ) ;
#240 = CARTESIAN_POINT ( 'NONE',  ( 0.3749999999999996669, 0.0000000000000000000, 0.0000000000000000000 ) ) ;
#241 = EDGE_LOOP ( 'NONE', ( #235 ) ) ;
#242 = DIRECTION ( 'NONE',  ( 0.0000000000000000000, 0.0000000000000000000, -1.000000000000000000 ) ) ;
#243 = EDGE_LOOP ( 'NONE', ( #77 ) ) ;
#244 = DIRECTION ( 'NONE',  ( 0.0000000000000000000, 0.0000000000000000000, -1.000000000000000000 ) ) ;
#245 = SHAPE_DEFINITION_REPRESENTATION ( #165, #133 ) ;
#246 = FACE_OUTER_BOUND ( 'NONE', #65, .T. ) ;
#247 = CARTESIAN_POINT ( 'NONE',  ( 0.3530000000000003135, 0.0000000000000000000, 0.0000000000000000000 ) ) ;
#248 = PRODUCT_DEFINITION_FORMATION_WITH_SPECIFIED_SOURCE ( 'ANY', '', #99, .NOT_KNOWN. ) ;
#249 = PERSON_AND_ORGANIZATION ( #26, #81 ) ;
#250 = APPLICATION_CONTEXT ( 'configuration controlled 3d designs of mechanical parts and assemblies' ) ;
#251 = SECURITY_CLASSIFICATION_LEVEL ( 'unclassified' ) ;
#252 = CIRCLE ( 'NONE', #230, 0.2009999999999999842 ) ;
#253 = SECURITY_CLASSIFICATION ( '', '', #251 ) ;
#254 = EDGE_LOOP ( 'NONE', ( #269 ) ) ;
#255 = CC_DESIGN_PERSON_AND_ORGANIZATION_ASSIGNMENT ( #4, #187, ( #248 ) ) ;
#256 = CARTESIAN_POINT ( 'NONE',  ( 0.07146631238250625295, 0.0000000000000000000, 0.0000000000000000000 ) ) ;
#257 = ADVANCED_FACE ( 'NONE', ( #246, #220 ), #207, .F. ) ;
#258 = DATE_AND_TIME ( #164, #10 ) ;
#259 = PRODUCT_RELATED_PRODUCT_CATEGORY ( 'detail', '', ( #99 ) ) ;
#260 = CARTESIAN_POINT ( 'NONE',  ( 0.3749999999999996669, 0.0000000000000000000, -0.1790000000000006031 ) ) ;
#261 = ORIENTED_EDGE ( 'NONE', *, *, #121, .T. ) ;
#262 = CARTESIAN_POINT ( 'NONE',  ( 0.02800000000000035794, 0.0000000000000000000, 0.0000000000000000000 ) ) ;
#263 = FACE_BOUND ( 'NONE', #197, .T. ) ;
#264 = DATE_AND_TIME ( #218, #209 ) ;
#265 = APPROVAL_ROLE ( '' ) ;
#266 = DIRECTION ( 'NONE',  ( 0.0000000000000000000, 0.0000000000000000000, -1.000000000000000000 ) ) ;
#267 = CALENDAR_DATE ( 2021, 4, 11 ) ;
#268 = FACE_OUTER_BOUND ( 'NONE', #243, .T. ) ;
#269 = ORIENTED_EDGE ( 'NONE', *, *, #142, .F. ) ;
#270 = AXIS2_PLACEMENT_3D ( 'NONE', #93, #157, #175 ) ;
#271 = CARTESIAN_POINT ( 'NONE',  ( 0.05762894338493006891, 0.0000000000000000000, 0.0000000000000000000 ) ) ;
#272 = VERTEX_POINT ( 'NONE', #59 ) ;
ENDSEC;
END-ISO-10303-21;
