ISO-10303-21;
HEADER;
FILE_DESCRIPTION (( 'STEP AP203' ),
    '1' );
FILE_NAME ('MGC-( )6.STEP',
    '2021-11-04T21:37:47',
    ( '' ),
    ( '' ),
    'SwSTEP 2.0',
    'SolidWorks 2018',
    '' );
FILE_SCHEMA (( 'CONFIG_CONTROL_DESIGN' ));
ENDSEC;

DATA;
#1 = ORIENTED_EDGE ( 'NONE', *, *, #247, .T. ) ;
#2 = EDGE_CURVE ( 'NONE', #253, #253, #202, .T. ) ;
#3 = DIRECTION ( 'NONE',  ( -1.000000000000000000, 0.0000000000000000000, 0.0000000000000000000 ) ) ;
#4 = CARTESIAN_POINT ( 'NONE',  ( 0.2750000000000100697, -0.1330000000000002014, 0.0000000000000000000 ) ) ;
#5 = AXIS2_PLACEMENT_3D ( 'NONE', #9, #10, #76 ) ;
#6 = CALENDAR_DATE ( 2021, 4, 11 ) ;
#7 = LOCAL_TIME ( 16, 37, 47.00000000000000000, #89 ) ;
#8 = CARTESIAN_POINT ( 'NONE',  ( 0.2750000000000100697, 0.0000000000000000000, 0.0000000000000000000 ) ) ;
#9 = CARTESIAN_POINT ( 'NONE',  ( 0.2750000000000100697, 0.0000000000000000000, 0.0000000000000000000 ) ) ;
#10 = DIRECTION ( 'NONE',  ( 1.000000000000000000, -0.0000000000000000000, -0.0000000000000000000 ) ) ;
#11 = APPROVAL_DATE_TIME ( #240, #151 ) ;
#12 = LENGTH_MEASURE_WITH_UNIT ( LENGTH_MEASURE( 0.02539999999999999897 ), #26 );
#13 = EDGE_CURVE ( 'NONE', #214, #214, #231, .T. ) ;
#14 = AXIS2_PLACEMENT_3D ( 'NONE', #144, #18, #150 ) ;
#15 = FACE_BOUND ( 'NONE', #70, .T. ) ;
#16 = AXIS2_PLACEMENT_3D ( 'NONE', #203, #236, #81 ) ;
#17 = CONICAL_SURFACE ( 'NONE', #166, 0.09600000000000029343, 0.5917617106181701780 ) ;
#18 = DIRECTION ( 'NONE',  ( 1.000000000000000000, -0.0000000000000000000, -0.0000000000000000000 ) ) ;
#19 = CARTESIAN_POINT ( 'NONE',  ( 0.02808157085707006784, 0.0000000000000000000, 0.0000000000000000000 ) ) ;
#20 = CARTESIAN_POINT ( 'NONE',  ( 0.2530000000000199312, 0.0000000000000000000, -0.1549999999999902844 ) ) ;
#21 = DIRECTION ( 'NONE',  ( 1.000000000000000000, -0.0000000000000000000, -0.0000000000000000000 ) ) ;
#22 = DIRECTION ( 'NONE',  ( 1.000000000000000000, -0.0000000000000000000, -0.0000000000000000000 ) ) ;
#23 = VERTEX_POINT ( 'NONE', #20 ) ;
#24 = CARTESIAN_POINT ( 'NONE',  ( 0.2750000000000100697, 0.0000000000000000000, 0.0000000000000000000 ) ) ;
#25 = APPROVAL_STATUS ( 'not_yet_approved' ) ;
#26 =( LENGTH_UNIT ( ) NAMED_UNIT ( * ) SI_UNIT ( $, .METRE. ) );
#27 = FACE_OUTER_BOUND ( 'NONE', #272, .T. ) ;
#28 = AXIS2_PLACEMENT_3D ( 'NONE', #24, #123, #79 ) ;
#29 = ORIENTED_EDGE ( 'NONE', *, *, #2, .F. ) ;
#30 = CIRCLE ( 'NONE', #5, 0.09600000000000029343 ) ;
#31 = AXIS2_PLACEMENT_3D ( 'NONE', #200, #56, #212 ) ;
#32 = FACE_BOUND ( 'NONE', #44, .T. ) ;
#33 = EDGE_CURVE ( 'NONE', #248, #248, #174, .T. ) ;
#34 = EDGE_LOOP ( 'NONE', ( #269 ) ) ;
#35 = CC_DESIGN_PERSON_AND_ORGANIZATION_ASSIGNMENT ( #147, #185, ( #135 ) ) ;
#36 = APPROVAL_DATE_TIME ( #230, #173 ) ;
#37 = CIRCLE ( 'NONE', #14, 0.1549999999999902844 ) ;
#38 = DESIGN_CONTEXT ( 'detailed design', #242, 'design' ) ;
#39 = DIRECTION ( 'NONE',  ( -1.000000000000000000, 0.0000000000000000000, 0.0000000000000000000 ) ) ;
#40 = PERSON_AND_ORGANIZATION ( #165, #134 ) ;
#41 = DIRECTION ( 'NONE',  ( 1.000000000000000000, -0.0000000000000000000, -0.0000000000000000000 ) ) ;
#42 = VERTEX_POINT ( 'NONE', #206 ) ;
#43 = CARTESIAN_POINT ( 'NONE',  ( 0.02082991885698010082, 0.0000000000000000000, -0.09600000000000029343 ) ) ;
#44 = EDGE_LOOP ( 'NONE', ( #53 ) ) ;
#45 = DATE_TIME_ROLE ( 'classification_date' ) ;
#46 = AXIS2_PLACEMENT_3D ( 'NONE', #8, #21, #181 ) ;
#47 = ADVANCED_FACE ( 'NONE', ( #249, #209 ), #55, .T. ) ;
#48 = FACE_OUTER_BOUND ( 'NONE', #85, .T. ) ;
#49 = ORIENTED_EDGE ( 'NONE', *, *, #80, .F. ) ;
#50 = DATE_AND_TIME ( #6, #111 ) ;
#51 = ADVANCED_BREP_SHAPE_REPRESENTATION ( 'MGC-( )6', ( #62, #103 ), #254 ) ;
#52 = FACE_OUTER_BOUND ( 'NONE', #67, .T. ) ;
#53 = ORIENTED_EDGE ( 'NONE', *, *, #33, .F. ) ;
#54 = EDGE_LOOP ( 'NONE', ( #221 ) ) ;
#55 = CYLINDRICAL_SURFACE ( 'NONE', #115, 0.1549999999999902844 ) ;
#56 = DIRECTION ( 'NONE',  ( 1.000000000000000000, -0.0000000000000000000, -0.0000000000000000000 ) ) ;
#57 = AXIS2_PLACEMENT_3D ( 'NONE', #178, #39, #100 ) ;
#58 = CARTESIAN_POINT ( 'NONE',  ( 0.01404078542853503392, 0.0000000000000000000, 0.0000000000000000000 ) ) ;
#59 = PERSON_AND_ORGANIZATION ( #165, #134 ) ;
#60 = CARTESIAN_POINT ( 'NONE',  ( 0.05000000000000028727, 0.0000000000000000000, -0.1549999999999902844 ) ) ;
#61 = AXIS2_PLACEMENT_3D ( 'NONE', #63, #263, #258 ) ;
#62 = MANIFOLD_SOLID_BREP ( 'Revolve1', #112 ) ;
#63 = CARTESIAN_POINT ( 'NONE',  ( 0.0000000000000000000, 0.0000000000000000000, 0.0000000000000000000 ) ) ;
#64 =( NAMED_UNIT ( * ) SI_UNIT ( $, .STERADIAN. ) SOLID_ANGLE_UNIT ( ) );
#65 = DATE_TIME_ROLE ( 'creation_date' ) ;
#66 = MECHANICAL_CONTEXT ( 'NONE', #182, 'mechanical' ) ;
#67 = EDGE_LOOP ( 'NONE', ( #264 ) ) ;
#68 = FACE_BOUND ( 'NONE', #54, .T. ) ;
#69 = PERSON_AND_ORGANIZATION ( #165, #134 ) ;
#70 = EDGE_LOOP ( 'NONE', ( #196 ) ) ;
#71 = DIRECTION ( 'NONE',  ( 0.0000000000000000000, 0.0000000000000000000, -1.000000000000000000 ) ) ;
#72 = CARTESIAN_POINT ( 'NONE',  ( 0.2750000000000100697, 0.0000000000000000000, 0.0000000000000000000 ) ) ;
#73 = PERSON_AND_ORGANIZATION ( #165, #134 ) ;
#74 = CYLINDRICAL_SURFACE ( 'NONE', #46, 0.09600000000000029343 ) ;
#75 = DIRECTION ( 'NONE',  ( 1.000000000000000000, -0.0000000000000000000, -0.0000000000000000000 ) ) ;
#76 = DIRECTION ( 'NONE',  ( 0.0000000000000000000, 0.0000000000000000000, -1.000000000000000000 ) ) ;
#77 = FACE_OUTER_BOUND ( 'NONE', #102, .T. ) ;
#78 = ORIENTED_EDGE ( 'NONE', *, *, #140, .T. ) ;
#79 = DIRECTION ( 'NONE',  ( 0.0000000000000000000, 0.0000000000000000000, -1.000000000000000000 ) ) ;
#80 = EDGE_CURVE ( 'NONE', #241, #241, #37, .T. ) ;
#81 = DIRECTION ( 'NONE',  ( -0.0000000000000000000, 0.0000000000000000000, -1.000000000000000000 ) ) ;
#82 = FACE_OUTER_BOUND ( 'NONE', #116, .T. ) ;
#83 = DIRECTION ( 'NONE',  ( 1.000000000000000000, -0.0000000000000000000, -0.0000000000000000000 ) ) ;
#84 = APPROVAL_STATUS ( 'not_yet_approved' ) ;
#85 = EDGE_LOOP ( 'NONE', ( #29 ) ) ;
#86 = AXIS2_PLACEMENT_3D ( 'NONE', #220, #22, #216 ) ;
#87 = CC_DESIGN_PERSON_AND_ORGANIZATION_ASSIGNMENT ( #73, #222, ( #187 ) ) ;
#88 = LOCAL_TIME ( 16, 37, 47.00000000000000000, #113 ) ;
#89 = COORDINATED_UNIVERSAL_TIME_OFFSET ( 6, 0, .BEHIND. ) ;
#90 = LOCAL_TIME ( 16, 37, 47.00000000000000000, #91 ) ;
#91 = COORDINATED_UNIVERSAL_TIME_OFFSET ( 6, 0, .BEHIND. ) ;
#92 = CIRCLE ( 'NONE', #197, 0.1875000000000001110 ) ;
#93 = ORIENTED_EDGE ( 'NONE', *, *, #256, .F. ) ;
#94 = DATE_AND_TIME ( #195, #246 ) ;
#95 = FACE_OUTER_BOUND ( 'NONE', #153, .T. ) ;
#96 = ORIENTED_EDGE ( 'NONE', *, *, #140, .F. ) ;
#97 = DIRECTION ( 'NONE',  ( 0.0000000000000000000, 0.0000000000000000000, -1.000000000000000000 ) ) ;
#98 = DATE_AND_TIME ( #155, #7 ) ;
#99 = CARTESIAN_POINT ( 'NONE',  ( 0.2750000000000100697, 0.0000000000000000000, -0.1330000000000002014 ) ) ;
#100 = DIRECTION ( 'NONE',  ( 0.0000000000000000000, 0.0000000000000000000, 1.000000000000000000 ) ) ;
#101 = DIRECTION ( 'NONE',  ( 1.000000000000000000, -0.0000000000000000000, -0.0000000000000000000 ) ) ;
#102 = EDGE_LOOP ( 'NONE', ( #78 ) ) ;
#103 = AXIS2_PLACEMENT_3D ( 'NONE', #119, #136, #154 ) ;
#104 = PERSON_AND_ORGANIZATION_ROLE ( 'classification_officer' ) ;
#105 = COORDINATED_UNIVERSAL_TIME_OFFSET ( 6, 0, .BEHIND. ) ;
#106 = VERTEX_POINT ( 'NONE', #243 ) ;
#107 =( NAMED_UNIT ( * ) PLANE_ANGLE_UNIT ( ) SI_UNIT ( $, .RADIAN. ) );
#108 = ADVANCED_FACE ( 'NONE', ( #32, #141 ), #164, .T. ) ;
#109 = SECURITY_CLASSIFICATION_LEVEL ( 'unclassified' ) ;
#110 = EDGE_LOOP ( 'NONE', ( #124 ) ) ;
#111 = LOCAL_TIME ( 16, 37, 47.00000000000000000, #105 ) ;
#112 = CLOSED_SHELL ( 'NONE', ( #192, #108, #137, #47, #130, #159, #265, #189, #208 ) ) ;
#113 = COORDINATED_UNIVERSAL_TIME_OFFSET ( 6, 0, .BEHIND. ) ;
#114 = SHAPE_DEFINITION_REPRESENTATION ( #226, #51 ) ;
#115 = AXIS2_PLACEMENT_3D ( 'NONE', #72, #75, #170 ) ;
#116 = EDGE_LOOP ( 'NONE', ( #176 ) ) ;
#117 = CC_DESIGN_APPROVAL ( #167, ( #187 ) ) ;
#118 = DIRECTION ( 'NONE',  ( 1.000000000000000000, -0.0000000000000000000, -0.0000000000000000000 ) ) ;
#119 = CARTESIAN_POINT ( 'NONE',  ( 0.0000000000000000000, 0.0000000000000000000, 0.0000000000000000000 ) ) ;
#120 = CALENDAR_DATE ( 2021, 4, 11 ) ;
#121 = DIRECTION ( 'NONE',  ( 0.0000000000000000000, 0.0000000000000000000, -1.000000000000000000 ) ) ;
#122 = EDGE_LOOP ( 'NONE', ( #93 ) ) ;
#123 = DIRECTION ( 'NONE',  ( 1.000000000000000000, -0.0000000000000000000, -0.0000000000000000000 ) ) ;
#124 = ORIENTED_EDGE ( 'NONE', *, *, #262, .F. ) ;
#125 = DIRECTION ( 'NONE',  ( 0.0000000000000000000, 0.0000000000000000000, -1.000000000000000000 ) ) ;
#126 = APPROVAL_PERSON_ORGANIZATION ( #160, #151, #129 ) ;
#127 = VERTEX_POINT ( 'NONE', #99 ) ;
#128 = PERSON_AND_ORGANIZATION_ROLE ( 'creator' ) ;
#129 = APPROVAL_ROLE ( '' ) ;
#130 = ADVANCED_FACE ( 'NONE', ( #68, #77 ), #204, .T. ) ;
#131 = APPROVAL_PERSON_ORGANIZATION ( #250, #167, #225 ) ;
#132 = AXIS2_PLACEMENT_3D ( 'NONE', #219, #83, #239 ) ;
#133 = DIMENSIONAL_EXPONENTS ( 1.000000000000000000, 0.0000000000000000000, 0.0000000000000000000, 0.0000000000000000000, 0.0000000000000000000, 0.0000000000000000000, 0.0000000000000000000 ) ;
#134 = ORGANIZATION ( 'UNSPECIFIED', 'UNSPECIFIED', '' ) ;
#135 = PRODUCT_DEFINITION_FORMATION_WITH_SPECIFIED_SOURCE ( 'ANY', '', #193, .NOT_KNOWN. ) ;
#136 = DIRECTION ( 'NONE',  ( 0.0000000000000000000, 0.0000000000000000000, 1.000000000000000000 ) ) ;
#137 = ADVANCED_FACE ( 'NONE', ( #227, #152 ), #228, .F. ) ;
#138 = CC_DESIGN_DATE_AND_TIME_ASSIGNMENT ( #94, #65, ( #187 ) ) ;
#139 = CIRCLE ( 'NONE', #61, 0.1099999999999900779 ) ;
#140 = EDGE_CURVE ( 'NONE', #23, #23, #267, .T. ) ;
#141 = FACE_OUTER_BOUND ( 'NONE', #188, .T. ) ;
#142 = EDGE_LOOP ( 'NONE', ( #145 ) ) ;
#143 = AXIS2_PLACEMENT_3D ( 'NONE', #19, #118, #71 ) ;
#144 = CARTESIAN_POINT ( 'NONE',  ( 0.05000000000000028727, 0.0000000000000000000, 0.0000000000000000000 ) ) ;
#145 = ORIENTED_EDGE ( 'NONE', *, *, #13, .F. ) ;
#146 = CC_DESIGN_PERSON_AND_ORGANIZATION_ASSIGNMENT ( #69, #224, ( #193 ) ) ;
#147 = PERSON_AND_ORGANIZATION ( #165, #134 ) ;
#148 = PLANE ( 'NONE',  #16 ) ;
#149 = CC_DESIGN_PERSON_AND_ORGANIZATION_ASSIGNMENT ( #59, #104, ( #183 ) ) ;
#150 = DIRECTION ( 'NONE',  ( 0.0000000000000000000, 0.0000000000000000000, -1.000000000000000000 ) ) ;
#151 = APPROVAL ( #207, 'UNSPECIFIED' ) ;
#152 = FACE_OUTER_BOUND ( 'NONE', #266, .T. ) ;
#153 = EDGE_LOOP ( 'NONE', ( #252 ) ) ;
#154 = DIRECTION ( 'NONE',  ( 1.000000000000000000, 0.0000000000000000000, 0.0000000000000000000 ) ) ;
#155 = CALENDAR_DATE ( 2021, 4, 11 ) ;
#156 = TOROIDAL_SURFACE ( 'NONE', #201, 0.1519012012367564335, 0.03826771653543077634 ) ;
#157 = EDGE_LOOP ( 'NONE', ( #163 ) ) ;
#158 = APPLICATION_PROTOCOL_DEFINITION ( 'international standard', 'config_control_design', 1994, #182 ) ;
#159 = ADVANCED_FACE ( 'NONE', ( #169, #27 ), #237, .F. ) ;
#160 = PERSON_AND_ORGANIZATION ( #165, #134 ) ;
#161 = AXIS2_PLACEMENT_3D ( 'NONE', #232, #175, #97 ) ;
#162 = FACE_OUTER_BOUND ( 'NONE', #142, .T. ) ;
#163 = ORIENTED_EDGE ( 'NONE', *, *, #13, .T. ) ;
#164 = CONICAL_SURFACE ( 'NONE', #180, 0.1875000000000001110, 1.090830782496770013 ) ;
#165 = PERSON ( 'UNSPECIFIED', 'UNSPECIFIED', 'UNSPECIFIED', ('UNSPECIFIED'), ('UNSPECIFIED'), ('UNSPECIFIED') ) ;
#166 = AXIS2_PLACEMENT_3D ( 'NONE', #179, #234, #259 ) ;
#167 = APPROVAL ( #84, 'UNSPECIFIED' ) ;
#168 = APPROVAL_DATE_TIME ( #98, #167 ) ;
#169 = FACE_BOUND ( 'NONE', #110, .T. ) ;
#170 = DIRECTION ( 'NONE',  ( 0.0000000000000000000, 0.0000000000000000000, -1.000000000000000000 ) ) ;
#171 = DIRECTION ( 'NONE',  ( -1.000000000000000000, 0.0000000000000000000, 0.0000000000000000000 ) ) ;
#172 = VERTEX_POINT ( 'NONE', #245 ) ;
#173 = APPROVAL ( #25, 'UNSPECIFIED' ) ;
#174 = CIRCLE ( 'NONE', #31, 0.1603825138676391593 ) ;
#175 = DIRECTION ( 'NONE',  ( 1.000000000000000000, -0.0000000000000000000, -0.0000000000000000000 ) ) ;
#176 = ORIENTED_EDGE ( 'NONE', *, *, #271, .F. ) ;
#177 = CARTESIAN_POINT ( 'NONE',  ( 0.02808157085707006784, 0.0000000000000000000, -0.1875000000000001110 ) ) ;
#178 = CARTESIAN_POINT ( 'NONE',  ( 0.2530000000000199312, 0.0000000000000000000, 0.0000000000000000000 ) ) ;
#179 = CARTESIAN_POINT ( 'NONE',  ( 0.02082991885698010082, 0.0000000000000000000, 0.0000000000000000000 ) ) ;
#180 = AXIS2_PLACEMENT_3D ( 'NONE', #198, #171, #213 ) ;
#181 = DIRECTION ( 'NONE',  ( 0.0000000000000000000, 0.0000000000000000000, -1.000000000000000000 ) ) ;
#182 = APPLICATION_CONTEXT ( 'configuration controlled 3d designs of mechanical parts and assemblies' ) ;
#183 = SECURITY_CLASSIFICATION ( '', '', #109 ) ;
#184 = PERSON_AND_ORGANIZATION ( #165, #134 ) ;
#185 = PERSON_AND_ORGANIZATION_ROLE ( 'design_supplier' ) ;
#186 = APPROVAL_ROLE ( '' ) ;
#187 = PRODUCT_DEFINITION ( 'UNKNOWN', '', #135, #38 ) ;
#188 = EDGE_LOOP ( 'NONE', ( #233 ) ) ;
#189 = ADVANCED_FACE ( 'NONE', ( #82, #251 ), #17, .F. ) ;
#190 = AXIS2_PLACEMENT_3D ( 'NONE', #4, #3, #261 ) ;
#191 = PRODUCT_RELATED_PRODUCT_CATEGORY ( 'detail', '', ( #193 ) ) ;
#192 = ADVANCED_FACE ( 'NONE', ( #48, #52 ), #156, .T. ) ;
#193 = PRODUCT ( 'MGC-( )6', 'MGC-( )6', '', ( #66 ) ) ;
#194 = FACE_OUTER_BOUND ( 'NONE', #122, .T. ) ;
#195 = CALENDAR_DATE ( 2021, 4, 11 ) ;
#196 = ORIENTED_EDGE ( 'NONE', *, *, #271, .T. ) ;
#197 = AXIS2_PLACEMENT_3D ( 'NONE', #235, #41, #125 ) ;
#198 = CARTESIAN_POINT ( 'NONE',  ( 0.02808157085707006784, 0.0000000000000000000, 0.0000000000000000000 ) ) ;
#199 = COORDINATED_UNIVERSAL_TIME_OFFSET ( 6, 0, .BEHIND. ) ;
#200 = CARTESIAN_POINT ( 'NONE',  ( 0.04219804063136026878, 0.0000000000000000000, 0.0000000000000000000 ) ) ;
#201 = AXIS2_PLACEMENT_3D ( 'NONE', #58, #101, #121 ) ;
#202 = CIRCLE ( 'NONE', #143, 0.1875000000000001110 ) ;
#203 = CARTESIAN_POINT ( 'NONE',  ( 0.0000000000000000000, -0.1099999999999900779, 0.0000000000000000000 ) ) ;
#204 = CONICAL_SURFACE ( 'NONE', #57, 0.1549999999999902844, 0.7853981633974482790 ) ;
#205 =( CONVERSION_BASED_UNIT ( 'INCH', #12 ) LENGTH_UNIT ( ) NAMED_UNIT ( #133 ) );
#206 = CARTESIAN_POINT ( 'NONE',  ( 0.2750000000000100697, 0.0000000000000000000, -0.09600000000000029343 ) ) ;
#207 = APPROVAL_STATUS ( 'not_yet_approved' ) ;
#208 = ADVANCED_FACE ( 'NONE', ( #194, #15 ), #148, .F. ) ;
#209 = FACE_OUTER_BOUND ( 'NONE', #34, .T. ) ;
#210 = CC_DESIGN_APPROVAL ( #151, ( #183 ) ) ;
#211 = CALENDAR_DATE ( 2021, 4, 11 ) ;
#212 = DIRECTION ( 'NONE',  ( 0.0000000000000000000, 0.0000000000000000000, -1.000000000000000000 ) ) ;
#213 = DIRECTION ( 'NONE',  ( 0.0000000000000000000, 0.0000000000000000000, 1.000000000000000000 ) ) ;
#214 = VERTEX_POINT ( 'NONE', #43 ) ;
#215 = ORIENTED_EDGE ( 'NONE', *, *, #33, .T. ) ;
#216 = DIRECTION ( 'NONE',  ( 0.0000000000000000000, 0.0000000000000000000, -1.000000000000000000 ) ) ;
#217 = CARTESIAN_POINT ( 'NONE',  ( 0.04219804063136026878, 0.0000000000000000000, -0.1603825138676391593 ) ) ;
#218 = CIRCLE ( 'NONE', #28, 0.1330000000000002014 ) ;
#219 = CARTESIAN_POINT ( 'NONE',  ( 0.2530000000000199312, 0.0000000000000000000, 0.0000000000000000000 ) ) ;
#220 = CARTESIAN_POINT ( 'NONE',  ( 0.05053407448156629900, 0.0000000000000000000, 0.0000000000000000000 ) ) ;
#221 = ORIENTED_EDGE ( 'NONE', *, *, #247, .F. ) ;
#222 = PERSON_AND_ORGANIZATION_ROLE ( 'creator' ) ;
#223 = APPLICATION_PROTOCOL_DEFINITION ( 'international standard', 'config_control_design', 1994, #242 ) ;
#224 = PERSON_AND_ORGANIZATION_ROLE ( 'design_owner' ) ;
#225 = APPROVAL_ROLE ( '' ) ;
#226 = PRODUCT_DEFINITION_SHAPE ( 'NONE', 'NONE',  #187 ) ;
#227 = FACE_OUTER_BOUND ( 'NONE', #255, .T. ) ;
#228 = TOROIDAL_SURFACE ( 'NONE', #86, 0.1641198724935318543, 0.009135497241547116745 ) ;
#229 = EDGE_LOOP ( 'NONE', ( #96 ) ) ;
#230 = DATE_AND_TIME ( #120, #90 ) ;
#231 = CIRCLE ( 'NONE', #161, 0.09600000000000029343 ) ;
#232 = CARTESIAN_POINT ( 'NONE',  ( 0.02082991885698010082, 0.0000000000000000000, 0.0000000000000000000 ) ) ;
#233 = ORIENTED_EDGE ( 'NONE', *, *, #2, .T. ) ;
#234 = DIRECTION ( 'NONE',  ( -1.000000000000000000, 0.0000000000000000000, 0.0000000000000000000 ) ) ;
#235 = CARTESIAN_POINT ( 'NONE',  ( 0.0000000000000000000, 0.0000000000000000000, 0.0000000000000000000 ) ) ;
#236 = DIRECTION ( 'NONE',  ( 1.000000000000000000, 0.0000000000000000000, -0.0000000000000000000 ) ) ;
#237 = PLANE ( 'NONE',  #190 ) ;
#238 = CC_DESIGN_PERSON_AND_ORGANIZATION_ASSIGNMENT ( #184, #128, ( #135 ) ) ;
#239 = DIRECTION ( 'NONE',  ( 0.0000000000000000000, 0.0000000000000000000, -1.000000000000000000 ) ) ;
#240 = DATE_AND_TIME ( #211, #88 ) ;
#241 = VERTEX_POINT ( 'NONE', #60 ) ;
#242 = APPLICATION_CONTEXT ( 'configuration controlled 3d designs of mechanical parts and assemblies' ) ;
#243 = CARTESIAN_POINT ( 'NONE',  ( 0.0000000000000000000, 0.0000000000000000000, -0.1875000000000001110 ) ) ;
#244 = CC_DESIGN_DATE_AND_TIME_ASSIGNMENT ( #50, #45, ( #183 ) ) ;
#245 = CARTESIAN_POINT ( 'NONE',  ( 0.0000000000000000000, 0.0000000000000000000, -0.1099999999999900779 ) ) ;
#246 = LOCAL_TIME ( 16, 37, 47.00000000000000000, #199 ) ;
#247 = EDGE_CURVE ( 'NONE', #127, #127, #218, .T. ) ;
#248 = VERTEX_POINT ( 'NONE', #217 ) ;
#249 = FACE_OUTER_BOUND ( 'NONE', #229, .T. ) ;
#250 = PERSON_AND_ORGANIZATION ( #165, #134 ) ;
#251 = FACE_BOUND ( 'NONE', #157, .T. ) ;
#252 = ORIENTED_EDGE ( 'NONE', *, *, #262, .T. ) ;
#253 = VERTEX_POINT ( 'NONE', #177 ) ;
#254 =( GEOMETRIC_REPRESENTATION_CONTEXT ( 3 ) GLOBAL_UNCERTAINTY_ASSIGNED_CONTEXT ( ( #260 ) ) GLOBAL_UNIT_ASSIGNED_CONTEXT ( ( #205, #107, #64 ) ) REPRESENTATION_CONTEXT ( 'NONE', 'WORKASPACE' ) );
#255 = EDGE_LOOP ( 'NONE', ( #49 ) ) ;
#256 = EDGE_CURVE ( 'NONE', #106, #106, #92, .T. ) ;
#257 = CC_DESIGN_SECURITY_CLASSIFICATION ( #183, ( #135 ) ) ;
#258 = DIRECTION ( 'NONE',  ( 0.0000000000000000000, 0.0000000000000000000, -1.000000000000000000 ) ) ;
#259 = DIRECTION ( 'NONE',  ( 0.0000000000000000000, 0.0000000000000000000, 1.000000000000000000 ) ) ;
#260 = UNCERTAINTY_MEASURE_WITH_UNIT (LENGTH_MEASURE( 1.000000000000000082E-05 ), #205, 'distance_accuracy_value', 'NONE');
#261 = DIRECTION ( 'NONE',  ( 0.0000000000000000000, 0.0000000000000000000, 1.000000000000000000 ) ) ;
#262 = EDGE_CURVE ( 'NONE', #42, #42, #30, .T. ) ;
#263 = DIRECTION ( 'NONE',  ( 1.000000000000000000, -0.0000000000000000000, -0.0000000000000000000 ) ) ;
#264 = ORIENTED_EDGE ( 'NONE', *, *, #256, .T. ) ;
#265 = ADVANCED_FACE ( 'NONE', ( #162, #95 ), #74, .F. ) ;
#266 = EDGE_LOOP ( 'NONE', ( #215 ) ) ;
#267 = CIRCLE ( 'NONE', #132, 0.1549999999999902844 ) ;
#268 = CC_DESIGN_APPROVAL ( #173, ( #135 ) ) ;
#269 = ORIENTED_EDGE ( 'NONE', *, *, #80, .T. ) ;
#270 = APPROVAL_PERSON_ORGANIZATION ( #40, #173, #186 ) ;
#271 = EDGE_CURVE ( 'NONE', #172, #172, #139, .T. ) ;
#272 = EDGE_LOOP ( 'NONE', ( #1 ) ) ;
ENDSEC;
END-ISO-10303-21;
