ISO-10303-21;
HEADER;
FILE_DESCRIPTION (( 'STEP AP203' ),
    '1' );
FILE_NAME ('C98LT-( )6-9.STEP',
    '2021-08-26T15:15:54',
    ( '' ),
    ( '' ),
    'SwSTEP 2.0',
    'SolidWorks 2018',
    '' );
FILE_SCHEMA (( 'CONFIG_CONTROL_DESIGN' ));
ENDSEC;

DATA;
#1 = ORIENTED_EDGE ( 'NONE', *, *, #42, .T. ) ;
#2 = ADVANCED_FACE ( 'NONE', ( #72, #99 ), #418, .T. ) ;
#3 = DIRECTION ( 'NONE',  ( -1.000000000000000000, -0.0000000000000000000, -0.0000000000000000000 ) ) ;
#4 = APPLICATION_CONTEXT ( 'configuration controlled 3d designs of mechanical parts and assemblies' ) ;
#5 = AXIS2_PLACEMENT_3D ( 'NONE', #128, #200, #296 ) ;
#6 = CIRCLE ( 'NONE', #414, 0.04080021993141041969 ) ;
#7 = EDGE_LOOP ( 'NONE', ( #234 ) ) ;
#8 = DIRECTION ( 'NONE',  ( 0.0000000000000000000, 0.0000000000000000000, 1.000000000000000000 ) ) ;
#9 = EDGE_CURVE ( 'NONE', #398, #398, #240, .T. ) ;
#10 = APPROVAL_STATUS ( 'not_yet_approved' ) ;
#11 = ADVANCED_BREP_SHAPE_REPRESENTATION ( 'C98LT-( )6-9', ( #80, #5 ), #12 ) ;
#12 =( GEOMETRIC_REPRESENTATION_CONTEXT ( 3 ) GLOBAL_UNCERTAINTY_ASSIGNED_CONTEXT ( ( #155 ) ) GLOBAL_UNIT_ASSIGNED_CONTEXT ( ( #358, #67, #201 ) ) REPRESENTATION_CONTEXT ( 'NONE', 'WORKASPACE' ) );
#13 = CYLINDRICAL_SURFACE ( 'NONE', #300, 0.09149999999999983147 ) ;
#14 = ORIENTED_EDGE ( 'NONE', *, *, #82, .T. ) ;
#15 = AXIS2_PLACEMENT_3D ( 'NONE', #316, #57, #288 ) ;
#16 = FACE_OUTER_BOUND ( 'NONE', #305, .T. ) ;
#17 = ORIENTED_EDGE ( 'NONE', *, *, #343, .F. ) ;
#18 = APPROVAL ( #10, 'UNSPECIFIED' ) ;
#19 = PERSON_AND_ORGANIZATION ( #237, #50 ) ;
#20 = DIRECTION ( 'NONE',  ( 0.0000000000000000000, 1.000000000000000000, 0.0000000000000000000 ) ) ;
#21 = FACE_OUTER_BOUND ( 'NONE', #269, .T. ) ;
#22 = AXIS2_PLACEMENT_3D ( 'NONE', #23, #278, #213 ) ;
#23 = CARTESIAN_POINT ( 'NONE',  ( 1.840999999999999748, 0.0000000000000000000, 0.0000000000000000000 ) ) ;
#24 = DIRECTION ( 'NONE',  ( -1.000000000000000000, -0.0000000000000000000, -0.0000000000000000000 ) ) ;
#25 = FACE_BOUND ( 'NONE', #107, .T. ) ;
#26 = DIRECTION ( 'NONE',  ( 0.0000000000000000000, 0.0000000000000000000, 1.000000000000000000 ) ) ;
#27 = EDGE_LOOP ( 'NONE', ( #241 ) ) ;
#28 = DIRECTION ( 'NONE',  ( -1.000000000000000000, -0.0000000000000000000, -0.0000000000000000000 ) ) ;
#29 = EDGE_CURVE ( 'NONE', #93, #93, #37, .T. ) ;
#30 = CALENDAR_DATE ( 2021, 26, 8 ) ;
#31 = DIRECTION ( 'NONE',  ( -1.000000000000000000, -0.0000000000000000000, -0.0000000000000000000 ) ) ;
#32 = FACE_OUTER_BOUND ( 'NONE', #206, .T. ) ;
#33 = DIRECTION ( 'NONE',  ( -1.000000000000000000, -0.0000000000000000000, -0.0000000000000000000 ) ) ;
#34 = CARTESIAN_POINT ( 'NONE',  ( 0.8311031999999993758, 0.0000000000000000000, 0.09149999999999983147 ) ) ;
#35 = AXIS2_PLACEMENT_3D ( 'NONE', #253, #285, #352 ) ;
#36 = CARTESIAN_POINT ( 'NONE',  ( 0.0000000000000000000, 0.0000000000000000000, 0.0000000000000000000 ) ) ;
#37 = CIRCLE ( 'NONE', #370, 0.08849999999999978717 ) ;
#38 = EDGE_LOOP ( 'NONE', ( #410 ) ) ;
#39 = APPLICATION_PROTOCOL_DEFINITION ( 'international standard', 'config_control_design', 1994, #4 ) ;
#40 = APPROVAL ( #235, 'UNSPECIFIED' ) ;
#41 = CIRCLE ( 'NONE', #231, 0.1135000000000008502 ) ;
#42 = EDGE_CURVE ( 'NONE', #353, #353, #405, .T. ) ;
#43 = CALENDAR_DATE ( 2021, 26, 8 ) ;
#44 = FACE_OUTER_BOUND ( 'NONE', #350, .T. ) ;
#45 = AXIS2_PLACEMENT_3D ( 'NONE', #55, #283, #217 ) ;
#46 = VERTEX_POINT ( 'NONE', #122 ) ;
#47 = EDGE_LOOP ( 'NONE', ( #297 ) ) ;
#48 = CARTESIAN_POINT ( 'NONE',  ( -0.04989925765862024409, 0.0000000000000000000, 0.0000000000000000000 ) ) ;
#49 = CARTESIAN_POINT ( 'NONE',  ( -0.02439415916691147629, 0.0000000000000000000, 0.0000000000000000000 ) ) ;
#50 = ORGANIZATION ( 'UNSPECIFIED', 'UNSPECIFIED', '' ) ;
#51 = FACE_BOUND ( 'NONE', #130, .T. ) ;
#52 = EDGE_CURVE ( 'NONE', #368, #368, #192, .T. ) ;
#53 = DESIGN_CONTEXT ( 'detailed design', #329, 'design' ) ;
#54 = ORIENTED_EDGE ( 'NONE', *, *, #29, .T. ) ;
#55 = CARTESIAN_POINT ( 'NONE',  ( 0.01749999999999837796, 0.0000000000000000000, 0.0000000000000000000 ) ) ;
#56 = DIRECTION ( 'NONE',  ( -0.0000000000000000000, 0.0000000000000000000, 1.000000000000000000 ) ) ;
#57 = DIRECTION ( 'NONE',  ( -1.000000000000000000, -0.0000000000000000000, -0.0000000000000000000 ) ) ;
#58 = VERTEX_POINT ( 'NONE', #225 ) ;
#59 = ORIENTED_EDGE ( 'NONE', *, *, #293, .T. ) ;
#60 = CARTESIAN_POINT ( 'NONE',  ( -0.09799999999999987887, 0.0000000000000000000, 0.0000000000000000000 ) ) ;
#61 = DIRECTION ( 'NONE',  ( -1.000000000000000000, -0.0000000000000000000, -0.0000000000000000000 ) ) ;
#62 = AXIS2_PLACEMENT_3D ( 'NONE', #312, #244, #26 ) ;
#63 = CONICAL_SURFACE ( 'NONE', #142, 0.08887499999999920464, 1.082104136236495595 ) ;
#64 = ORIENTED_EDGE ( 'NONE', *, *, #52, .F. ) ;
#65 = CARTESIAN_POINT ( 'NONE',  ( -0.04989925765862024409, 0.0000000000000000000, 0.2182083617475689130 ) ) ;
#66 = ADVANCED_FACE ( 'NONE', ( #347, #261 ), #63, .T. ) ;
#67 =( NAMED_UNIT ( * ) PLANE_ANGLE_UNIT ( ) SI_UNIT ( $, .RADIAN. ) );
#68 = PERSON_AND_ORGANIZATION_ROLE ( 'design_owner' ) ;
#69 = PRODUCT_DEFINITION_SHAPE ( 'NONE', 'NONE',  #218 ) ;
#70 = CALENDAR_DATE ( 2021, 26, 8 ) ;
#71 = LENGTH_MEASURE_WITH_UNIT ( LENGTH_MEASURE( 0.02539999999999999897 ), #127 );
#72 = FACE_OUTER_BOUND ( 'NONE', #27, .T. ) ;
#73 = DIMENSIONAL_EXPONENTS ( 1.000000000000000000, 0.0000000000000000000, 0.0000000000000000000, 0.0000000000000000000, 0.0000000000000000000, 0.0000000000000000000, 0.0000000000000000000 ) ;
#74 = SECURITY_CLASSIFICATION_LEVEL ( 'unclassified' ) ;
#75 = ORIENTED_EDGE ( 'NONE', *, *, #176, .F. ) ;
#76 = ORIENTED_EDGE ( 'NONE', *, *, #334, .T. ) ;
#77 = PERSON_AND_ORGANIZATION ( #237, #50 ) ;
#78 = ORIENTED_EDGE ( 'NONE', *, *, #229, .T. ) ;
#79 = CARTESIAN_POINT ( 'NONE',  ( 1.799625000000000696, 0.0000000000000000000, 0.0000000000000000000 ) ) ;
#80 = MANIFOLD_SOLID_BREP ( 'Revolve1', #177 ) ;
#81 = DIRECTION ( 'NONE',  ( -1.000000000000000000, -0.0000000000000000000, -0.0000000000000000000 ) ) ;
#82 = EDGE_CURVE ( 'NONE', #239, #239, #124, .T. ) ;
#83 = DATE_AND_TIME ( #310, #395 ) ;
#84 = FACE_OUTER_BOUND ( 'NONE', #262, .T. ) ;
#85 = CARTESIAN_POINT ( 'NONE',  ( 0.9353723934475103308, 0.0000000000000000000, 0.0000000000000000000 ) ) ;
#86 = ORIENTED_EDGE ( 'NONE', *, *, #176, .T. ) ;
#87 = DIRECTION ( 'NONE',  ( -0.0000000000000000000, 0.0000000000000000000, -1.000000000000000000 ) ) ;
#88 = CYLINDRICAL_SURFACE ( 'NONE', #62, 0.09600000000000023792 ) ;
#89 = EDGE_LOOP ( 'NONE', ( #14 ) ) ;
#90 = DIRECTION ( 'NONE',  ( -1.000000000000000000, -0.0000000000000000000, -0.0000000000000000000 ) ) ;
#91 = DIRECTION ( 'NONE',  ( -0.0000000000000000000, 0.0000000000000000000, 1.000000000000000000 ) ) ;
#92 = CARTESIAN_POINT ( 'NONE',  ( 1.840999999999999748, 0.0000000000000000000, 0.0000000000000000000 ) ) ;
#93 = VERTEX_POINT ( 'NONE', #196 ) ;
#94 = APPROVAL_ROLE ( '' ) ;
#95 = FACE_OUTER_BOUND ( 'NONE', #270, .T. ) ;
#96 = CARTESIAN_POINT ( 'NONE',  ( 0.8547448957127571356, 0.0000000000000000000, 0.0000000000000000000 ) ) ;
#97 = ADVANCED_FACE ( 'NONE', ( #396, #284 ), #144, .T. ) ;
#98 = AXIS2_PLACEMENT_3D ( 'NONE', #79, #246, #401 ) ;
#99 = FACE_OUTER_BOUND ( 'NONE', #337, .T. ) ;
#100 = ORIENTED_EDGE ( 'NONE', *, *, #380, .T. ) ;
#101 = DIRECTION ( 'NONE',  ( 0.0000000000000000000, 0.0000000000000000000, 1.000000000000000000 ) ) ;
#102 = CC_DESIGN_APPROVAL ( #339, ( #218 ) ) ;
#103 = PERSON_AND_ORGANIZATION ( #237, #50 ) ;
#104 = FACE_OUTER_BOUND ( 'NONE', #360, .T. ) ;
#105 = EDGE_CURVE ( 'NONE', #214, #214, #336, .T. ) ;
#106 = FACE_BOUND ( 'NONE', #407, .T. ) ;
#107 = EDGE_LOOP ( 'NONE', ( #78 ) ) ;
#108 = AXIS2_PLACEMENT_3D ( 'NONE', #287, #314, #408 ) ;
#109 = VERTEX_POINT ( 'NONE', #327 ) ;
#110 = DIRECTION ( 'NONE',  ( 0.0000000000000000000, 0.0000000000000000000, 1.000000000000000000 ) ) ;
#111 = FACE_OUTER_BOUND ( 'NONE', #135, .T. ) ;
#112 = CARTESIAN_POINT ( 'NONE',  ( 0.0000000000000000000, 0.0000000000000000000, 0.0000000000000000000 ) ) ;
#113 = CC_DESIGN_PERSON_AND_ORGANIZATION_ASSIGNMENT ( #19, #68, ( #169 ) ) ;
#114 = AXIS2_PLACEMENT_3D ( 'NONE', #117, #90, #377 ) ;
#115 = FACE_OUTER_BOUND ( 'NONE', #375, .T. ) ;
#116 = DIRECTION ( 'NONE',  ( 0.0000000000000000000, 0.0000000000000000000, 1.000000000000000000 ) ) ;
#117 = CARTESIAN_POINT ( 'NONE',  ( 0.5167942286340612146, 0.0000000000000000000, 0.0000000000000000000 ) ) ;
#118 = CONICAL_SURFACE ( 'NONE', #136, 0.06661768611174485877, 0.5235987755983040337 ) ;
#119 = CARTESIAN_POINT ( 'NONE',  ( 0.8741874277626907608, 0.0000000000000000000, 0.0000000000000000000 ) ) ;
#120 = CARTESIAN_POINT ( 'NONE',  ( 0.0000000000000000000, 0.0000000000000000000, 0.2203580774721002611 ) ) ;
#121 = AXIS2_PLACEMENT_3D ( 'NONE', #345, #403, #211 ) ;
#122 = CARTESIAN_POINT ( 'NONE',  ( 0.5167942286340612146, 0.0000000000000000000, 0.09149999999999983147 ) ) ;
#123 = COORDINATED_UNIVERSAL_TIME_OFFSET ( 6, 0, .BEHIND. ) ;
#124 = CIRCLE ( 'NONE', #22, 0.06661768611174485877 ) ;
#125 = EDGE_LOOP ( 'NONE', ( #86 ) ) ;
#126 = ADVANCED_FACE ( 'NONE', ( #111 ), #226, .T. ) ;
#127 =( LENGTH_UNIT ( ) NAMED_UNIT ( * ) SI_UNIT ( $, .METRE. ) );
#128 = CARTESIAN_POINT ( 'NONE',  ( 0.0000000000000000000, 0.0000000000000000000, 0.0000000000000000000 ) ) ;
#129 = PRODUCT_DEFINITION_FORMATION_WITH_SPECIFIED_SOURCE ( 'ANY', '', #169, .NOT_KNOWN. ) ;
#130 = EDGE_LOOP ( 'NONE', ( #76 ) ) ;
#131 = AXIS2_PLACEMENT_3D ( 'NONE', #143, #277, #372 ) ;
#132 = CC_DESIGN_SECURITY_CLASSIFICATION ( #181, ( #129 ) ) ;
#133 = PERSON_AND_ORGANIZATION ( #237, #50 ) ;
#134 = ORIENTED_EDGE ( 'NONE', *, *, #105, .T. ) ;
#135 = EDGE_LOOP ( 'NONE', ( #399 ) ) ;
#136 = AXIS2_PLACEMENT_3D ( 'NONE', #92, #147, #148 ) ;
#137 = VERTEX_POINT ( 'NONE', #264 ) ;
#138 = EDGE_LOOP ( 'NONE', ( #187 ) ) ;
#139 = CC_DESIGN_PERSON_AND_ORGANIZATION_ASSIGNMENT ( #373, #332, ( #129 ) ) ;
#140 = CARTESIAN_POINT ( 'NONE',  ( 0.8997492417502099826, 0.0000000000000000000, 0.0000000000000000000 ) ) ;
#141 = DIRECTION ( 'NONE',  ( 1.000000000000000000, 0.0000000000000000000, 0.0000000000000000000 ) ) ;
#142 = AXIS2_PLACEMENT_3D ( 'NONE', #140, #141, #371 ) ;
#143 = CARTESIAN_POINT ( 'NONE',  ( -0.09799999999999987887, 0.0000000000000000000, 0.0000000000000000000 ) ) ;
#144 = TOROIDAL_SURFACE ( 'NONE', #252, 0.2063896432688867300, 0.02811035673110731659 ) ;
#145 = ORIENTED_EDGE ( 'NONE', *, *, #303, .F. ) ;
#146 = DIRECTION ( 'NONE',  ( 0.0000000000000000000, 0.0000000000000000000, 1.000000000000000000 ) ) ;
#147 = DIRECTION ( 'NONE',  ( -1.000000000000000000, -0.0000000000000000000, -0.0000000000000000000 ) ) ;
#148 = DIRECTION ( 'NONE',  ( 0.0000000000000000000, 0.0000000000000000000, 1.000000000000000000 ) ) ;
#149 = CC_DESIGN_APPROVAL ( #40, ( #181 ) ) ;
#150 = DATE_AND_TIME ( #30, #242 ) ;
#151 = DATE_AND_TIME ( #43, #168 ) ;
#152 = CARTESIAN_POINT ( 'NONE',  ( 0.5000000000000000000, 0.0000000000000000000, 0.0000000000000000000 ) ) ;
#153 = EDGE_LOOP ( 'NONE', ( #397 ) ) ;
#154 = DIRECTION ( 'NONE',  ( -1.000000000000000000, -0.0000000000000000000, -0.0000000000000000000 ) ) ;
#155 = UNCERTAINTY_MEASURE_WITH_UNIT (LENGTH_MEASURE( 1.000000000000000082E-05 ), #358, 'distance_accuracy_value', 'NONE');
#156 = PLANE ( 'NONE',  #207 ) ;
#157 = FACE_BOUND ( 'NONE', #216, .T. ) ;
#158 = FACE_BOUND ( 'NONE', #243, .T. ) ;
#159 = EDGE_LOOP ( 'NONE', ( #75 ) ) ;
#160 = DIRECTION ( 'NONE',  ( -1.000000000000000000, -0.0000000000000000000, -0.0000000000000000000 ) ) ;
#161 = DIRECTION ( 'NONE',  ( 0.0000000000000000000, 0.0000000000000000000, 1.000000000000000000 ) ) ;
#162 = AXIS2_PLACEMENT_3D ( 'NONE', #152, #412, #413 ) ;
#163 = ADVANCED_FACE ( 'NONE', ( #44, #104 ), #383, .T. ) ;
#164 = CARTESIAN_POINT ( 'NONE',  ( 0.01749999999999837796, 0.0000000000000000000, 0.09600000000000029343 ) ) ;
#165 = APPROVAL_DATE_TIME ( #340, #40 ) ;
#166 = AXIS2_PLACEMENT_3D ( 'NONE', #188, #379, #91 ) ;
#167 = APPLICATION_PROTOCOL_DEFINITION ( 'international standard', 'config_control_design', 1994, #329 ) ;
#168 = LOCAL_TIME ( 10, 15, 54.00000000000000000, #387 ) ;
#169 = PRODUCT ( 'C98LT-( )6-9', 'C98LT-( )6-9', '', ( #268 ) ) ;
#170 = ORIENTED_EDGE ( 'NONE', *, *, #238, .F. ) ;
#171 = APPROVAL_ROLE ( '' ) ;
#172 = CC_DESIGN_PERSON_AND_ORGANIZATION_ASSIGNMENT ( #409, #363, ( #181 ) ) ;
#173 = DATE_TIME_ROLE ( 'creation_date' ) ;
#174 = LOCAL_TIME ( 10, 15, 54.00000000000000000, #123 ) ;
#175 = CIRCLE ( 'NONE', #45, 0.09600000000000029343 ) ;
#176 = EDGE_CURVE ( 'NONE', #220, #220, #205, .T. ) ;
#177 = CLOSED_SHELL ( 'NONE', ( #97, #126, #266, #286, #163, #295, #224, #197, #2, #66, #378, #385, #328, #230, #195, #357, #257 ) ) ;
#178 = PERSON_AND_ORGANIZATION_ROLE ( 'design_supplier' ) ;
#179 = FACE_OUTER_BOUND ( 'NONE', #153, .T. ) ;
#180 = ORIENTED_EDGE ( 'NONE', *, *, #229, .F. ) ;
#181 = SECURITY_CLASSIFICATION ( '', '', #74 ) ;
#182 = AXIS2_PLACEMENT_3D ( 'NONE', #222, #31, #376 ) ;
#183 = CARTESIAN_POINT ( 'NONE',  ( 0.4209999999999997078, -5.463695987328526437E-15, 0.0000000000000000000 ) ) ;
#184 = CYLINDRICAL_SURFACE ( 'NONE', #15, 0.08849999999999984268 ) ;
#185 = CARTESIAN_POINT ( 'NONE',  ( 0.8311031999999993758, 0.0000000000000000000, 0.0000000000000000000 ) ) ;
#186 = FACE_OUTER_BOUND ( 'NONE', #326, .T. ) ;
#187 = ORIENTED_EDGE ( 'NONE', *, *, #212, .T. ) ;
#188 = CARTESIAN_POINT ( 'NONE',  ( 1.840999999999999748, 0.06661768611174485877, 0.0000000000000000000 ) ) ;
#189 = PLANE ( 'NONE',  #166 ) ;
#190 = CC_DESIGN_DATE_AND_TIME_ASSIGNMENT ( #335, #173, ( #218 ) ) ;
#191 = SHAPE_DEFINITION_REPRESENTATION ( #69, #11 ) ;
#192 = CIRCLE ( 'NONE', #362, 0.2182083617475689130 ) ;
#193 = DIRECTION ( 'NONE',  ( 0.0000000000000000000, 0.0000000000000000000, 1.000000000000000000 ) ) ;
#194 = EDGE_CURVE ( 'NONE', #208, #208, #175, .T. ) ;
#195 = ADVANCED_FACE ( 'NONE', ( #115, #199 ), #88, .T. ) ;
#196 = CARTESIAN_POINT ( 'NONE',  ( 0.9353723934475103308, 0.0000000000000000000, 0.08849999999999978717 ) ) ;
#197 = ADVANCED_FACE ( 'NONE', ( #21, #158 ), #258, .F. ) ;
#198 = CARTESIAN_POINT ( 'NONE',  ( 1.794125000000000858, 0.0000000000000000000, 0.08849999999999988431 ) ) ;
#199 = FACE_OUTER_BOUND ( 'NONE', #227, .T. ) ;
#200 = DIRECTION ( 'NONE',  ( 0.0000000000000000000, 0.0000000000000000000, 1.000000000000000000 ) ) ;
#201 =( NAMED_UNIT ( * ) SI_UNIT ( $, .STERADIAN. ) SOLID_ANGLE_UNIT ( ) );
#202 = PRODUCT_RELATED_PRODUCT_CATEGORY ( 'detail', '', ( #169 ) ) ;
#203 = CYLINDRICAL_SURFACE ( 'NONE', #333, 0.04080021993141041969 ) ;
#204 = FACE_OUTER_BOUND ( 'NONE', #348, .T. ) ;
#205 = CIRCLE ( 'NONE', #364, 0.2203580774721002611 ) ;
#206 = EDGE_LOOP ( 'NONE', ( #279 ) ) ;
#207 = AXIS2_PLACEMENT_3D ( 'NONE', #319, #411, #56 ) ;
#208 = VERTEX_POINT ( 'NONE', #164 ) ;
#209 = FACE_OUTER_BOUND ( 'NONE', #298, .T. ) ;
#210 = DIRECTION ( 'NONE',  ( -1.000000000000000000, -0.0000000000000000000, -0.0000000000000000000 ) ) ;
#211 = DIRECTION ( 'NONE',  ( 0.0000000000000000000, 0.0000000000000000000, 1.000000000000000000 ) ) ;
#212 = EDGE_CURVE ( 'NONE', #341, #341, #6, .T. ) ;
#213 = DIRECTION ( 'NONE',  ( 0.0000000000000000000, 0.0000000000000000000, 1.000000000000000000 ) ) ;
#214 = VERTEX_POINT ( 'NONE', #356 ) ;
#215 = CONICAL_SURFACE ( 'NONE', #114, 0.09149999999999983147, 0.2617993877991505181 ) ;
#216 = EDGE_LOOP ( 'NONE', ( #313 ) ) ;
#217 = DIRECTION ( 'NONE',  ( 0.0000000000000000000, 0.0000000000000000000, 1.000000000000000000 ) ) ;
#218 = PRODUCT_DEFINITION ( 'UNKNOWN', '', #129, #53 ) ;
#219 = DIRECTION ( 'NONE',  ( 0.0000000000000000000, 0.0000000000000000000, 1.000000000000000000 ) ) ;
#220 = VERTEX_POINT ( 'NONE', #120 ) ;
#221 = EDGE_LOOP ( 'NONE', ( #64 ) ) ;
#222 = CARTESIAN_POINT ( 'NONE',  ( 0.9353723934475103308, 0.0000000000000000000, 0.0000000000000000000 ) ) ;
#223 = AXIS2_PLACEMENT_3D ( 'NONE', #320, #154, #315 ) ;
#224 = ADVANCED_FACE ( 'NONE', ( #32, #186 ), #184, .T. ) ;
#225 = CARTESIAN_POINT ( 'NONE',  ( 0.9353723934475103308, 0.0000000000000000000, 0.08887499999999920464 ) ) ;
#226 = SPHERICAL_SURFACE ( 'NONE', #263, 0.5189999999999995728 ) ;
#227 = EDGE_LOOP ( 'NONE', ( #307 ) ) ;
#228 = DIRECTION ( 'NONE',  ( 0.0000000000000000000, 0.0000000000000000000, 1.000000000000000000 ) ) ;
#229 = EDGE_CURVE ( 'NONE', #46, #46, #349, .T. ) ;
#230 = ADVANCED_FACE ( 'NONE', ( #16, #25 ), #215, .T. ) ;
#231 = AXIS2_PLACEMENT_3D ( 'NONE', #36, #299, #392 ) ;
#232 = CARTESIAN_POINT ( 'NONE',  ( 0.01749999999999837796, 0.0000000000000000000, 0.0000000000000000000 ) ) ;
#233 = APPROVAL_DATE_TIME ( #151, #18 ) ;
#234 = ORIENTED_EDGE ( 'NONE', *, *, #303, .T. ) ;
#235 = APPROVAL_STATUS ( 'not_yet_approved' ) ;
#236 = CC_DESIGN_PERSON_AND_ORGANIZATION_ASSIGNMENT ( #260, #417, ( #218 ) ) ;
#237 = PERSON ( 'UNSPECIFIED', 'UNSPECIFIED', 'UNSPECIFIED', ('UNSPECIFIED'), ('UNSPECIFIED'), ('UNSPECIFIED') ) ;
#238 = EDGE_CURVE ( 'NONE', #109, #109, #388, .T. ) ;
#239 = VERTEX_POINT ( 'NONE', #321 ) ;
#240 = CIRCLE ( 'NONE', #98, 0.08300000000000019862 ) ;
#241 = ORIENTED_EDGE ( 'NONE', *, *, #105, .F. ) ;
#242 = LOCAL_TIME ( 10, 15, 54.00000000000000000, #330 ) ;
#243 = EDGE_LOOP ( 'NONE', ( #54 ) ) ;
#244 = DIRECTION ( 'NONE',  ( -1.000000000000000000, -0.0000000000000000000, -0.0000000000000000000 ) ) ;
#245 = AXIS2_PLACEMENT_3D ( 'NONE', #185, #28, #228 ) ;
#246 = DIRECTION ( 'NONE',  ( -1.000000000000000000, -0.0000000000000000000, -0.0000000000000000000 ) ) ;
#247 = APPROVAL_PERSON_ORGANIZATION ( #133, #18, #171 ) ;
#248 = FACE_OUTER_BOUND ( 'NONE', #366, .T. ) ;
#249 = AXIS2_PLACEMENT_3D ( 'NONE', #96, #61, #101 ) ;
#250 = EDGE_LOOP ( 'NONE', ( #134 ) ) ;
#251 = DIRECTION ( 'NONE',  ( 0.0000000000000000000, 0.0000000000000000000, 1.000000000000000000 ) ) ;
#252 = AXIS2_PLACEMENT_3D ( 'NONE', #49, #210, #308 ) ;
#253 = CARTESIAN_POINT ( 'NONE',  ( 0.5167942286340612146, 0.0000000000000000000, 0.0000000000000000000 ) ) ;
#254 = LOCAL_TIME ( 10, 15, 54.00000000000000000, #267 ) ;
#255 = ORIENTED_EDGE ( 'NONE', *, *, #212, .F. ) ;
#256 = AXIS2_PLACEMENT_3D ( 'NONE', #344, #81, #309 ) ;
#257 = ADVANCED_FACE ( 'NONE', ( #354, #51 ), #156, .F. ) ;
#258 = PLANE ( 'NONE',  #108 ) ;
#259 = CARTESIAN_POINT ( 'NONE',  ( 0.8547448957127571356, 0.0000000000000000000, 0.0000000000000000000 ) ) ;
#260 = PERSON_AND_ORGANIZATION ( #237, #50 ) ;
#261 = FACE_OUTER_BOUND ( 'NONE', #250, .T. ) ;
#262 = EDGE_LOOP ( 'NONE', ( #145 ) ) ;
#263 = AXIS2_PLACEMENT_3D ( 'NONE', #183, #87, #20 ) ;
#264 = CARTESIAN_POINT ( 'NONE',  ( 0.8547448957127571356, 0.0000000000000000000, 0.04080021993141041969 ) ) ;
#265 = DIRECTION ( 'NONE',  ( -1.000000000000000000, -0.0000000000000000000, -0.0000000000000000000 ) ) ;
#266 = ADVANCED_FACE ( 'NONE', ( #311 ), #189, .F. ) ;
#267 = COORDINATED_UNIVERSAL_TIME_OFFSET ( 6, 0, .BEHIND. ) ;
#268 = MECHANICAL_CONTEXT ( 'NONE', #4, 'mechanical' ) ;
#269 = EDGE_LOOP ( 'NONE', ( #389 ) ) ;
#270 = EDGE_LOOP ( 'NONE', ( #180 ) ) ;
#271 = CC_DESIGN_PERSON_AND_ORGANIZATION_ASSIGNMENT ( #77, #178, ( #129 ) ) ;
#272 = VERTEX_POINT ( 'NONE', #386 ) ;
#273 = CIRCLE ( 'NONE', #182, 0.08887499999999920464 ) ;
#274 = FACE_OUTER_BOUND ( 'NONE', #47, .T. ) ;
#275 = ORIENTED_EDGE ( 'NONE', *, *, #194, .T. ) ;
#276 = AXIS2_PLACEMENT_3D ( 'NONE', #259, #33, #161 ) ;
#277 = DIRECTION ( 'NONE',  ( -1.000000000000000000, -0.0000000000000000000, -0.0000000000000000000 ) ) ;
#278 = DIRECTION ( 'NONE',  ( -1.000000000000000000, -0.0000000000000000000, -0.0000000000000000000 ) ) ;
#279 = ORIENTED_EDGE ( 'NONE', *, *, #29, .F. ) ;
#280 = DIRECTION ( 'NONE',  ( -1.000000000000000000, -0.0000000000000000000, -0.0000000000000000000 ) ) ;
#281 = CARTESIAN_POINT ( 'NONE',  ( 0.8997492417502099826, 0.0000000000000000000, 0.0000000000000000000 ) ) ;
#282 = DIRECTION ( 'NONE',  ( 0.0000000000000000000, 0.0000000000000000000, 1.000000000000000000 ) ) ;
#283 = DIRECTION ( 'NONE',  ( -1.000000000000000000, -0.0000000000000000000, -0.0000000000000000000 ) ) ;
#284 = FACE_OUTER_BOUND ( 'NONE', #125, .T. ) ;
#285 = DIRECTION ( 'NONE',  ( -1.000000000000000000, -0.0000000000000000000, -0.0000000000000000000 ) ) ;
#286 = ADVANCED_FACE ( 'NONE', ( #179, #304 ), #118, .T. ) ;
#287 = CARTESIAN_POINT ( 'NONE',  ( 0.9353723934475103308, 0.08887499999999920464, 0.0000000000000000000 ) ) ;
#288 = DIRECTION ( 'NONE',  ( 0.0000000000000000000, 0.0000000000000000000, 1.000000000000000000 ) ) ;
#289 = APPROVAL_PERSON_ORGANIZATION ( #415, #40, #302 ) ;
#290 = CONICAL_SURFACE ( 'NONE', #249, 0.04080021993141041969, 1.134464013796308457 ) ;
#291 = CARTESIAN_POINT ( 'NONE',  ( -0.09799999999999987887, 0.0000000000000000000, 0.0000000000000000000 ) ) ;
#292 = CIRCLE ( 'NONE', #276, 0.04080021993141041969 ) ;
#293 = EDGE_CURVE ( 'NONE', #58, #58, #273, .T. ) ;
#294 = APPROVAL_STATUS ( 'not_yet_approved' ) ;
#295 = ADVANCED_FACE ( 'NONE', ( #209, #106 ), #359, .T. ) ;
#296 = DIRECTION ( 'NONE',  ( 1.000000000000000000, 0.0000000000000000000, 0.0000000000000000000 ) ) ;
#297 = ORIENTED_EDGE ( 'NONE', *, *, #334, .F. ) ;
#298 = EDGE_LOOP ( 'NONE', ( #318 ) ) ;
#299 = DIRECTION ( 'NONE',  ( -1.000000000000000000, -0.0000000000000000000, -0.0000000000000000000 ) ) ;
#300 = AXIS2_PLACEMENT_3D ( 'NONE', #291, #384, #116 ) ;
#301 = CIRCLE ( 'NONE', #245, 0.09149999999999983147 ) ;
#302 = APPROVAL_ROLE ( '' ) ;
#303 = EDGE_CURVE ( 'NONE', #393, #393, #301, .T. ) ;
#304 = FACE_BOUND ( 'NONE', #89, .T. ) ;
#305 = EDGE_LOOP ( 'NONE', ( #170 ) ) ;
#306 = COORDINATED_UNIVERSAL_TIME_OFFSET ( 6, 0, .BEHIND. ) ;
#307 = ORIENTED_EDGE ( 'NONE', *, *, #238, .T. ) ;
#308 = DIRECTION ( 'NONE',  ( 0.0000000000000000000, 0.0000000000000000000, 1.000000000000000000 ) ) ;
#309 = DIRECTION ( 'NONE',  ( 0.0000000000000000000, 0.0000000000000000000, 1.000000000000000000 ) ) ;
#310 = CALENDAR_DATE ( 2021, 26, 8 ) ;
#311 = FACE_OUTER_BOUND ( 'NONE', #38, .T. ) ;
#312 = CARTESIAN_POINT ( 'NONE',  ( -0.09799999999999987887, 0.0000000000000000000, 0.0000000000000000000 ) ) ;
#313 = ORIENTED_EDGE ( 'NONE', *, *, #343, .T. ) ;
#314 = DIRECTION ( 'NONE',  ( -1.000000000000000000, 0.0000000000000000000, -0.0000000000000000000 ) ) ;
#315 = DIRECTION ( 'NONE',  ( 0.0000000000000000000, 0.0000000000000000000, 1.000000000000000000 ) ) ;
#316 = CARTESIAN_POINT ( 'NONE',  ( -0.09799999999999987887, 0.0000000000000000000, 0.0000000000000000000 ) ) ;
#317 = APPROVAL_PERSON_ORGANIZATION ( #103, #339, #94 ) ;
#318 = ORIENTED_EDGE ( 'NONE', *, *, #42, .F. ) ;
#319 = CARTESIAN_POINT ( 'NONE',  ( 0.0000000000000000000, 0.1135000000000008502, 0.0000000000000000000 ) ) ;
#320 = CARTESIAN_POINT ( 'NONE',  ( 1.799625000000000696, 0.0000000000000000000, 0.0000000000000000000 ) ) ;
#321 = CARTESIAN_POINT ( 'NONE',  ( 1.840999999999999748, 0.0000000000000000000, 0.06661768611174485877 ) ) ;
#322 = CIRCLE ( 'NONE', #402, 0.08300000000000018474 ) ;
#323 = CARTESIAN_POINT ( 'NONE',  ( 1.799625000000000696, 0.0000000000000000000, 0.08300000000000019862 ) ) ;
#324 = EDGE_LOOP ( 'NONE', ( #255 ) ) ;
#325 = AXIS2_PLACEMENT_3D ( 'NONE', #281, #367, #146 ) ;
#326 = EDGE_LOOP ( 'NONE', ( #1 ) ) ;
#327 = CARTESIAN_POINT ( 'NONE',  ( 0.5000000000000000000, 0.0000000000000000000, 0.09600000000000018241 ) ) ;
#328 = ADVANCED_FACE ( 'NONE', ( #95, #374 ), #13, .T. ) ;
#329 = APPLICATION_CONTEXT ( 'configuration controlled 3d designs of mechanical parts and assemblies' ) ;
#330 = COORDINATED_UNIVERSAL_TIME_OFFSET ( 6, 0, .BEHIND. ) ;
#331 = ORIENTED_EDGE ( 'NONE', *, *, #9, .T. ) ;
#332 = PERSON_AND_ORGANIZATION_ROLE ( 'creator' ) ;
#333 = AXIS2_PLACEMENT_3D ( 'NONE', #60, #3, #8 ) ;
#334 = EDGE_CURVE ( 'NONE', #381, #381, #41, .T. ) ;
#335 = DATE_AND_TIME ( #416, #174 ) ;
#336 = CIRCLE ( 'NONE', #325, 0.08887499999999920464 ) ;
#337 = EDGE_LOOP ( 'NONE', ( #59 ) ) ;
#338 = CC_DESIGN_APPROVAL ( #18, ( #129 ) ) ;
#339 = APPROVAL ( #294, 'UNSPECIFIED' ) ;
#340 = DATE_AND_TIME ( #70, #254 ) ;
#341 = VERTEX_POINT ( 'NONE', #361 ) ;
#342 = ORIENTED_EDGE ( 'NONE', *, *, #9, .F. ) ;
#343 = EDGE_CURVE ( 'NONE', #137, #137, #292, .T. ) ;
#344 = CARTESIAN_POINT ( 'NONE',  ( 1.794125000000000858, 0.0000000000000000000, 0.0000000000000000000 ) ) ;
#345 = CARTESIAN_POINT ( 'NONE',  ( -0.09799999999999987887, 0.0000000000000000000, 0.0000000000000000000 ) ) ;
#346 = APPROVAL_DATE_TIME ( #83, #339 ) ;
#347 = FACE_BOUND ( 'NONE', #324, .T. ) ;
#348 = EDGE_LOOP ( 'NONE', ( #17 ) ) ;
#349 = CIRCLE ( 'NONE', #35, 0.09149999999999983147 ) ;
#350 = EDGE_LOOP ( 'NONE', ( #342 ) ) ;
#351 = CC_DESIGN_DATE_AND_TIME_ASSIGNMENT ( #150, #394, ( #181 ) ) ;
#352 = DIRECTION ( 'NONE',  ( 0.0000000000000000000, 0.0000000000000000000, 1.000000000000000000 ) ) ;
#353 = VERTEX_POINT ( 'NONE', #198 ) ;
#354 = FACE_OUTER_BOUND ( 'NONE', #159, .T. ) ;
#355 = CARTESIAN_POINT ( 'NONE',  ( 0.0000000000000000000, 0.0000000000000000000, 0.1135000000000008502 ) ) ;
#356 = CARTESIAN_POINT ( 'NONE',  ( 0.8997492417502099826, 0.0000000000000000000, 0.08887499999999920464 ) ) ;
#357 = ADVANCED_FACE ( 'NONE', ( #274, #248 ), #369, .F. ) ;
#358 =( CONVERSION_BASED_UNIT ( 'INCH', #71 ) LENGTH_UNIT ( ) NAMED_UNIT ( #73 ) );
#359 = CONICAL_SURFACE ( 'NONE', #223, 0.08300000000000019862, 0.7853981633974467247 ) ;
#360 = EDGE_LOOP ( 'NONE', ( #100 ) ) ;
#361 = CARTESIAN_POINT ( 'NONE',  ( 0.8741874277626907608, 0.0000000000000000000, 0.04080021993141041969 ) ) ;
#362 = AXIS2_PLACEMENT_3D ( 'NONE', #48, #280, #110 ) ;
#363 = PERSON_AND_ORGANIZATION_ROLE ( 'classification_officer' ) ;
#364 = AXIS2_PLACEMENT_3D ( 'NONE', #112, #24, #282 ) ;
#365 = ORIENTED_EDGE ( 'NONE', *, *, #194, .F. ) ;
#366 = EDGE_LOOP ( 'NONE', ( #275 ) ) ;
#367 = DIRECTION ( 'NONE',  ( -1.000000000000000000, -0.0000000000000000000, -0.0000000000000000000 ) ) ;
#368 = VERTEX_POINT ( 'NONE', #65 ) ;
#369 = TOROIDAL_SURFACE ( 'NONE', #400, 0.1134999999999986714, 0.01749999999999837796 ) ;
#370 = AXIS2_PLACEMENT_3D ( 'NONE', #85, #406, #251 ) ;
#371 = DIRECTION ( 'NONE',  ( 0.0000000000000000000, 0.0000000000000000000, -1.000000000000000000 ) ) ;
#372 = DIRECTION ( 'NONE',  ( 0.0000000000000000000, 0.0000000000000000000, 1.000000000000000000 ) ) ;
#373 = PERSON_AND_ORGANIZATION ( #237, #50 ) ;
#374 = FACE_OUTER_BOUND ( 'NONE', #7, .T. ) ;
#375 = EDGE_LOOP ( 'NONE', ( #365 ) ) ;
#376 = DIRECTION ( 'NONE',  ( 0.0000000000000000000, 0.0000000000000000000, 1.000000000000000000 ) ) ;
#377 = DIRECTION ( 'NONE',  ( 0.0000000000000000000, 0.0000000000000000000, 1.000000000000000000 ) ) ;
#378 = ADVANCED_FACE ( 'NONE', ( #204, #404 ), #203, .T. ) ;
#379 = DIRECTION ( 'NONE',  ( -1.000000000000000000, 0.0000000000000000000, -0.0000000000000000000 ) ) ;
#380 = EDGE_CURVE ( 'NONE', #272, #272, #322, .T. ) ;
#381 = VERTEX_POINT ( 'NONE', #355 ) ;
#382 = DIRECTION ( 'NONE',  ( -1.000000000000000000, -0.0000000000000000000, -0.0000000000000000000 ) ) ;
#383 = CYLINDRICAL_SURFACE ( 'NONE', #131, 0.08300000000000018474 ) ;
#384 = DIRECTION ( 'NONE',  ( -1.000000000000000000, -0.0000000000000000000, -0.0000000000000000000 ) ) ;
#385 = ADVANCED_FACE ( 'NONE', ( #84, #157 ), #290, .T. ) ;
#386 = CARTESIAN_POINT ( 'NONE',  ( 1.812625000000000819, 0.0000000000000000000, 0.08300000000000018474 ) ) ;
#387 = COORDINATED_UNIVERSAL_TIME_OFFSET ( 6, 0, .BEHIND. ) ;
#388 = CIRCLE ( 'NONE', #162, 0.09600000000000018241 ) ;
#389 = ORIENTED_EDGE ( 'NONE', *, *, #293, .F. ) ;
#390 = CARTESIAN_POINT ( 'NONE',  ( 1.812625000000000819, 0.0000000000000000000, 0.0000000000000000000 ) ) ;
#391 = DIRECTION ( 'NONE',  ( 0.0000000000000000000, 0.0000000000000000000, 1.000000000000000000 ) ) ;
#392 = DIRECTION ( 'NONE',  ( 0.0000000000000000000, 0.0000000000000000000, 1.000000000000000000 ) ) ;
#393 = VERTEX_POINT ( 'NONE', #34 ) ;
#394 = DATE_TIME_ROLE ( 'classification_date' ) ;
#395 = LOCAL_TIME ( 10, 15, 54.00000000000000000, #306 ) ;
#396 = FACE_OUTER_BOUND ( 'NONE', #221, .T. ) ;
#397 = ORIENTED_EDGE ( 'NONE', *, *, #380, .F. ) ;
#398 = VERTEX_POINT ( 'NONE', #323 ) ;
#399 = ORIENTED_EDGE ( 'NONE', *, *, #52, .T. ) ;
#400 = AXIS2_PLACEMENT_3D ( 'NONE', #232, #265, #193 ) ;
#401 = DIRECTION ( 'NONE',  ( 0.0000000000000000000, 0.0000000000000000000, 1.000000000000000000 ) ) ;
#402 = AXIS2_PLACEMENT_3D ( 'NONE', #390, #160, #391 ) ;
#403 = DIRECTION ( 'NONE',  ( -1.000000000000000000, -0.0000000000000000000, -0.0000000000000000000 ) ) ;
#404 = FACE_OUTER_BOUND ( 'NONE', #138, .T. ) ;
#405 = CIRCLE ( 'NONE', #256, 0.08849999999999988431 ) ;
#406 = DIRECTION ( 'NONE',  ( -1.000000000000000000, -0.0000000000000000000, -0.0000000000000000000 ) ) ;
#407 = EDGE_LOOP ( 'NONE', ( #331 ) ) ;
#408 = DIRECTION ( 'NONE',  ( -0.0000000000000000000, 0.0000000000000000000, 1.000000000000000000 ) ) ;
#409 = PERSON_AND_ORGANIZATION ( #237, #50 ) ;
#410 = ORIENTED_EDGE ( 'NONE', *, *, #82, .F. ) ;
#411 = DIRECTION ( 'NONE',  ( -1.000000000000000000, 0.0000000000000000000, -0.0000000000000000000 ) ) ;
#412 = DIRECTION ( 'NONE',  ( -1.000000000000000000, -0.0000000000000000000, -0.0000000000000000000 ) ) ;
#413 = DIRECTION ( 'NONE',  ( 0.0000000000000000000, 0.0000000000000000000, 1.000000000000000000 ) ) ;
#414 = AXIS2_PLACEMENT_3D ( 'NONE', #119, #382, #219 ) ;
#415 = PERSON_AND_ORGANIZATION ( #237, #50 ) ;
#416 = CALENDAR_DATE ( 2021, 26, 8 ) ;
#417 = PERSON_AND_ORGANIZATION_ROLE ( 'creator' ) ;
#418 = CYLINDRICAL_SURFACE ( 'NONE', #121, 0.08887499999999920464 ) ;
ENDSEC;
END-ISO-10303-21;
