ISO-10303-21;
HEADER;
FILE_DESCRIPTION (( 'STEP AP203' ),
    '1' );
FILE_NAME ('C98LT-( )6-5.STEP',
    '2021-08-26T15:14:15',
    ( '' ),
    ( '' ),
    'SwSTEP 2.0',
    'SolidWorks 2018',
    '' );
FILE_SCHEMA (( 'CONFIG_CONTROL_DESIGN' ));
ENDSEC;

DATA;
#1 = DIRECTION ( 'NONE',  ( 0.0000000000000000000, 0.0000000000000000000, 1.000000000000000000 ) ) ;
#2 = VERTEX_POINT ( 'NONE', #195 ) ;
#3 = FACE_OUTER_BOUND ( 'NONE', #416, .T. ) ;
#4 = ADVANCED_FACE ( 'NONE', ( #37, #354 ), #131, .T. ) ;
#5 = EDGE_LOOP ( 'NONE', ( #314 ) ) ;
#6 = CARTESIAN_POINT ( 'NONE',  ( 1.590999999999999970, 0.0000000000000000000, 0.0000000000000000000 ) ) ;
#7 = PLANE ( 'NONE',  #177 ) ;
#8 = CALENDAR_DATE ( 2021, 26, 8 ) ;
#9 = CARTESIAN_POINT ( 'NONE',  ( -0.04989925765862024409, 0.0000000000000000000, 0.0000000000000000000 ) ) ;
#10 = AXIS2_PLACEMENT_3D ( 'NONE', #62, #120, #31 ) ;
#11 = DIRECTION ( 'NONE',  ( -1.000000000000000000, -0.0000000000000000000, -0.0000000000000000000 ) ) ;
#12 = LOCAL_TIME ( 10, 14, 15.00000000000000000, #92 ) ;
#13 = FACE_OUTER_BOUND ( 'NONE', #82, .T. ) ;
#14 = DATE_TIME_ROLE ( 'creation_date' ) ;
#15 = CARTESIAN_POINT ( 'NONE',  ( 0.0000000000000000000, 0.0000000000000000000, 0.2203580774721002611 ) ) ;
#16 = PERSON ( 'UNSPECIFIED', 'UNSPECIFIED', 'UNSPECIFIED', ('UNSPECIFIED'), ('UNSPECIFIED'), ('UNSPECIFIED') ) ;
#17 = PERSON_AND_ORGANIZATION ( #16, #331 ) ;
#18 = VERTEX_POINT ( 'NONE', #160 ) ;
#19 = FACE_BOUND ( 'NONE', #386, .T. ) ;
#20 = EDGE_LOOP ( 'NONE', ( #81 ) ) ;
#21 =( GEOMETRIC_REPRESENTATION_CONTEXT ( 3 ) GLOBAL_UNCERTAINTY_ASSIGNED_CONTEXT ( ( #208 ) ) GLOBAL_UNIT_ASSIGNED_CONTEXT ( ( #339, #136, #242 ) ) REPRESENTATION_CONTEXT ( 'NONE', 'WORKASPACE' ) );
#22 = DIRECTION ( 'NONE',  ( 0.0000000000000000000, 0.0000000000000000000, 1.000000000000000000 ) ) ;
#23 = AXIS2_PLACEMENT_3D ( 'NONE', #316, #115, #347 ) ;
#24 = DIRECTION ( 'NONE',  ( -1.000000000000000000, -0.0000000000000000000, -0.0000000000000000000 ) ) ;
#25 = ADVANCED_BREP_SHAPE_REPRESENTATION ( 'C98LT-( )6-5', ( #68, #213 ), #21 ) ;
#26 = FACE_OUTER_BOUND ( 'NONE', #5, .T. ) ;
#27 = EDGE_LOOP ( 'NONE', ( #173 ) ) ;
#28 = CC_DESIGN_PERSON_AND_ORGANIZATION_ASSIGNMENT ( #98, #277, ( #135 ) ) ;
#29 = ADVANCED_FACE ( 'NONE', ( #368, #105 ), #93, .T. ) ;
#30 = EDGE_CURVE ( 'NONE', #325, #325, #63, .T. ) ;
#31 = DIRECTION ( 'NONE',  ( 0.0000000000000000000, 0.0000000000000000000, 1.000000000000000000 ) ) ;
#32 = AXIS2_PLACEMENT_3D ( 'NONE', #256, #260, #323 ) ;
#33 = CIRCLE ( 'NONE', #357, 0.08300000000000018474 ) ;
#34 = DIRECTION ( 'NONE',  ( -1.000000000000000000, -0.0000000000000000000, -0.0000000000000000000 ) ) ;
#35 = CARTESIAN_POINT ( 'NONE',  ( 0.6047448957127571356, 0.0000000000000000000, 0.0000000000000000000 ) ) ;
#36 = CARTESIAN_POINT ( 'NONE',  ( -0.09799999999999987887, 0.0000000000000000000, 0.0000000000000000000 ) ) ;
#37 = FACE_BOUND ( 'NONE', #197, .T. ) ;
#38 = DIRECTION ( 'NONE',  ( 0.0000000000000000000, 1.000000000000000000, 0.0000000000000000000 ) ) ;
#39 = AXIS2_PLACEMENT_3D ( 'NONE', #255, #353, #294 ) ;
#40 = CARTESIAN_POINT ( 'NONE',  ( 1.544125000000001080, 0.0000000000000000000, 0.0000000000000000000 ) ) ;
#41 = DIRECTION ( 'NONE',  ( -0.0000000000000000000, 0.0000000000000000000, 1.000000000000000000 ) ) ;
#42 = PERSON_AND_ORGANIZATION ( #16, #331 ) ;
#43 = FACE_OUTER_BOUND ( 'NONE', #99, .T. ) ;
#44 = ORIENTED_EDGE ( 'NONE', *, *, #116, .F. ) ;
#45 = DIRECTION ( 'NONE',  ( 0.0000000000000000000, 0.0000000000000000000, 1.000000000000000000 ) ) ;
#46 = CIRCLE ( 'NONE', #278, 0.04080021993141041969 ) ;
#47 = ORIENTED_EDGE ( 'NONE', *, *, #281, .F. ) ;
#48 = DATE_TIME_ROLE ( 'classification_date' ) ;
#49 = CYLINDRICAL_SURFACE ( 'NONE', #39, 0.09600000000000023792 ) ;
#50 = EDGE_LOOP ( 'NONE', ( #205 ) ) ;
#51 = FACE_OUTER_BOUND ( 'NONE', #27, .T. ) ;
#52 = CARTESIAN_POINT ( 'NONE',  ( 1.590999999999999970, 0.0000000000000000000, 0.0000000000000000000 ) ) ;
#53 = ORIENTED_EDGE ( 'NONE', *, *, #409, .F. ) ;
#54 = AXIS2_PLACEMENT_3D ( 'NONE', #91, #222, #118 ) ;
#55 = CALENDAR_DATE ( 2021, 26, 8 ) ;
#56 = LOCAL_TIME ( 10, 14, 15.00000000000000000, #258 ) ;
#57 = TOROIDAL_SURFACE ( 'NONE', #193, 0.1134999999999986714, 0.01749999999999837796 ) ;
#58 = EDGE_LOOP ( 'NONE', ( #334 ) ) ;
#59 = ADVANCED_FACE ( 'NONE', ( #3, #175 ), #352, .T. ) ;
#60 = DIRECTION ( 'NONE',  ( 0.0000000000000000000, 0.0000000000000000000, 1.000000000000000000 ) ) ;
#61 = ADVANCED_FACE ( 'NONE', ( #302, #282 ), #167, .T. ) ;
#62 = CARTESIAN_POINT ( 'NONE',  ( 0.01749999999999837796, 0.0000000000000000000, 0.0000000000000000000 ) ) ;
#63 = CIRCLE ( 'NONE', #161, 0.08849999999999978717 ) ;
#64 = CARTESIAN_POINT ( 'NONE',  ( 0.01749999999999837796, 0.0000000000000000000, 0.0000000000000000000 ) ) ;
#65 = ORIENTED_EDGE ( 'NONE', *, *, #351, .F. ) ;
#66 = AXIS2_PLACEMENT_3D ( 'NONE', #187, #291, #226 ) ;
#67 = CARTESIAN_POINT ( 'NONE',  ( 1.549625000000000918, 0.0000000000000000000, 0.08300000000000018474 ) ) ;
#68 = MANIFOLD_SOLID_BREP ( 'Revolve1', #303 ) ;
#69 = APPROVAL ( #75, 'UNSPECIFIED' ) ;
#70 = CALENDAR_DATE ( 2021, 26, 8 ) ;
#71 = CARTESIAN_POINT ( 'NONE',  ( 0.0000000000000000000, 0.0000000000000000000, 0.0000000000000000000 ) ) ;
#72 = AXIS2_PLACEMENT_3D ( 'NONE', #178, #252, #317 ) ;
#73 = DIRECTION ( 'NONE',  ( -1.000000000000000000, -0.0000000000000000000, -0.0000000000000000000 ) ) ;
#74 = DATE_AND_TIME ( #84, #56 ) ;
#75 = APPROVAL_STATUS ( 'not_yet_approved' ) ;
#76 = FACE_OUTER_BOUND ( 'NONE', #77, .T. ) ;
#77 = EDGE_LOOP ( 'NONE', ( #217 ) ) ;
#78 = PERSON_AND_ORGANIZATION_ROLE ( 'design_owner' ) ;
#79 = AXIS2_PLACEMENT_3D ( 'NONE', #396, #266, #329 ) ;
#80 = VERTEX_POINT ( 'NONE', #126 ) ;
#81 = ORIENTED_EDGE ( 'NONE', *, *, #201, .F. ) ;
#82 = EDGE_LOOP ( 'NONE', ( #44 ) ) ;
#83 = EDGE_CURVE ( 'NONE', #374, #374, #404, .T. ) ;
#84 = CALENDAR_DATE ( 2021, 26, 8 ) ;
#85 = ORIENTED_EDGE ( 'NONE', *, *, #215, .T. ) ;
#86 = CARTESIAN_POINT ( 'NONE',  ( 0.6497492417502099826, 0.0000000000000000000, 0.0000000000000000000 ) ) ;
#87 = AXIS2_PLACEMENT_3D ( 'NONE', #157, #192, #1 ) ;
#88 = VERTEX_POINT ( 'NONE', #198 ) ;
#89 = DIRECTION ( 'NONE',  ( -1.000000000000000000, -0.0000000000000000000, -0.0000000000000000000 ) ) ;
#90 = ORIENTED_EDGE ( 'NONE', *, *, #224, .F. ) ;
#91 = CARTESIAN_POINT ( 'NONE',  ( 0.2667942286340611036, 0.0000000000000000000, 0.0000000000000000000 ) ) ;
#92 = COORDINATED_UNIVERSAL_TIME_OFFSET ( 6, 0, .BEHIND. ) ;
#93 = CYLINDRICAL_SURFACE ( 'NONE', #132, 0.08300000000000018474 ) ;
#94 = AXIS2_PLACEMENT_3D ( 'NONE', #6, #163, #164 ) ;
#95 = DIRECTION ( 'NONE',  ( -1.000000000000000000, -0.0000000000000000000, -0.0000000000000000000 ) ) ;
#96 = PLANE ( 'NONE',  #263 ) ;
#97 = APPROVAL_DATE_TIME ( #390, #69 ) ;
#98 = PERSON_AND_ORGANIZATION ( #16, #331 ) ;
#99 = EDGE_LOOP ( 'NONE', ( #223 ) ) ;
#100 = EDGE_LOOP ( 'NONE', ( #65 ) ) ;
#101 = DIRECTION ( 'NONE',  ( -1.000000000000000000, -0.0000000000000000000, -0.0000000000000000000 ) ) ;
#102 = CARTESIAN_POINT ( 'NONE',  ( 1.590999999999999970, 0.06661768611174485877, 0.0000000000000000000 ) ) ;
#103 = CIRCLE ( 'NONE', #66, 0.04080021993141041275 ) ;
#104 =( LENGTH_UNIT ( ) NAMED_UNIT ( * ) SI_UNIT ( $, .METRE. ) );
#105 = FACE_OUTER_BOUND ( 'NONE', #58, .T. ) ;
#106 = EDGE_LOOP ( 'NONE', ( #184 ) ) ;
#107 = APPROVAL_DATE_TIME ( #408, #113 ) ;
#108 = CYLINDRICAL_SURFACE ( 'NONE', #285, 0.08849999999999984268 ) ;
#109 = DIRECTION ( 'NONE',  ( -1.000000000000000000, -0.0000000000000000000, -0.0000000000000000000 ) ) ;
#110 = CARTESIAN_POINT ( 'NONE',  ( -0.09799999999999987887, 0.0000000000000000000, 0.0000000000000000000 ) ) ;
#111 = PERSON_AND_ORGANIZATION ( #16, #331 ) ;
#112 = CONICAL_SURFACE ( 'NONE', #54, 0.09149999999999983147, 0.2617993877991515728 ) ;
#113 = APPROVAL ( #304, 'UNSPECIFIED' ) ;
#114 = ORIENTED_EDGE ( 'NONE', *, *, #224, .T. ) ;
#115 = DIRECTION ( 'NONE',  ( -1.000000000000000000, -0.0000000000000000000, -0.0000000000000000000 ) ) ;
#116 = EDGE_CURVE ( 'NONE', #80, #80, #216, .T. ) ;
#117 = SHAPE_DEFINITION_REPRESENTATION ( #240, #25 ) ;
#118 = DIRECTION ( 'NONE',  ( 0.0000000000000000000, 0.0000000000000000000, 1.000000000000000000 ) ) ;
#119 = ORIENTED_EDGE ( 'NONE', *, *, #83, .F. ) ;
#120 = DIRECTION ( 'NONE',  ( -1.000000000000000000, -0.0000000000000000000, -0.0000000000000000000 ) ) ;
#121 = EDGE_CURVE ( 'NONE', #88, #88, #364, .T. ) ;
#122 = DIRECTION ( 'NONE',  ( 0.0000000000000000000, 0.0000000000000000000, 1.000000000000000000 ) ) ;
#123 = DIRECTION ( 'NONE',  ( 0.0000000000000000000, 0.0000000000000000000, 1.000000000000000000 ) ) ;
#124 = CYLINDRICAL_SURFACE ( 'NONE', #312, 0.04080021993141041969 ) ;
#125 = DIRECTION ( 'NONE',  ( -0.0000000000000000000, 0.0000000000000000000, 1.000000000000000000 ) ) ;
#126 = CARTESIAN_POINT ( 'NONE',  ( 0.2667942286340611036, 0.0000000000000000000, 0.09149999999999983147 ) ) ;
#127 = CARTESIAN_POINT ( 'NONE',  ( -0.09799999999999987887, 0.0000000000000000000, 0.0000000000000000000 ) ) ;
#128 = CC_DESIGN_PERSON_AND_ORGANIZATION_ASSIGNMENT ( #174, #407, ( #253 ) ) ;
#129 = CALENDAR_DATE ( 2021, 26, 8 ) ;
#130 = VERTEX_POINT ( 'NONE', #204 ) ;
#131 = CONICAL_SURFACE ( 'NONE', #137, 0.08887499999999920464, 1.082104136236493375 ) ;
#132 = AXIS2_PLACEMENT_3D ( 'NONE', #110, #280, #147 ) ;
#133 = AXIS2_PLACEMENT_3D ( 'NONE', #298, #330, #264 ) ;
#134 = CIRCLE ( 'NONE', #79, 0.08887499999999920464 ) ;
#135 = PRODUCT_DEFINITION_FORMATION_WITH_SPECIFIED_SOURCE ( 'ANY', '', #327, .NOT_KNOWN. ) ;
#136 =( NAMED_UNIT ( * ) PLANE_ANGLE_UNIT ( ) SI_UNIT ( $, .RADIAN. ) );
#137 = AXIS2_PLACEMENT_3D ( 'NONE', #86, #415, #414 ) ;
#138 = DATE_AND_TIME ( #129, #254 ) ;
#139 = VERTEX_POINT ( 'NONE', #236 ) ;
#140 = FACE_OUTER_BOUND ( 'NONE', #100, .T. ) ;
#141 = EDGE_LOOP ( 'NONE', ( #394 ) ) ;
#142 = EDGE_CURVE ( 'NONE', #308, #308, #249, .T. ) ;
#143 = VERTEX_POINT ( 'NONE', #67 ) ;
#144 = CIRCLE ( 'NONE', #87, 0.09149999999999983147 ) ;
#145 = CARTESIAN_POINT ( 'NONE',  ( 0.6853723934475103308, 0.0000000000000000000, 0.0000000000000000000 ) ) ;
#146 = EDGE_LOOP ( 'NONE', ( #376 ) ) ;
#147 = DIRECTION ( 'NONE',  ( 0.0000000000000000000, 0.0000000000000000000, 1.000000000000000000 ) ) ;
#148 = AXIS2_PLACEMENT_3D ( 'NONE', #349, #418, #123 ) ;
#149 = DESIGN_CONTEXT ( 'detailed design', #403, 'design' ) ;
#150 = FACE_OUTER_BOUND ( 'NONE', #247, .T. ) ;
#151 = CC_DESIGN_DATE_AND_TIME_ASSIGNMENT ( #138, #48, ( #276 ) ) ;
#152 = ADVANCED_FACE ( 'NONE', ( #309, #343 ), #338, .T. ) ;
#153 = DIRECTION ( 'NONE',  ( 0.0000000000000000000, 0.0000000000000000000, 1.000000000000000000 ) ) ;
#154 = ADVANCED_FACE ( 'NONE', ( #43, #76 ), #49, .T. ) ;
#155 = LENGTH_MEASURE_WITH_UNIT ( LENGTH_MEASURE( 0.02539999999999999897 ), #104 );
#156 = FACE_OUTER_BOUND ( 'NONE', #365, .T. ) ;
#157 = CARTESIAN_POINT ( 'NONE',  ( 0.5811031999999994868, 0.0000000000000000000, 0.0000000000000000000 ) ) ;
#158 = CARTESIAN_POINT ( 'NONE',  ( 0.6047448957127571356, 0.0000000000000000000, 0.0000000000000000000 ) ) ;
#159 = CARTESIAN_POINT ( 'NONE',  ( 1.562625000000000819, 0.0000000000000000000, 0.0000000000000000000 ) ) ;
#160 = CARTESIAN_POINT ( 'NONE',  ( 0.6047448957127571356, 0.0000000000000000000, 0.04080021993141041969 ) ) ;
#161 = AXIS2_PLACEMENT_3D ( 'NONE', #145, #89, #378 ) ;
#162 = CYLINDRICAL_SURFACE ( 'NONE', #306, 0.09149999999999983147 ) ;
#163 = DIRECTION ( 'NONE',  ( -1.000000000000000000, -0.0000000000000000000, -0.0000000000000000000 ) ) ;
#164 = DIRECTION ( 'NONE',  ( 0.0000000000000000000, 0.0000000000000000000, 1.000000000000000000 ) ) ;
#165 = DIRECTION ( 'NONE',  ( 0.0000000000000000000, 0.0000000000000000000, 1.000000000000000000 ) ) ;
#166 = PERSON_AND_ORGANIZATION_ROLE ( 'classification_officer' ) ;
#167 = CONICAL_SURFACE ( 'NONE', #251, 0.06661768611174485877, 0.5235987755983040337 ) ;
#168 = EDGE_LOOP ( 'NONE', ( #250 ) ) ;
#169 = APPROVAL_ROLE ( '' ) ;
#170 = APPROVAL_ROLE ( '' ) ;
#171 = CIRCLE ( 'NONE', #225, 0.2203580774721002611 ) ;
#172 = APPLICATION_PROTOCOL_DEFINITION ( 'international standard', 'config_control_design', 1994, #403 ) ;
#173 = ORIENTED_EDGE ( 'NONE', *, *, #185, .F. ) ;
#174 = PERSON_AND_ORGANIZATION ( #16, #331 ) ;
#175 = FACE_BOUND ( 'NONE', #182, .T. ) ;
#176 = ORIENTED_EDGE ( 'NONE', *, *, #262, .T. ) ;
#177 = AXIS2_PLACEMENT_3D ( 'NONE', #295, #361, #41 ) ;
#178 = CARTESIAN_POINT ( 'NONE',  ( 1.549625000000000918, 0.0000000000000000000, 0.0000000000000000000 ) ) ;
#179 = PRODUCT_RELATED_PRODUCT_CATEGORY ( 'detail', '', ( #327 ) ) ;
#180 = ADVANCED_FACE ( 'NONE', ( #218, #398 ), #112, .T. ) ;
#181 = PERSON_AND_ORGANIZATION ( #16, #331 ) ;
#182 = EDGE_LOOP ( 'NONE', ( #85 ) ) ;
#183 = CARTESIAN_POINT ( 'NONE',  ( -0.09799999999999987887, 0.0000000000000000000, 0.0000000000000000000 ) ) ;
#184 = ORIENTED_EDGE ( 'NONE', *, *, #215, .F. ) ;
#185 = EDGE_CURVE ( 'NONE', #239, #239, #210, .T. ) ;
#186 = AXIS2_PLACEMENT_3D ( 'NONE', #382, #109, #284 ) ;
#187 = CARTESIAN_POINT ( 'NONE',  ( 0.6241874277626906498, 0.0000000000000000000, 0.0000000000000000000 ) ) ;
#188 = ADVANCED_FACE ( 'NONE', ( #412, #385 ), #124, .T. ) ;
#189 = DIRECTION ( 'NONE',  ( -1.000000000000000000, -0.0000000000000000000, -0.0000000000000000000 ) ) ;
#190 = FACE_BOUND ( 'NONE', #168, .T. ) ;
#191 = EDGE_CURVE ( 'NONE', #402, #402, #103, .T. ) ;
#192 = DIRECTION ( 'NONE',  ( -1.000000000000000000, -0.0000000000000000000, -0.0000000000000000000 ) ) ;
#193 = AXIS2_PLACEMENT_3D ( 'NONE', #64, #189, #153 ) ;
#194 = FACE_BOUND ( 'NONE', #212, .T. ) ;
#195 = CARTESIAN_POINT ( 'NONE',  ( 0.5811031999999994868, 0.0000000000000000000, 0.09149999999999983147 ) ) ;
#196 = ORIENTED_EDGE ( 'NONE', *, *, #305, .T. ) ;
#197 = EDGE_LOOP ( 'NONE', ( #381 ) ) ;
#198 = CARTESIAN_POINT ( 'NONE',  ( 0.01749999999999837796, 0.0000000000000000000, 0.09600000000000029343 ) ) ;
#199 = DIRECTION ( 'NONE',  ( -1.000000000000000000, -0.0000000000000000000, -0.0000000000000000000 ) ) ;
#200 = CARTESIAN_POINT ( 'NONE',  ( 0.6853723934475103308, 0.0000000000000000000, 0.08887499999999920464 ) ) ;
#201 = EDGE_CURVE ( 'NONE', #18, #18, #46, .T. ) ;
#202 = COORDINATED_UNIVERSAL_TIME_OFFSET ( 6, 0, .BEHIND. ) ;
#203 = CIRCLE ( 'NONE', #379, 0.08300000000000018474 ) ;
#204 = CARTESIAN_POINT ( 'NONE',  ( 1.544125000000001080, 0.0000000000000000000, 0.08849999999999988431 ) ) ;
#205 = ORIENTED_EDGE ( 'NONE', *, *, #30, .F. ) ;
#206 = APPLICATION_PROTOCOL_DEFINITION ( 'international standard', 'config_control_design', 1994, #367 ) ;
#207 = APPROVAL_ROLE ( '' ) ;
#208 = UNCERTAINTY_MEASURE_WITH_UNIT (LENGTH_MEASURE( 1.000000000000000082E-05 ), #339, 'distance_accuracy_value', 'NONE');
#209 = DIRECTION ( 'NONE',  ( 0.0000000000000000000, 0.0000000000000000000, 1.000000000000000000 ) ) ;
#210 = CIRCLE ( 'NONE', #299, 0.1135000000000008502 ) ;
#211 = ORIENTED_EDGE ( 'NONE', *, *, #351, .T. ) ;
#212 = EDGE_LOOP ( 'NONE', ( #371 ) ) ;
#213 = AXIS2_PLACEMENT_3D ( 'NONE', #71, #209, #369 ) ;
#214 = AXIS2_PLACEMENT_3D ( 'NONE', #9, #332, #360 ) ;
#215 = EDGE_CURVE ( 'NONE', #143, #143, #203, .T. ) ;
#216 = CIRCLE ( 'NONE', #186, 0.09149999999999983147 ) ;
#217 = ORIENTED_EDGE ( 'NONE', *, *, #83, .T. ) ;
#218 = FACE_OUTER_BOUND ( 'NONE', #267, .T. ) ;
#219 = EDGE_LOOP ( 'NONE', ( #400 ) ) ;
#220 = AXIS2_PLACEMENT_3D ( 'NONE', #158, #324, #417 ) ;
#221 = FACE_OUTER_BOUND ( 'NONE', #146, .T. ) ;
#222 = DIRECTION ( 'NONE',  ( -1.000000000000000000, -0.0000000000000000000, -0.0000000000000000000 ) ) ;
#223 = ORIENTED_EDGE ( 'NONE', *, *, #121, .F. ) ;
#224 = EDGE_CURVE ( 'NONE', #2, #2, #144, .T. ) ;
#225 = AXIS2_PLACEMENT_3D ( 'NONE', #234, #101, #165 ) ;
#226 = DIRECTION ( 'NONE',  ( 0.0000000000000000000, 0.0000000000000000000, 1.000000000000000000 ) ) ;
#227 = ADVANCED_FACE ( 'NONE', ( #221, #288 ), #229, .T. ) ;
#228 = APPROVAL_PERSON_ORGANIZATION ( #42, #113, #170 ) ;
#229 = TOROIDAL_SURFACE ( 'NONE', #148, 0.2063896432688867300, 0.02811035673110731659 ) ;
#230 = DIRECTION ( 'NONE',  ( -1.000000000000000000, -0.0000000000000000000, -0.0000000000000000000 ) ) ;
#231 = ORIENTED_EDGE ( 'NONE', *, *, #305, .F. ) ;
#232 = CARTESIAN_POINT ( 'NONE',  ( 0.6853723934475103308, 0.0000000000000000000, 0.08849999999999978717 ) ) ;
#233 = APPROVAL ( #301, 'UNSPECIFIED' ) ;
#234 = CARTESIAN_POINT ( 'NONE',  ( 0.0000000000000000000, 0.0000000000000000000, 0.0000000000000000000 ) ) ;
#235 = AXIS2_PLACEMENT_3D ( 'NONE', #183, #24, #344 ) ;
#236 = CARTESIAN_POINT ( 'NONE',  ( 0.6497492417502099826, 0.0000000000000000000, 0.08887499999999920464 ) ) ;
#237 = DIRECTION ( 'NONE',  ( -1.000000000000000000, 0.0000000000000000000, -0.0000000000000000000 ) ) ;
#238 = DIRECTION ( 'NONE',  ( 0.0000000000000000000, 0.0000000000000000000, 1.000000000000000000 ) ) ;
#239 = VERTEX_POINT ( 'NONE', #401 ) ;
#240 = PRODUCT_DEFINITION_SHAPE ( 'NONE', 'NONE',  #253 ) ;
#241 = FACE_OUTER_BOUND ( 'NONE', #346, .T. ) ;
#242 =( NAMED_UNIT ( * ) SI_UNIT ( $, .STERADIAN. ) SOLID_ANGLE_UNIT ( ) );
#243 = EDGE_LOOP ( 'NONE', ( #90 ) ) ;
#244 = CARTESIAN_POINT ( 'NONE',  ( -0.04989925765862024409, 0.0000000000000000000, 0.2182083617475689130 ) ) ;
#245 = PERSON_AND_ORGANIZATION ( #16, #331 ) ;
#246 = ORIENTED_EDGE ( 'NONE', *, *, #142, .F. ) ;
#247 = EDGE_LOOP ( 'NONE', ( #370 ) ) ;
#248 = VERTEX_POINT ( 'NONE', #274 ) ;
#249 = CIRCLE ( 'NONE', #32, 0.08887499999999920464 ) ;
#250 = ORIENTED_EDGE ( 'NONE', *, *, #30, .T. ) ;
#251 = AXIS2_PLACEMENT_3D ( 'NONE', #52, #413, #22 ) ;
#252 = DIRECTION ( 'NONE',  ( -1.000000000000000000, -0.0000000000000000000, -0.0000000000000000000 ) ) ;
#253 = PRODUCT_DEFINITION ( 'UNKNOWN', '', #135, #149 ) ;
#254 = LOCAL_TIME ( 10, 14, 15.00000000000000000, #340 ) ;
#255 = CARTESIAN_POINT ( 'NONE',  ( -0.09799999999999987887, 0.0000000000000000000, 0.0000000000000000000 ) ) ;
#256 = CARTESIAN_POINT ( 'NONE',  ( 0.6853723934475103308, 0.0000000000000000000, 0.0000000000000000000 ) ) ;
#257 = ADVANCED_FACE ( 'NONE', ( #51, #375 ), #57, .F. ) ;
#258 = COORDINATED_UNIVERSAL_TIME_OFFSET ( 6, 0, .BEHIND. ) ;
#259 = ADVANCED_FACE ( 'NONE', ( #279, #194 ), #326, .T. ) ;
#260 = DIRECTION ( 'NONE',  ( -1.000000000000000000, -0.0000000000000000000, -0.0000000000000000000 ) ) ;
#261 = DIRECTION ( 'NONE',  ( -1.000000000000000000, -0.0000000000000000000, -0.0000000000000000000 ) ) ;
#262 = EDGE_CURVE ( 'NONE', #397, #397, #358, .T. ) ;
#263 = AXIS2_PLACEMENT_3D ( 'NONE', #102, #237, #125 ) ;
#264 = DIRECTION ( 'NONE',  ( -0.0000000000000000000, 0.0000000000000000000, 1.000000000000000000 ) ) ;
#265 = CIRCLE ( 'NONE', #214, 0.2182083617475689130 ) ;
#266 = DIRECTION ( 'NONE',  ( -1.000000000000000000, -0.0000000000000000000, -0.0000000000000000000 ) ) ;
#267 = EDGE_LOOP ( 'NONE', ( #119 ) ) ;
#268 = DIRECTION ( 'NONE',  ( 0.0000000000000000000, 0.0000000000000000000, 1.000000000000000000 ) ) ;
#269 = CC_DESIGN_DATE_AND_TIME_ASSIGNMENT ( #318, #14, ( #253 ) ) ;
#270 = PLANE ( 'NONE',  #133 ) ;
#271 = CC_DESIGN_SECURITY_CLASSIFICATION ( #276, ( #135 ) ) ;
#272 = LOCAL_TIME ( 10, 14, 15.00000000000000000, #202 ) ;
#273 = CARTESIAN_POINT ( 'NONE',  ( 0.6241874277626906498, 0.0000000000000000000, 0.04080021993141041275 ) ) ;
#274 = CARTESIAN_POINT ( 'NONE',  ( 1.562625000000000819, 0.0000000000000000000, 0.08300000000000018474 ) ) ;
#275 = SPHERICAL_SURFACE ( 'NONE', #319, 0.5189999999999995728 ) ;
#276 = SECURITY_CLASSIFICATION ( '', '', #406 ) ;
#277 = PERSON_AND_ORGANIZATION_ROLE ( 'design_supplier' ) ;
#278 = AXIS2_PLACEMENT_3D ( 'NONE', #35, #95, #60 ) ;
#279 = FACE_OUTER_BOUND ( 'NONE', #243, .T. ) ;
#280 = DIRECTION ( 'NONE',  ( -1.000000000000000000, -0.0000000000000000000, -0.0000000000000000000 ) ) ;
#281 = EDGE_CURVE ( 'NONE', #130, #130, #313, .T. ) ;
#282 = FACE_BOUND ( 'NONE', #310, .T. ) ;
#283 = EDGE_LOOP ( 'NONE', ( #405 ) ) ;
#284 = DIRECTION ( 'NONE',  ( 0.0000000000000000000, 0.0000000000000000000, 1.000000000000000000 ) ) ;
#285 = AXIS2_PLACEMENT_3D ( 'NONE', #392, #34, #45 ) ;
#286 = EDGE_LOOP ( 'NONE', ( #211 ) ) ;
#287 = DIRECTION ( 'NONE',  ( 0.0000000000000000000, 0.0000000000000000000, 1.000000000000000000 ) ) ;
#288 = FACE_OUTER_BOUND ( 'NONE', #286, .T. ) ;
#289 = ADVANCED_FACE ( 'NONE', ( #380 ), #275, .T. ) ;
#290 = EDGE_LOOP ( 'NONE', ( #300 ) ) ;
#291 = DIRECTION ( 'NONE',  ( -1.000000000000000000, -0.0000000000000000000, -0.0000000000000000000 ) ) ;
#292 = CC_DESIGN_APPROVAL ( #113, ( #253 ) ) ;
#293 = CARTESIAN_POINT ( 'NONE',  ( 0.0000000000000000000, 0.0000000000000000000, 0.0000000000000000000 ) ) ;
#294 = DIRECTION ( 'NONE',  ( 0.0000000000000000000, 0.0000000000000000000, 1.000000000000000000 ) ) ;
#295 = CARTESIAN_POINT ( 'NONE',  ( 0.6853723934475103308, 0.08887499999999920464, 0.0000000000000000000 ) ) ;
#296 = CARTESIAN_POINT ( 'NONE',  ( 1.590999999999999970, 0.0000000000000000000, 0.06661768611174485877 ) ) ;
#297 = CC_DESIGN_PERSON_AND_ORGANIZATION_ASSIGNMENT ( #17, #166, ( #276 ) ) ;
#298 = CARTESIAN_POINT ( 'NONE',  ( 0.0000000000000000000, 0.1135000000000008502, 0.0000000000000000000 ) ) ;
#299 = AXIS2_PLACEMENT_3D ( 'NONE', #293, #230, #122 ) ;
#300 = ORIENTED_EDGE ( 'NONE', *, *, #116, .T. ) ;
#301 = APPROVAL_STATUS ( 'not_yet_approved' ) ;
#302 = FACE_OUTER_BOUND ( 'NONE', #341, .T. ) ;
#303 = CLOSED_SHELL ( 'NONE', ( #227, #289, #387, #61, #29, #59, #322, #348, #152, #4, #188, #259, #356, #180, #154, #257, #350 ) ) ;
#304 = APPROVAL_STATUS ( 'not_yet_approved' ) ;
#305 = EDGE_CURVE ( 'NONE', #139, #139, #134, .T. ) ;
#306 = AXIS2_PLACEMENT_3D ( 'NONE', #127, #73, #268 ) ;
#307 = LOCAL_TIME ( 10, 14, 15.00000000000000000, #373 ) ;
#308 = VERTEX_POINT ( 'NONE', #200 ) ;
#309 = FACE_OUTER_BOUND ( 'NONE', #333, .T. ) ;
#310 = EDGE_LOOP ( 'NONE', ( #176 ) ) ;
#311 = CC_DESIGN_APPROVAL ( #233, ( #135 ) ) ;
#312 = AXIS2_PLACEMENT_3D ( 'NONE', #36, #261, #321 ) ;
#313 = CIRCLE ( 'NONE', #384, 0.08849999999999988431 ) ;
#314 = ORIENTED_EDGE ( 'NONE', *, *, #281, .T. ) ;
#315 = EDGE_LOOP ( 'NONE', ( #196 ) ) ;
#316 = CARTESIAN_POINT ( 'NONE',  ( 0.2500000000000000000, 0.0000000000000000000, 0.0000000000000000000 ) ) ;
#317 = DIRECTION ( 'NONE',  ( 0.0000000000000000000, 0.0000000000000000000, 1.000000000000000000 ) ) ;
#318 = DATE_AND_TIME ( #8, #12 ) ;
#319 = AXIS2_PLACEMENT_3D ( 'NONE', #355, #399, #38 ) ;
#320 = ORIENTED_EDGE ( 'NONE', *, *, #185, .T. ) ;
#321 = DIRECTION ( 'NONE',  ( 0.0000000000000000000, 0.0000000000000000000, 1.000000000000000000 ) ) ;
#322 = ADVANCED_FACE ( 'NONE', ( #391, #26 ), #108, .T. ) ;
#323 = DIRECTION ( 'NONE',  ( 0.0000000000000000000, 0.0000000000000000000, 1.000000000000000000 ) ) ;
#324 = DIRECTION ( 'NONE',  ( -1.000000000000000000, -0.0000000000000000000, -0.0000000000000000000 ) ) ;
#325 = VERTEX_POINT ( 'NONE', #232 ) ;
#326 = CONICAL_SURFACE ( 'NONE', #220, 0.04080021993141041969, 1.134464013796310677 ) ;
#327 = PRODUCT ( 'C98LT-( )6-5', 'C98LT-( )6-5', '', ( #372 ) ) ;
#328 = DIRECTION ( 'NONE',  ( -1.000000000000000000, -0.0000000000000000000, -0.0000000000000000000 ) ) ;
#329 = DIRECTION ( 'NONE',  ( 0.0000000000000000000, 0.0000000000000000000, 1.000000000000000000 ) ) ;
#330 = DIRECTION ( 'NONE',  ( -1.000000000000000000, 0.0000000000000000000, -0.0000000000000000000 ) ) ;
#331 = ORGANIZATION ( 'UNSPECIFIED', 'UNSPECIFIED', '' ) ;
#332 = DIRECTION ( 'NONE',  ( -1.000000000000000000, -0.0000000000000000000, -0.0000000000000000000 ) ) ;
#333 = EDGE_LOOP ( 'NONE', ( #231 ) ) ;
#334 = ORIENTED_EDGE ( 'NONE', *, *, #409, .T. ) ;
#335 = CARTESIAN_POINT ( 'NONE',  ( 0.2500000000000000000, 0.0000000000000000000, 0.09600000000000018241 ) ) ;
#336 = CC_DESIGN_PERSON_AND_ORGANIZATION_ASSIGNMENT ( #181, #366, ( #135 ) ) ;
#337 = VERTEX_POINT ( 'NONE', #244 ) ;
#338 = CYLINDRICAL_SURFACE ( 'NONE', #235, 0.08887499999999920464 ) ;
#339 =( CONVERSION_BASED_UNIT ( 'INCH', #155 ) LENGTH_UNIT ( ) NAMED_UNIT ( #389 ) );
#340 = COORDINATED_UNIVERSAL_TIME_OFFSET ( 6, 0, .BEHIND. ) ;
#341 = EDGE_LOOP ( 'NONE', ( #53 ) ) ;
#342 = PERSON_AND_ORGANIZATION ( #16, #331 ) ;
#343 = FACE_OUTER_BOUND ( 'NONE', #283, .T. ) ;
#344 = DIRECTION ( 'NONE',  ( 0.0000000000000000000, 0.0000000000000000000, 1.000000000000000000 ) ) ;
#345 = APPROVAL_PERSON_ORGANIZATION ( #342, #233, #169 ) ;
#346 = EDGE_LOOP ( 'NONE', ( #246 ) ) ;
#347 = DIRECTION ( 'NONE',  ( 0.0000000000000000000, 0.0000000000000000000, 1.000000000000000000 ) ) ;
#348 = ADVANCED_FACE ( 'NONE', ( #241, #190 ), #7, .F. ) ;
#349 = CARTESIAN_POINT ( 'NONE',  ( -0.02439415916691147629, 0.0000000000000000000, 0.0000000000000000000 ) ) ;
#350 = ADVANCED_FACE ( 'NONE', ( #140, #19 ), #270, .F. ) ;
#351 = EDGE_CURVE ( 'NONE', #363, #363, #171, .T. ) ;
#352 = CONICAL_SURFACE ( 'NONE', #72, 0.08300000000000018474, 0.7853981633974482790 ) ;
#353 = DIRECTION ( 'NONE',  ( -1.000000000000000000, -0.0000000000000000000, -0.0000000000000000000 ) ) ;
#354 = FACE_OUTER_BOUND ( 'NONE', #315, .T. ) ;
#355 = CARTESIAN_POINT ( 'NONE',  ( 0.4209999999999997078, -5.463695987328526437E-15, 0.0000000000000000000 ) ) ;
#356 = ADVANCED_FACE ( 'NONE', ( #13, #156 ), #162, .T. ) ;
#357 = AXIS2_PLACEMENT_3D ( 'NONE', #159, #199, #395 ) ;
#358 = CIRCLE ( 'NONE', #94, 0.06661768611174485877 ) ;
#359 = EDGE_LOOP ( 'NONE', ( #410 ) ) ;
#360 = DIRECTION ( 'NONE',  ( 0.0000000000000000000, 0.0000000000000000000, 1.000000000000000000 ) ) ;
#361 = DIRECTION ( 'NONE',  ( -1.000000000000000000, 0.0000000000000000000, -0.0000000000000000000 ) ) ;
#362 = APPROVAL_PERSON_ORGANIZATION ( #111, #69, #207 ) ;
#363 = VERTEX_POINT ( 'NONE', #15 ) ;
#364 = CIRCLE ( 'NONE', #10, 0.09600000000000029343 ) ;
#365 = EDGE_LOOP ( 'NONE', ( #114 ) ) ;
#366 = PERSON_AND_ORGANIZATION_ROLE ( 'creator' ) ;
#367 = APPLICATION_CONTEXT ( 'configuration controlled 3d designs of mechanical parts and assemblies' ) ;
#368 = FACE_OUTER_BOUND ( 'NONE', #106, .T. ) ;
#369 = DIRECTION ( 'NONE',  ( 1.000000000000000000, 0.0000000000000000000, 0.0000000000000000000 ) ) ;
#370 = ORIENTED_EDGE ( 'NONE', *, *, #262, .F. ) ;
#371 = ORIENTED_EDGE ( 'NONE', *, *, #201, .T. ) ;
#372 = MECHANICAL_CONTEXT ( 'NONE', #367, 'mechanical' ) ;
#373 = COORDINATED_UNIVERSAL_TIME_OFFSET ( 6, 0, .BEHIND. ) ;
#374 = VERTEX_POINT ( 'NONE', #335 ) ;
#375 = FACE_OUTER_BOUND ( 'NONE', #219, .T. ) ;
#376 = ORIENTED_EDGE ( 'NONE', *, *, #383, .F. ) ;
#377 = CC_DESIGN_PERSON_AND_ORGANIZATION_ASSIGNMENT ( #245, #78, ( #327 ) ) ;
#378 = DIRECTION ( 'NONE',  ( 0.0000000000000000000, 0.0000000000000000000, 1.000000000000000000 ) ) ;
#379 = AXIS2_PLACEMENT_3D ( 'NONE', #388, #328, #287 ) ;
#380 = FACE_OUTER_BOUND ( 'NONE', #141, .T. ) ;
#381 = ORIENTED_EDGE ( 'NONE', *, *, #191, .F. ) ;
#382 = CARTESIAN_POINT ( 'NONE',  ( 0.2667942286340611036, 0.0000000000000000000, 0.0000000000000000000 ) ) ;
#383 = EDGE_CURVE ( 'NONE', #337, #337, #265, .T. ) ;
#384 = AXIS2_PLACEMENT_3D ( 'NONE', #40, #11, #238 ) ;
#385 = FACE_OUTER_BOUND ( 'NONE', #359, .T. ) ;
#386 = EDGE_LOOP ( 'NONE', ( #320 ) ) ;
#387 = ADVANCED_FACE ( 'NONE', ( #150 ), #96, .F. ) ;
#388 = CARTESIAN_POINT ( 'NONE',  ( 1.549625000000000918, 0.0000000000000000000, 0.0000000000000000000 ) ) ;
#389 = DIMENSIONAL_EXPONENTS ( 1.000000000000000000, 0.0000000000000000000, 0.0000000000000000000, 0.0000000000000000000, 0.0000000000000000000, 0.0000000000000000000, 0.0000000000000000000 ) ;
#390 = DATE_AND_TIME ( #55, #307 ) ;
#391 = FACE_OUTER_BOUND ( 'NONE', #50, .T. ) ;
#392 = CARTESIAN_POINT ( 'NONE',  ( -0.09799999999999987887, 0.0000000000000000000, 0.0000000000000000000 ) ) ;
#393 = CC_DESIGN_APPROVAL ( #69, ( #276 ) ) ;
#394 = ORIENTED_EDGE ( 'NONE', *, *, #383, .T. ) ;
#395 = DIRECTION ( 'NONE',  ( 0.0000000000000000000, 0.0000000000000000000, 1.000000000000000000 ) ) ;
#396 = CARTESIAN_POINT ( 'NONE',  ( 0.6497492417502099826, 0.0000000000000000000, 0.0000000000000000000 ) ) ;
#397 = VERTEX_POINT ( 'NONE', #296 ) ;
#398 = FACE_BOUND ( 'NONE', #290, .T. ) ;
#399 = DIRECTION ( 'NONE',  ( -0.0000000000000000000, 0.0000000000000000000, -1.000000000000000000 ) ) ;
#400 = ORIENTED_EDGE ( 'NONE', *, *, #121, .T. ) ;
#401 = CARTESIAN_POINT ( 'NONE',  ( 0.0000000000000000000, 0.0000000000000000000, 0.1135000000000008502 ) ) ;
#402 = VERTEX_POINT ( 'NONE', #273 ) ;
#403 = APPLICATION_CONTEXT ( 'configuration controlled 3d designs of mechanical parts and assemblies' ) ;
#404 = CIRCLE ( 'NONE', #23, 0.09600000000000018241 ) ;
#405 = ORIENTED_EDGE ( 'NONE', *, *, #142, .T. ) ;
#406 = SECURITY_CLASSIFICATION_LEVEL ( 'unclassified' ) ;
#407 = PERSON_AND_ORGANIZATION_ROLE ( 'creator' ) ;
#408 = DATE_AND_TIME ( #70, #272 ) ;
#409 = EDGE_CURVE ( 'NONE', #248, #248, #33, .T. ) ;
#410 = ORIENTED_EDGE ( 'NONE', *, *, #191, .T. ) ;
#411 = APPROVAL_DATE_TIME ( #74, #233 ) ;
#412 = FACE_OUTER_BOUND ( 'NONE', #20, .T. ) ;
#413 = DIRECTION ( 'NONE',  ( -1.000000000000000000, -0.0000000000000000000, -0.0000000000000000000 ) ) ;
#414 = DIRECTION ( 'NONE',  ( 0.0000000000000000000, 0.0000000000000000000, -1.000000000000000000 ) ) ;
#415 = DIRECTION ( 'NONE',  ( 1.000000000000000000, 0.0000000000000000000, 0.0000000000000000000 ) ) ;
#416 = EDGE_LOOP ( 'NONE', ( #47 ) ) ;
#417 = DIRECTION ( 'NONE',  ( 0.0000000000000000000, 0.0000000000000000000, 1.000000000000000000 ) ) ;
#418 = DIRECTION ( 'NONE',  ( -1.000000000000000000, -0.0000000000000000000, -0.0000000000000000000 ) ) ;
ENDSEC;
END-ISO-10303-21;
