ISO-10303-21;
HEADER;
FILE_DESCRIPTION (( 'STEP AP203' ),
    '1' );
FILE_NAME ('C98LT-( )6-12.STEP',
    '2021-08-26T15:16:54',
    ( '' ),
    ( '' ),
    'SwSTEP 2.0',
    'SolidWorks 2018',
    '' );
FILE_SCHEMA (( 'CONFIG_CONTROL_DESIGN' ));
ENDSEC;

DATA;
#1 = LOCAL_TIME ( 10, 16, 54.00000000000000000, #250 ) ;
#2 = AXIS2_PLACEMENT_3D ( 'NONE', #130, #195, #163 ) ;
#3 = PRODUCT_DEFINITION_FORMATION_WITH_SPECIFIED_SOURCE ( 'ANY', '', #202, .NOT_KNOWN. ) ;
#4 = ORIENTED_EDGE ( 'NONE', *, *, #89, .T. ) ;
#5 = CARTESIAN_POINT ( 'NONE',  ( 1.086749241750210038, 0.0000000000000000000, 0.0000000000000000000 ) ) ;
#6 = CARTESIAN_POINT ( 'NONE',  ( 0.6870000000000000551, 0.0000000000000000000, 0.0000000000000000000 ) ) ;
#7 = DIRECTION ( 'NONE',  ( 0.0000000000000000000, 0.0000000000000000000, 1.000000000000000000 ) ) ;
#8 = CIRCLE ( 'NONE', #283, 0.08300000000000015699 ) ;
#9 =( GEOMETRIC_REPRESENTATION_CONTEXT ( 3 ) GLOBAL_UNCERTAINTY_ASSIGNED_CONTEXT ( ( #82 ) ) GLOBAL_UNIT_ASSIGNED_CONTEXT ( ( #411, #81, #243 ) ) REPRESENTATION_CONTEXT ( 'NONE', 'WORKASPACE' ) );
#10 = DIRECTION ( 'NONE',  ( -0.0000000000000000000, 0.0000000000000000000, 1.000000000000000000 ) ) ;
#11 = DIRECTION ( 'NONE',  ( -1.000000000000000000, -0.0000000000000000000, -0.0000000000000000000 ) ) ;
#12 = ORIENTED_EDGE ( 'NONE', *, *, #192, .F. ) ;
#13 = AXIS2_PLACEMENT_3D ( 'NONE', #6, #64, #258 ) ;
#14 = CC_DESIGN_PERSON_AND_ORGANIZATION_ASSIGNMENT ( #401, #212, ( #413 ) ) ;
#15 = PERSON_AND_ORGANIZATION_ROLE ( 'classification_officer' ) ;
#16 = VERTEX_POINT ( 'NONE', #17 ) ;
#17 = CARTESIAN_POINT ( 'NONE',  ( 1.018103199999999431, 0.0000000000000000000, 0.09149999999999983147 ) ) ;
#18 = EDGE_CURVE ( 'NONE', #304, #304, #154, .T. ) ;
#19 = APPROVAL_STATUS ( 'not_yet_approved' ) ;
#20 = CARTESIAN_POINT ( 'NONE',  ( 1.122372393447510275, 0.0000000000000000000, 0.08887499999999920464 ) ) ;
#21 = VERTEX_POINT ( 'NONE', #148 ) ;
#22 = CIRCLE ( 'NONE', #343, 0.08887499999999920464 ) ;
#23 = CC_DESIGN_PERSON_AND_ORGANIZATION_ASSIGNMENT ( #150, #299, ( #3 ) ) ;
#24 = EDGE_LOOP ( 'NONE', ( #12 ) ) ;
#25 = AXIS2_PLACEMENT_3D ( 'NONE', #169, #399, #200 ) ;
#26 = DESIGN_CONTEXT ( 'detailed design', #141, 'design' ) ;
#27 = APPROVAL ( #46, 'UNSPECIFIED' ) ;
#28 = AXIS2_PLACEMENT_3D ( 'NONE', #168, #37, #102 ) ;
#29 = ORIENTED_EDGE ( 'NONE', *, *, #352, .T. ) ;
#30 = AXIS2_PLACEMENT_3D ( 'NONE', #370, #323, #68 ) ;
#31 = VERTEX_POINT ( 'NONE', #206 ) ;
#32 = EDGE_CURVE ( 'NONE', #146, #146, #389, .T. ) ;
#33 = CARTESIAN_POINT ( 'NONE',  ( 1.122372393447510275, 0.0000000000000000000, 0.0000000000000000000 ) ) ;
#34 = AXIS2_PLACEMENT_3D ( 'NONE', #5, #264, #199 ) ;
#35 = CIRCLE ( 'NONE', #248, 0.08849999999999978717 ) ;
#36 = ADVANCED_FACE ( 'NONE', ( #180, #345 ), #412, .T. ) ;
#37 = DIRECTION ( 'NONE',  ( -1.000000000000000000, -0.0000000000000000000, -0.0000000000000000000 ) ) ;
#38 = DIRECTION ( 'NONE',  ( -1.000000000000000000, -0.0000000000000000000, -0.0000000000000000000 ) ) ;
#39 = EDGE_LOOP ( 'NONE', ( #52 ) ) ;
#40 = APPROVAL ( #79, 'UNSPECIFIED' ) ;
#41 = DIRECTION ( 'NONE',  ( -1.000000000000000000, 0.0000000000000000000, -0.0000000000000000000 ) ) ;
#42 = EDGE_CURVE ( 'NONE', #391, #391, #22, .T. ) ;
#43 = DIRECTION ( 'NONE',  ( 0.0000000000000000000, 0.0000000000000000000, 1.000000000000000000 ) ) ;
#44 = CARTESIAN_POINT ( 'NONE',  ( -0.09799999999999987887, 0.0000000000000000000, 0.0000000000000000000 ) ) ;
#45 = PERSON ( 'UNSPECIFIED', 'UNSPECIFIED', 'UNSPECIFIED', ('UNSPECIFIED'), ('UNSPECIFIED'), ('UNSPECIFIED') ) ;
#46 = APPROVAL_STATUS ( 'not_yet_approved' ) ;
#47 = SECURITY_CLASSIFICATION_LEVEL ( 'unclassified' ) ;
#48 = VERTEX_POINT ( 'NONE', #211 ) ;
#49 = CC_DESIGN_DATE_AND_TIME_ASSIGNMENT ( #293, #381, ( #413 ) ) ;
#50 = ORIENTED_EDGE ( 'NONE', *, *, #189, .F. ) ;
#51 = LOCAL_TIME ( 10, 16, 54.00000000000000000, #137 ) ;
#52 = ORIENTED_EDGE ( 'NONE', *, *, #352, .F. ) ;
#53 = APPLICATION_PROTOCOL_DEFINITION ( 'international standard', 'config_control_design', 1994, #141 ) ;
#54 = VERTEX_POINT ( 'NONE', #76 ) ;
#55 = CIRCLE ( 'NONE', #13, 0.09600000000000018241 ) ;
#56 = PERSON_AND_ORGANIZATION ( #45, #61 ) ;
#57 = FACE_OUTER_BOUND ( 'NONE', #39, .T. ) ;
#58 = EDGE_LOOP ( 'NONE', ( #4 ) ) ;
#59 = ADVANCED_FACE ( 'NONE', ( #120, #350 ), #218, .T. ) ;
#60 = AXIS2_PLACEMENT_3D ( 'NONE', #297, #365, #262 ) ;
#61 = ORGANIZATION ( 'UNSPECIFIED', 'UNSPECIFIED', '' ) ;
#62 = FACE_OUTER_BOUND ( 'NONE', #290, .T. ) ;
#63 = FACE_OUTER_BOUND ( 'NONE', #369, .T. ) ;
#64 = DIRECTION ( 'NONE',  ( -1.000000000000000000, -0.0000000000000000000, -0.0000000000000000000 ) ) ;
#65 = ADVANCED_FACE ( 'NONE', ( #101, #331 ), #247, .T. ) ;
#66 = ORIENTED_EDGE ( 'NONE', *, *, #32, .T. ) ;
#67 = DIRECTION ( 'NONE',  ( 0.0000000000000000000, 0.0000000000000000000, 1.000000000000000000 ) ) ;
#68 = DIRECTION ( 'NONE',  ( -0.0000000000000000000, 0.0000000000000000000, 1.000000000000000000 ) ) ;
#69 = CARTESIAN_POINT ( 'NONE',  ( 0.7037942286340612696, 0.0000000000000000000, 0.0000000000000000000 ) ) ;
#70 = CIRCLE ( 'NONE', #34, 0.08887499999999920464 ) ;
#71 = AXIS2_PLACEMENT_3D ( 'NONE', #406, #339, #142 ) ;
#72 = EDGE_LOOP ( 'NONE', ( #358 ) ) ;
#73 = CARTESIAN_POINT ( 'NONE',  ( 0.0000000000000000000, 0.0000000000000000000, 0.0000000000000000000 ) ) ;
#74 = APPROVAL_DATE_TIME ( #158, #361 ) ;
#75 = DIRECTION ( 'NONE',  ( 0.0000000000000000000, 0.0000000000000000000, 1.000000000000000000 ) ) ;
#76 = CARTESIAN_POINT ( 'NONE',  ( 0.7037942286340612696, 0.0000000000000000000, 0.09149999999999983147 ) ) ;
#77 = CIRCLE ( 'NONE', #344, 0.09149999999999983147 ) ;
#78 = AXIS2_PLACEMENT_3D ( 'NONE', #366, #237, #131 ) ;
#79 = APPROVAL_STATUS ( 'not_yet_approved' ) ;
#80 = ORIENTED_EDGE ( 'NONE', *, *, #286, .T. ) ;
#81 =( NAMED_UNIT ( * ) PLANE_ANGLE_UNIT ( ) SI_UNIT ( $, .RADIAN. ) );
#82 = UNCERTAINTY_MEASURE_WITH_UNIT (LENGTH_MEASURE( 1.000000000000000082E-05 ), #411, 'distance_accuracy_value', 'NONE');
#83 = CALENDAR_DATE ( 2021, 26, 8 ) ;
#84 = CYLINDRICAL_SURFACE ( 'NONE', #182, 0.09149999999999983147 ) ;
#85 = CC_DESIGN_PERSON_AND_ORGANIZATION_ASSIGNMENT ( #220, #15, ( #357 ) ) ;
#86 = EDGE_CURVE ( 'NONE', #48, #48, #8, .T. ) ;
#87 = EDGE_LOOP ( 'NONE', ( #415 ) ) ;
#88 = ADVANCED_BREP_SHAPE_REPRESENTATION ( 'C98LT-( )6-12', ( #265, #225 ), #9 ) ;
#89 = EDGE_CURVE ( 'NONE', #54, #54, #380, .T. ) ;
#90 = APPROVAL_PERSON_ORGANIZATION ( #255, #361, #178 ) ;
#91 = APPROVAL_ROLE ( '' ) ;
#92 = APPROVAL_DATE_TIME ( #103, #40 ) ;
#93 = ORIENTED_EDGE ( 'NONE', *, *, #18, .T. ) ;
#94 = PRODUCT_DEFINITION_SHAPE ( 'NONE', 'NONE',  #413 ) ;
#95 = EDGE_LOOP ( 'NONE', ( #118 ) ) ;
#96 = AXIS2_PLACEMENT_3D ( 'NONE', #348, #336, #404 ) ;
#97 = ADVANCED_FACE ( 'NONE', ( #184 ), #175, .T. ) ;
#98 = DIRECTION ( 'NONE',  ( 0.0000000000000000000, 0.0000000000000000000, 1.000000000000000000 ) ) ;
#99 = PLANE ( 'NONE',  #30 ) ;
#100 = CARTESIAN_POINT ( 'NONE',  ( -0.09799999999999987887, 0.0000000000000000000, 0.0000000000000000000 ) ) ;
#101 = FACE_OUTER_BOUND ( 'NONE', #272, .T. ) ;
#102 = DIRECTION ( 'NONE',  ( 0.0000000000000000000, 0.0000000000000000000, 1.000000000000000000 ) ) ;
#103 = DATE_AND_TIME ( #375, #384 ) ;
#104 = CC_DESIGN_DATE_AND_TIME_ASSIGNMENT ( #306, #183, ( #357 ) ) ;
#105 = CARTESIAN_POINT ( 'NONE',  ( 2.000625000000000764, 0.0000000000000000000, 0.0000000000000000000 ) ) ;
#106 = ORIENTED_EDGE ( 'NONE', *, *, #89, .F. ) ;
#107 = DIRECTION ( 'NONE',  ( -1.000000000000000000, -0.0000000000000000000, -0.0000000000000000000 ) ) ;
#108 = DIRECTION ( 'NONE',  ( -1.000000000000000000, -0.0000000000000000000, -0.0000000000000000000 ) ) ;
#109 = VERTEX_POINT ( 'NONE', #376 ) ;
#110 = CARTESIAN_POINT ( 'NONE',  ( 1.086749241750210038, 0.0000000000000000000, 0.08887499999999920464 ) ) ;
#111 = DIRECTION ( 'NONE',  ( 0.0000000000000000000, 0.0000000000000000000, 1.000000000000000000 ) ) ;
#112 =( LENGTH_UNIT ( ) NAMED_UNIT ( * ) SI_UNIT ( $, .METRE. ) );
#113 = APPLICATION_PROTOCOL_DEFINITION ( 'international standard', 'config_control_design', 1994, #269 ) ;
#114 = CARTESIAN_POINT ( 'NONE',  ( -0.04989925765862024409, 0.0000000000000000000, 0.2182083617475689130 ) ) ;
#115 = CIRCLE ( 'NONE', #388, 0.09600000000000029343 ) ;
#116 = PRODUCT_RELATED_PRODUCT_CATEGORY ( 'detail', '', ( #202 ) ) ;
#117 = CIRCLE ( 'NONE', #96, 0.04080021993141041275 ) ;
#118 = ORIENTED_EDGE ( 'NONE', *, *, #189, .T. ) ;
#119 = VERTEX_POINT ( 'NONE', #302 ) ;
#120 = FACE_BOUND ( 'NONE', #187, .T. ) ;
#121 = AXIS2_PLACEMENT_3D ( 'NONE', #44, #233, #129 ) ;
#122 = FACE_OUTER_BOUND ( 'NONE', #385, .T. ) ;
#123 = FACE_OUTER_BOUND ( 'NONE', #171, .T. ) ;
#124 = ORIENTED_EDGE ( 'NONE', *, *, #18, .F. ) ;
#125 = ORIENTED_EDGE ( 'NONE', *, *, #86, .F. ) ;
#126 = ADVANCED_FACE ( 'NONE', ( #151, #373 ), #167, .T. ) ;
#127 = CARTESIAN_POINT ( 'NONE',  ( 2.028999999999999915, 0.0000000000000000000, 0.0000000000000000000 ) ) ;
#128 = ADVANCED_FACE ( 'NONE', ( #312, #273 ), #396, .F. ) ;
#129 = DIRECTION ( 'NONE',  ( 0.0000000000000000000, 0.0000000000000000000, 1.000000000000000000 ) ) ;
#130 = CARTESIAN_POINT ( 'NONE',  ( -0.09799999999999987887, 0.0000000000000000000, 0.0000000000000000000 ) ) ;
#131 = DIRECTION ( 'NONE',  ( 0.0000000000000000000, 0.0000000000000000000, -1.000000000000000000 ) ) ;
#132 = APPROVAL_PERSON_ORGANIZATION ( #193, #40, #91 ) ;
#133 = CARTESIAN_POINT ( 'NONE',  ( 0.0000000000000000000, 0.1135000000000008502, 0.0000000000000000000 ) ) ;
#134 = EDGE_LOOP ( 'NONE', ( #177 ) ) ;
#135 = DIRECTION ( 'NONE',  ( -1.000000000000000000, -0.0000000000000000000, -0.0000000000000000000 ) ) ;
#136 = CARTESIAN_POINT ( 'NONE',  ( 0.0000000000000000000, 0.0000000000000000000, 0.2203580774721002611 ) ) ;
#137 = COORDINATED_UNIVERSAL_TIME_OFFSET ( 6, 0, .BEHIND. ) ;
#138 = CARTESIAN_POINT ( 'NONE',  ( -0.09799999999999987887, 0.0000000000000000000, 0.0000000000000000000 ) ) ;
#139 = DIRECTION ( 'NONE',  ( -1.000000000000000000, -0.0000000000000000000, -0.0000000000000000000 ) ) ;
#140 = FACE_OUTER_BOUND ( 'NONE', #354, .T. ) ;
#141 = APPLICATION_CONTEXT ( 'configuration controlled 3d designs of mechanical parts and assemblies' ) ;
#142 = DIRECTION ( 'NONE',  ( 0.0000000000000000000, 0.0000000000000000000, 1.000000000000000000 ) ) ;
#143 = EDGE_LOOP ( 'NONE', ( #418 ) ) ;
#144 = CARTESIAN_POINT ( 'NONE',  ( 0.7037942286340612696, 0.0000000000000000000, 0.0000000000000000000 ) ) ;
#145 = CARTESIAN_POINT ( 'NONE',  ( 1.061187427762690705, 0.0000000000000000000, 0.04080021993141041275 ) ) ;
#146 = VERTEX_POINT ( 'NONE', #136 ) ;
#147 = CIRCLE ( 'NONE', #337, 0.06661768611174485877 ) ;
#148 = CARTESIAN_POINT ( 'NONE',  ( 1.041744895712757080, 0.0000000000000000000, 0.04080021993141041969 ) ) ;
#149 = ORIENTED_EDGE ( 'NONE', *, *, #330, .F. ) ;
#150 = PERSON_AND_ORGANIZATION ( #45, #61 ) ;
#151 = FACE_OUTER_BOUND ( 'NONE', #157, .T. ) ;
#152 = AXIS2_PLACEMENT_3D ( 'NONE', #230, #197, #67 ) ;
#153 = DIRECTION ( 'NONE',  ( 1.000000000000000000, 0.0000000000000000000, 0.0000000000000000000 ) ) ;
#154 = CIRCLE ( 'NONE', #185, 0.08300000000000018474 ) ;
#155 = PERSON_AND_ORGANIZATION ( #45, #61 ) ;
#156 = FACE_BOUND ( 'NONE', #179, .T. ) ;
#157 = EDGE_LOOP ( 'NONE', ( #50 ) ) ;
#158 = DATE_AND_TIME ( #232, #1 ) ;
#159 = CYLINDRICAL_SURFACE ( 'NONE', #223, 0.04080021993141041969 ) ;
#160 = CARTESIAN_POINT ( 'NONE',  ( 1.041744895712757080, 0.0000000000000000000, 0.0000000000000000000 ) ) ;
#161 = EDGE_LOOP ( 'NONE', ( #29 ) ) ;
#162 = CARTESIAN_POINT ( 'NONE',  ( 1.122372393447510275, 0.0000000000000000000, 0.0000000000000000000 ) ) ;
#163 = DIRECTION ( 'NONE',  ( 0.0000000000000000000, 0.0000000000000000000, 1.000000000000000000 ) ) ;
#164 = AXIS2_PLACEMENT_3D ( 'NONE', #201, #41, #10 ) ;
#165 = DIRECTION ( 'NONE',  ( -0.0000000000000000000, 0.0000000000000000000, 1.000000000000000000 ) ) ;
#166 = LOCAL_TIME ( 10, 16, 54.00000000000000000, #328 ) ;
#167 = CYLINDRICAL_SURFACE ( 'NONE', #319, 0.08887499999999920464 ) ;
#168 = CARTESIAN_POINT ( 'NONE',  ( -0.02439415916691147629, 0.0000000000000000000, 0.0000000000000000000 ) ) ;
#169 = CARTESIAN_POINT ( 'NONE',  ( 0.01749999999999837796, 0.0000000000000000000, 0.0000000000000000000 ) ) ;
#170 = DIRECTION ( 'NONE',  ( 0.0000000000000000000, 0.0000000000000000000, 1.000000000000000000 ) ) ;
#171 = EDGE_LOOP ( 'NONE', ( #80 ) ) ;
#172 = APPROVAL_ROLE ( '' ) ;
#173 = DIRECTION ( 'NONE',  ( -1.000000000000000000, -0.0000000000000000000, -0.0000000000000000000 ) ) ;
#174 = MECHANICAL_CONTEXT ( 'NONE', #269, 'mechanical' ) ;
#175 = SPHERICAL_SURFACE ( 'NONE', #394, 0.5189999999999995728 ) ;
#176 = DIRECTION ( 'NONE',  ( 0.0000000000000000000, 0.0000000000000000000, 1.000000000000000000 ) ) ;
#177 = ORIENTED_EDGE ( 'NONE', *, *, #286, .F. ) ;
#178 = APPROVAL_ROLE ( '' ) ;
#179 = EDGE_LOOP ( 'NONE', ( #317 ) ) ;
#180 = FACE_OUTER_BOUND ( 'NONE', #134, .T. ) ;
#181 = ORIENTED_EDGE ( 'NONE', *, *, #330, .T. ) ;
#182 = AXIS2_PLACEMENT_3D ( 'NONE', #236, #296, #111 ) ;
#183 = DATE_TIME_ROLE ( 'classification_date' ) ;
#184 = FACE_OUTER_BOUND ( 'NONE', #72, .T. ) ;
#185 = AXIS2_PLACEMENT_3D ( 'NONE', #105, #135, #98 ) ;
#186 = PERSON_AND_ORGANIZATION ( #45, #61 ) ;
#187 = EDGE_LOOP ( 'NONE', ( #263 ) ) ;
#188 = EDGE_LOOP ( 'NONE', ( #310 ) ) ;
#189 = EDGE_CURVE ( 'NONE', #349, #349, #70, .T. ) ;
#190 = CIRCLE ( 'NONE', #371, 0.08849999999999988431 ) ;
#191 = ADVANCED_FACE ( 'NONE', ( #57, #256 ), #241, .T. ) ;
#192 = EDGE_CURVE ( 'NONE', #21, #21, #338, .T. ) ;
#193 = PERSON_AND_ORGANIZATION ( #45, #61 ) ;
#194 = DIMENSIONAL_EXPONENTS ( 1.000000000000000000, 0.0000000000000000000, 0.0000000000000000000, 0.0000000000000000000, 0.0000000000000000000, 0.0000000000000000000, 0.0000000000000000000 ) ;
#195 = DIRECTION ( 'NONE',  ( -1.000000000000000000, -0.0000000000000000000, -0.0000000000000000000 ) ) ;
#196 = ADVANCED_FACE ( 'NONE', ( #62, #356 ), #84, .T. ) ;
#197 = DIRECTION ( 'NONE',  ( -1.000000000000000000, -0.0000000000000000000, -0.0000000000000000000 ) ) ;
#198 = DIRECTION ( 'NONE',  ( 0.0000000000000000000, 0.0000000000000000000, 1.000000000000000000 ) ) ;
#199 = DIRECTION ( 'NONE',  ( 0.0000000000000000000, 0.0000000000000000000, 1.000000000000000000 ) ) ;
#200 = DIRECTION ( 'NONE',  ( 0.0000000000000000000, 0.0000000000000000000, 1.000000000000000000 ) ) ;
#201 = CARTESIAN_POINT ( 'NONE',  ( 1.122372393447510275, 0.08887499999999920464, 0.0000000000000000000 ) ) ;
#202 = PRODUCT ( 'C98LT-( )6-12', 'C98LT-( )6-12', '', ( #174 ) ) ;
#203 = DIRECTION ( 'NONE',  ( 0.0000000000000000000, 0.0000000000000000000, 1.000000000000000000 ) ) ;
#204 = FACE_OUTER_BOUND ( 'NONE', #143, .T. ) ;
#205 = CARTESIAN_POINT ( 'NONE',  ( 1.987625000000000641, 0.0000000000000000000, 0.0000000000000000000 ) ) ;
#206 = CARTESIAN_POINT ( 'NONE',  ( 1.982125000000001025, 0.0000000000000000000, 0.08849999999999988431 ) ) ;
#207 = AXIS2_PLACEMENT_3D ( 'NONE', #160, #364, #367 ) ;
#208 = CARTESIAN_POINT ( 'NONE',  ( 1.041744895712757080, 0.0000000000000000000, 0.0000000000000000000 ) ) ;
#209 = DIRECTION ( 'NONE',  ( 0.0000000000000000000, 0.0000000000000000000, 1.000000000000000000 ) ) ;
#210 = ORIENTED_EDGE ( 'NONE', *, *, #314, .T. ) ;
#211 = CARTESIAN_POINT ( 'NONE',  ( 1.987625000000000641, 0.0000000000000000000, 0.08300000000000015699 ) ) ;
#212 = PERSON_AND_ORGANIZATION_ROLE ( 'creator' ) ;
#213 = CONICAL_SURFACE ( 'NONE', #207, 0.04080021993141041969, 1.134464013796310677 ) ;
#214 = AXIS2_PLACEMENT_3D ( 'NONE', #73, #173, #75 ) ;
#215 = EDGE_LOOP ( 'NONE', ( #210 ) ) ;
#216 = ORIENTED_EDGE ( 'NONE', *, *, #32, .F. ) ;
#217 = APPROVAL_DATE_TIME ( #246, #27 ) ;
#218 = CONICAL_SURFACE ( 'NONE', #78, 0.08887499999999920464, 1.082104136236495595 ) ;
#219 = EDGE_CURVE ( 'NONE', #119, #119, #402, .T. ) ;
#220 = PERSON_AND_ORGANIZATION ( #45, #61 ) ;
#221 = FACE_OUTER_BOUND ( 'NONE', #87, .T. ) ;
#222 = ADVANCED_FACE ( 'NONE', ( #204, #251 ), #295, .T. ) ;
#223 = AXIS2_PLACEMENT_3D ( 'NONE', #100, #139, #327 ) ;
#224 = ORIENTED_EDGE ( 'NONE', *, *, #219, .T. ) ;
#225 = AXIS2_PLACEMENT_3D ( 'NONE', #240, #340, #153 ) ;
#226 = ADVANCED_FACE ( 'NONE', ( #271, #156 ), #318, .T. ) ;
#227 = CIRCLE ( 'NONE', #60, 0.2182083617475689130 ) ;
#228 = PLANE ( 'NONE',  #267 ) ;
#229 = ADVANCED_FACE ( 'NONE', ( #140, #234 ), #284, .T. ) ;
#230 = CARTESIAN_POINT ( 'NONE',  ( 0.0000000000000000000, 0.0000000000000000000, 0.0000000000000000000 ) ) ;
#231 = DIRECTION ( 'NONE',  ( 0.0000000000000000000, 0.0000000000000000000, 1.000000000000000000 ) ) ;
#232 = CALENDAR_DATE ( 2021, 26, 8 ) ;
#233 = DIRECTION ( 'NONE',  ( -1.000000000000000000, -0.0000000000000000000, -0.0000000000000000000 ) ) ;
#234 = FACE_BOUND ( 'NONE', #368, .T. ) ;
#235 = CC_DESIGN_PERSON_AND_ORGANIZATION_ASSIGNMENT ( #155, #249, ( #202 ) ) ;
#236 = CARTESIAN_POINT ( 'NONE',  ( -0.09799999999999987887, 0.0000000000000000000, 0.0000000000000000000 ) ) ;
#237 = DIRECTION ( 'NONE',  ( 1.000000000000000000, 0.0000000000000000000, 0.0000000000000000000 ) ) ;
#238 = EDGE_LOOP ( 'NONE', ( #224 ) ) ;
#239 = DIRECTION ( 'NONE',  ( -1.000000000000000000, -0.0000000000000000000, -0.0000000000000000000 ) ) ;
#240 = CARTESIAN_POINT ( 'NONE',  ( 0.0000000000000000000, 0.0000000000000000000, 0.0000000000000000000 ) ) ;
#241 = CYLINDRICAL_SURFACE ( 'NONE', #382, 0.08849999999999984268 ) ;
#242 = PERSON_AND_ORGANIZATION_ROLE ( 'creator' ) ;
#243 =( NAMED_UNIT ( * ) SI_UNIT ( $, .STERADIAN. ) SOLID_ANGLE_UNIT ( ) );
#244 = EDGE_LOOP ( 'NONE', ( #149 ) ) ;
#245 = EDGE_CURVE ( 'NONE', #31, #31, #190, .T. ) ;
#246 = DATE_AND_TIME ( #83, #166 ) ;
#247 = TOROIDAL_SURFACE ( 'NONE', #28, 0.2063896432688867300, 0.02811035673110731659 ) ;
#248 = AXIS2_PLACEMENT_3D ( 'NONE', #33, #107, #198 ) ;
#249 = PERSON_AND_ORGANIZATION_ROLE ( 'design_owner' ) ;
#250 = COORDINATED_UNIVERSAL_TIME_OFFSET ( 6, 0, .BEHIND. ) ;
#251 = FACE_BOUND ( 'NONE', #58, .T. ) ;
#252 = CALENDAR_DATE ( 2021, 26, 8 ) ;
#253 = CLOSED_SHELL ( 'NONE', ( #65, #97, #287, #229, #281, #226, #191, #128, #126, #59, #359, #257, #196, #222, #36, #390, #362 ) ) ;
#254 = VERTEX_POINT ( 'NONE', #145 ) ;
#255 = PERSON_AND_ORGANIZATION ( #45, #61 ) ;
#256 = FACE_OUTER_BOUND ( 'NONE', #378, .T. ) ;
#257 = ADVANCED_FACE ( 'NONE', ( #221, #383 ), #213, .T. ) ;
#258 = DIRECTION ( 'NONE',  ( 0.0000000000000000000, 0.0000000000000000000, 1.000000000000000000 ) ) ;
#259 = DIRECTION ( 'NONE',  ( 0.0000000000000000000, 0.0000000000000000000, 1.000000000000000000 ) ) ;
#260 = DIRECTION ( 'NONE',  ( 0.0000000000000000000, 1.000000000000000000, 0.0000000000000000000 ) ) ;
#261 = CARTESIAN_POINT ( 'NONE',  ( 0.01749999999999837796, 0.0000000000000000000, 0.0000000000000000000 ) ) ;
#262 = DIRECTION ( 'NONE',  ( 0.0000000000000000000, 0.0000000000000000000, 1.000000000000000000 ) ) ;
#263 = ORIENTED_EDGE ( 'NONE', *, *, #400, .F. ) ;
#264 = DIRECTION ( 'NONE',  ( -1.000000000000000000, -0.0000000000000000000, -0.0000000000000000000 ) ) ;
#265 = MANIFOLD_SOLID_BREP ( 'Revolve1', #253 ) ;
#266 = CARTESIAN_POINT ( 'NONE',  ( 2.000625000000000764, 0.0000000000000000000, 0.08300000000000018474 ) ) ;
#267 = AXIS2_PLACEMENT_3D ( 'NONE', #133, #332, #165 ) ;
#268 = ORIENTED_EDGE ( 'NONE', *, *, #414, .T. ) ;
#269 = APPLICATION_CONTEXT ( 'configuration controlled 3d designs of mechanical parts and assemblies' ) ;
#270 = CARTESIAN_POINT ( 'NONE',  ( 1.122372393447510275, 0.0000000000000000000, 0.08849999999999978717 ) ) ;
#271 = FACE_OUTER_BOUND ( 'NONE', #307, .T. ) ;
#272 = EDGE_LOOP ( 'NONE', ( #277 ) ) ;
#273 = FACE_BOUND ( 'NONE', #161, .T. ) ;
#274 = FACE_BOUND ( 'NONE', #238, .T. ) ;
#275 = CARTESIAN_POINT ( 'NONE',  ( 0.6870000000000000551, 0.0000000000000000000, 0.09600000000000018241 ) ) ;
#276 = SHAPE_DEFINITION_REPRESENTATION ( #94, #88 ) ;
#277 = ORIENTED_EDGE ( 'NONE', *, *, #301, .F. ) ;
#278 = CYLINDRICAL_SURFACE ( 'NONE', #2, 0.08300000000000018474 ) ;
#279 = ORIENTED_EDGE ( 'NONE', *, *, #192, .T. ) ;
#280 = LENGTH_MEASURE_WITH_UNIT ( LENGTH_MEASURE( 0.02539999999999999897 ), #112 );
#281 = ADVANCED_FACE ( 'NONE', ( #360, #309 ), #278, .T. ) ;
#282 = ORIENTED_EDGE ( 'NONE', *, *, #245, .T. ) ;
#283 = AXIS2_PLACEMENT_3D ( 'NONE', #205, #329, #231 ) ;
#284 = CONICAL_SURFACE ( 'NONE', #346, 0.06661768611174485877, 0.5235987755983040337 ) ;
#285 = CARTESIAN_POINT ( 'NONE',  ( 1.982125000000001025, 0.0000000000000000000, 0.0000000000000000000 ) ) ;
#286 = EDGE_CURVE ( 'NONE', #387, #387, #115, .T. ) ;
#287 = ADVANCED_FACE ( 'NONE', ( #377 ), #99, .F. ) ;
#288 = DIRECTION ( 'NONE',  ( -1.000000000000000000, -0.0000000000000000000, -0.0000000000000000000 ) ) ;
#289 = CARTESIAN_POINT ( 'NONE',  ( -0.09799999999999987887, 0.0000000000000000000, 0.0000000000000000000 ) ) ;
#290 = EDGE_LOOP ( 'NONE', ( #106 ) ) ;
#291 = DIRECTION ( 'NONE',  ( 0.0000000000000000000, 0.0000000000000000000, 1.000000000000000000 ) ) ;
#292 = AXIS2_PLACEMENT_3D ( 'NONE', #208, #239, #176 ) ;
#293 = DATE_AND_TIME ( #410, #322 ) ;
#294 = CC_DESIGN_SECURITY_CLASSIFICATION ( #357, ( #3 ) ) ;
#295 = CONICAL_SURFACE ( 'NONE', #408, 0.09149999999999983147, 0.2617993877991505181 ) ;
#296 = DIRECTION ( 'NONE',  ( -1.000000000000000000, -0.0000000000000000000, -0.0000000000000000000 ) ) ;
#297 = CARTESIAN_POINT ( 'NONE',  ( -0.04989925765862024409, 0.0000000000000000000, 0.0000000000000000000 ) ) ;
#298 = DIRECTION ( 'NONE',  ( 0.0000000000000000000, 0.0000000000000000000, 1.000000000000000000 ) ) ;
#299 = PERSON_AND_ORGANIZATION_ROLE ( 'design_supplier' ) ;
#300 = DIRECTION ( 'NONE',  ( -1.000000000000000000, -0.0000000000000000000, -0.0000000000000000000 ) ) ;
#301 = EDGE_CURVE ( 'NONE', #379, #379, #227, .T. ) ;
#302 = CARTESIAN_POINT ( 'NONE',  ( 0.0000000000000000000, 0.0000000000000000000, 0.1135000000000008502 ) ) ;
#303 = AXIS2_PLACEMENT_3D ( 'NONE', #69, #333, #324 ) ;
#304 = VERTEX_POINT ( 'NONE', #266 ) ;
#305 = CARTESIAN_POINT ( 'NONE',  ( 0.01749999999999837796, 0.0000000000000000000, 0.09600000000000029343 ) ) ;
#306 = DATE_AND_TIME ( #252, #51 ) ;
#307 = EDGE_LOOP ( 'NONE', ( #326 ) ) ;
#308 = COORDINATED_UNIVERSAL_TIME_OFFSET ( 6, 0, .BEHIND. ) ;
#309 = FACE_OUTER_BOUND ( 'NONE', #353, .T. ) ;
#310 = ORIENTED_EDGE ( 'NONE', *, *, #219, .F. ) ;
#311 = APPROVAL_PERSON_ORGANIZATION ( #56, #27, #172 ) ;
#312 = FACE_OUTER_BOUND ( 'NONE', #416, .T. ) ;
#313 = FACE_OUTER_BOUND ( 'NONE', #188, .T. ) ;
#314 = EDGE_CURVE ( 'NONE', #355, #355, #55, .T. ) ;
#315 = COORDINATED_UNIVERSAL_TIME_OFFSET ( 6, 0, .BEHIND. ) ;
#316 = EDGE_LOOP ( 'NONE', ( #268 ) ) ;
#317 = ORIENTED_EDGE ( 'NONE', *, *, #86, .T. ) ;
#318 = CONICAL_SURFACE ( 'NONE', #71, 0.08300000000000015699, 0.7853981633974498333 ) ;
#319 = AXIS2_PLACEMENT_3D ( 'NONE', #289, #288, #170 ) ;
#320 = CC_DESIGN_APPROVAL ( #40, ( #357 ) ) ;
#321 = EDGE_LOOP ( 'NONE', ( #279 ) ) ;
#322 = LOCAL_TIME ( 10, 16, 54.00000000000000000, #308 ) ;
#323 = DIRECTION ( 'NONE',  ( -1.000000000000000000, 0.0000000000000000000, -0.0000000000000000000 ) ) ;
#324 = DIRECTION ( 'NONE',  ( 0.0000000000000000000, 0.0000000000000000000, 1.000000000000000000 ) ) ;
#325 = DIRECTION ( 'NONE',  ( 0.0000000000000000000, 0.0000000000000000000, 1.000000000000000000 ) ) ;
#326 = ORIENTED_EDGE ( 'NONE', *, *, #245, .F. ) ;
#327 = DIRECTION ( 'NONE',  ( 0.0000000000000000000, 0.0000000000000000000, 1.000000000000000000 ) ) ;
#328 = COORDINATED_UNIVERSAL_TIME_OFFSET ( 6, 0, .BEHIND. ) ;
#329 = DIRECTION ( 'NONE',  ( -1.000000000000000000, -0.0000000000000000000, -0.0000000000000000000 ) ) ;
#330 = EDGE_CURVE ( 'NONE', #109, #109, #147, .T. ) ;
#331 = FACE_OUTER_BOUND ( 'NONE', #386, .T. ) ;
#332 = DIRECTION ( 'NONE',  ( -1.000000000000000000, 0.0000000000000000000, -0.0000000000000000000 ) ) ;
#333 = DIRECTION ( 'NONE',  ( -1.000000000000000000, -0.0000000000000000000, -0.0000000000000000000 ) ) ;
#334 = ORIENTED_EDGE ( 'NONE', *, *, #42, .F. ) ;
#335 = CARTESIAN_POINT ( 'NONE',  ( 2.028999999999999915, 0.0000000000000000000, 0.0000000000000000000 ) ) ;
#336 = DIRECTION ( 'NONE',  ( -1.000000000000000000, -0.0000000000000000000, -0.0000000000000000000 ) ) ;
#337 = AXIS2_PLACEMENT_3D ( 'NONE', #127, #38, #325 ) ;
#338 = CIRCLE ( 'NONE', #292, 0.04080021993141041969 ) ;
#339 = DIRECTION ( 'NONE',  ( -1.000000000000000000, -0.0000000000000000000, -0.0000000000000000000 ) ) ;
#340 = DIRECTION ( 'NONE',  ( 0.0000000000000000000, 0.0000000000000000000, 1.000000000000000000 ) ) ;
#341 = ORIENTED_EDGE ( 'NONE', *, *, #42, .T. ) ;
#342 = ORIENTED_EDGE ( 'NONE', *, *, #400, .T. ) ;
#343 = AXIS2_PLACEMENT_3D ( 'NONE', #162, #398, #259 ) ;
#344 = AXIS2_PLACEMENT_3D ( 'NONE', #407, #108, #209 ) ;
#345 = FACE_OUTER_BOUND ( 'NONE', #215, .T. ) ;
#346 = AXIS2_PLACEMENT_3D ( 'NONE', #335, #374, #7 ) ;
#347 = CC_DESIGN_PERSON_AND_ORGANIZATION_ASSIGNMENT ( #186, #242, ( #3 ) ) ;
#348 = CARTESIAN_POINT ( 'NONE',  ( 1.061187427762690705, 0.0000000000000000000, 0.0000000000000000000 ) ) ;
#349 = VERTEX_POINT ( 'NONE', #110 ) ;
#350 = FACE_OUTER_BOUND ( 'NONE', #95, .T. ) ;
#351 = TOROIDAL_SURFACE ( 'NONE', #25, 0.1134999999999986714, 0.01749999999999837796 ) ;
#352 = EDGE_CURVE ( 'NONE', #372, #372, #35, .T. ) ;
#353 = EDGE_LOOP ( 'NONE', ( #93 ) ) ;
#354 = EDGE_LOOP ( 'NONE', ( #124 ) ) ;
#355 = VERTEX_POINT ( 'NONE', #275 ) ;
#356 = FACE_OUTER_BOUND ( 'NONE', #316, .T. ) ;
#357 = SECURITY_CLASSIFICATION ( '', '', #47 ) ;
#358 = ORIENTED_EDGE ( 'NONE', *, *, #301, .T. ) ;
#359 = ADVANCED_FACE ( 'NONE', ( #392, #122 ), #159, .T. ) ;
#360 = FACE_OUTER_BOUND ( 'NONE', #397, .T. ) ;
#361 = APPROVAL ( #19, 'UNSPECIFIED' ) ;
#362 = ADVANCED_FACE ( 'NONE', ( #63, #274 ), #228, .F. ) ;
#363 = DIRECTION ( 'NONE',  ( -1.000000000000000000, -0.0000000000000000000, -0.0000000000000000000 ) ) ;
#364 = DIRECTION ( 'NONE',  ( -1.000000000000000000, -0.0000000000000000000, -0.0000000000000000000 ) ) ;
#365 = DIRECTION ( 'NONE',  ( -1.000000000000000000, -0.0000000000000000000, -0.0000000000000000000 ) ) ;
#366 = CARTESIAN_POINT ( 'NONE',  ( 1.086749241750210038, 0.0000000000000000000, 0.0000000000000000000 ) ) ;
#367 = DIRECTION ( 'NONE',  ( 0.0000000000000000000, 0.0000000000000000000, 1.000000000000000000 ) ) ;
#368 = EDGE_LOOP ( 'NONE', ( #181 ) ) ;
#369 = EDGE_LOOP ( 'NONE', ( #216 ) ) ;
#370 = CARTESIAN_POINT ( 'NONE',  ( 2.028999999999999915, 0.06661768611174485877, 0.0000000000000000000 ) ) ;
#371 = AXIS2_PLACEMENT_3D ( 'NONE', #285, #363, #203 ) ;
#372 = VERTEX_POINT ( 'NONE', #270 ) ;
#373 = FACE_OUTER_BOUND ( 'NONE', #405, .T. ) ;
#374 = DIRECTION ( 'NONE',  ( -1.000000000000000000, -0.0000000000000000000, -0.0000000000000000000 ) ) ;
#375 = CALENDAR_DATE ( 2021, 26, 8 ) ;
#376 = CARTESIAN_POINT ( 'NONE',  ( 2.028999999999999915, 0.0000000000000000000, 0.06661768611174485877 ) ) ;
#377 = FACE_OUTER_BOUND ( 'NONE', #244, .T. ) ;
#378 = EDGE_LOOP ( 'NONE', ( #282 ) ) ;
#379 = VERTEX_POINT ( 'NONE', #114 ) ;
#380 = CIRCLE ( 'NONE', #303, 0.09149999999999983147 ) ;
#381 = DATE_TIME_ROLE ( 'creation_date' ) ;
#382 = AXIS2_PLACEMENT_3D ( 'NONE', #138, #11, #43 ) ;
#383 = FACE_BOUND ( 'NONE', #321, .T. ) ;
#384 = LOCAL_TIME ( 10, 16, 54.00000000000000000, #315 ) ;
#385 = EDGE_LOOP ( 'NONE', ( #342 ) ) ;
#386 = EDGE_LOOP ( 'NONE', ( #66 ) ) ;
#387 = VERTEX_POINT ( 'NONE', #305 ) ;
#388 = AXIS2_PLACEMENT_3D ( 'NONE', #261, #393, #291 ) ;
#389 = CIRCLE ( 'NONE', #152, 0.2203580774721002611 ) ;
#390 = ADVANCED_FACE ( 'NONE', ( #313, #123 ), #351, .F. ) ;
#391 = VERTEX_POINT ( 'NONE', #20 ) ;
#392 = FACE_OUTER_BOUND ( 'NONE', #24, .T. ) ;
#393 = DIRECTION ( 'NONE',  ( -1.000000000000000000, -0.0000000000000000000, -0.0000000000000000000 ) ) ;
#394 = AXIS2_PLACEMENT_3D ( 'NONE', #403, #395, #260 ) ;
#395 = DIRECTION ( 'NONE',  ( -0.0000000000000000000, 0.0000000000000000000, -1.000000000000000000 ) ) ;
#396 = PLANE ( 'NONE',  #164 ) ;
#397 = EDGE_LOOP ( 'NONE', ( #125 ) ) ;
#398 = DIRECTION ( 'NONE',  ( -1.000000000000000000, -0.0000000000000000000, -0.0000000000000000000 ) ) ;
#399 = DIRECTION ( 'NONE',  ( -1.000000000000000000, -0.0000000000000000000, -0.0000000000000000000 ) ) ;
#400 = EDGE_CURVE ( 'NONE', #254, #254, #117, .T. ) ;
#401 = PERSON_AND_ORGANIZATION ( #45, #61 ) ;
#402 = CIRCLE ( 'NONE', #214, 0.1135000000000008502 ) ;
#403 = CARTESIAN_POINT ( 'NONE',  ( 0.4209999999999997078, -5.463695987328526437E-15, 0.0000000000000000000 ) ) ;
#404 = DIRECTION ( 'NONE',  ( 0.0000000000000000000, 0.0000000000000000000, 1.000000000000000000 ) ) ;
#405 = EDGE_LOOP ( 'NONE', ( #341 ) ) ;
#406 = CARTESIAN_POINT ( 'NONE',  ( 1.987625000000000641, 0.0000000000000000000, 0.0000000000000000000 ) ) ;
#407 = CARTESIAN_POINT ( 'NONE',  ( 1.018103199999999431, 0.0000000000000000000, 0.0000000000000000000 ) ) ;
#408 = AXIS2_PLACEMENT_3D ( 'NONE', #144, #300, #298 ) ;
#409 = CC_DESIGN_APPROVAL ( #361, ( #413 ) ) ;
#410 = CALENDAR_DATE ( 2021, 26, 8 ) ;
#411 =( CONVERSION_BASED_UNIT ( 'INCH', #280 ) LENGTH_UNIT ( ) NAMED_UNIT ( #194 ) );
#412 = CYLINDRICAL_SURFACE ( 'NONE', #121, 0.09600000000000023792 ) ;
#413 = PRODUCT_DEFINITION ( 'UNKNOWN', '', #3, #26 ) ;
#414 = EDGE_CURVE ( 'NONE', #16, #16, #77, .T. ) ;
#415 = ORIENTED_EDGE ( 'NONE', *, *, #414, .F. ) ;
#416 = EDGE_LOOP ( 'NONE', ( #334 ) ) ;
#417 = CC_DESIGN_APPROVAL ( #27, ( #3 ) ) ;
#418 = ORIENTED_EDGE ( 'NONE', *, *, #314, .F. ) ;
ENDSEC;
END-ISO-10303-21;
