ISO-10303-21;
HEADER;
/* Generated by software containing ST-Developer
 * from STEP Tools, Inc. (www.steptools.com) 
 */
/* OPTION: using custom schema-name function */

FILE_DESCRIPTION(
/* description */ (''),
/* implementation_level */ '2;1');

FILE_NAME(
/* name */ '99-7881_CLR.stp',
/* time_stamp */ '2010-11-23T10:49:42-05:00',
/* author */ (''),
/* organization */ (''),
/* preprocessor_version */ 'ST-DEVELOPER v11',
/* originating_system */ 'SIEMENS PLM Software NX 7.0',
/* authorisation */ '');

FILE_SCHEMA (('AUTOMOTIVE_DESIGN { 1 0 10303 214 1 1 1 1 }'));
ENDSEC;

DATA;
#10=SHAPE_REPRESENTATION_RELATIONSHIP('None',
'relationship between 99-7881_CLR-None and 99-7881_CLR-None',#22,#11);
#11=ADVANCED_BREP_SHAPE_REPRESENTATION('99-7881_CLR-None',(#32),#425);
#12=SHAPE_DEFINITION_REPRESENTATION(#13,#22);
#13=PRODUCT_DEFINITION_SHAPE('','',#14);
#14=PRODUCT_DEFINITION(' ','',#16,#15);
#15=PRODUCT_DEFINITION_CONTEXT('part definition',#21,'design');
#16=PRODUCT_DEFINITION_FORMATION_WITH_SPECIFIED_SOURCE(' ',' ',#18,.NOT_KNOWN.);
#17=PRODUCT_RELATED_PRODUCT_CATEGORY('part','',(#18));
#18=PRODUCT('99-7881_CLR','99-7881_CLR',' ',(#19));
#19=PRODUCT_CONTEXT(' ',#21,'mechanical');
#20=APPLICATION_PROTOCOL_DEFINITION('international standard',
'automotive_design',2001,#21);
#21=APPLICATION_CONTEXT(
'core data for automotive mechanical design processes');
#22=SHAPE_REPRESENTATION('99-7881_CLR-None',(#245),#425);
#23=PRESENTATION_LAYER_ASSIGNMENT('1','Layer 1',(#32));
#24=STYLED_ITEM('',(#25),#32);
#25=PRESENTATION_STYLE_ASSIGNMENT((#26));
#26=SURFACE_STYLE_USAGE(.BOTH.,#27);
#27=SURFACE_SIDE_STYLE('',(#28));
#28=SURFACE_STYLE_FILL_AREA(#29);
#29=FILL_AREA_STYLE('',(#30));
#30=FILL_AREA_STYLE_COLOUR('',#31);
#31=COLOUR_RGB('Orange',0.843121995880064,0.541161211566339,0.317631799801633);
#32=MANIFOLD_SOLID_BREP('',#33);
#33=CLOSED_SHELL('',(#87,#88,#89,#90,#91,#92,#93,#94,#95,#96,#97,#98,#99,
#100,#101,#102,#103,#104,#105,#106));
#34=TOROIDAL_SURFACE('',#259,0.72025,0.125);
#35=TOROIDAL_SURFACE('',#273,0.74875,0.03);
#36=TOROIDAL_SURFACE('',#274,0.73875,0.03);
#37=TOROIDAL_SURFACE('',#275,0.73875,0.03);
#38=TOROIDAL_SURFACE('',#284,0.75,0.125);
#39=CONICAL_SURFACE('',#257,0.71675,45.);
#40=CONICAL_SURFACE('',#261,0.74675,45.0000000000002);
#41=CONICAL_SURFACE('',#266,0.70875,45.0000000000002);
#42=CONICAL_SURFACE('',#268,0.74675,45.0000000000001);
#43=CONICAL_SURFACE('',#272,0.71875,45.0000000000005);
#44=CONICAL_SURFACE('',#282,0.645,79.9999999999999);
#45=CONICAL_SURFACE('',#283,0.875,45.0000000000004);
#46=CYLINDRICAL_SURFACE('',#252,0.74675);
#47=CYLINDRICAL_SURFACE('',#255,0.74675);
#48=CYLINDRICAL_SURFACE('',#264,0.70875);
#49=CYLINDRICAL_SURFACE('',#271,0.71875);
#50=CYLINDRICAL_SURFACE('',#280,0.875);
#51=FACE_BOUND('',#114,.T.);
#52=FACE_BOUND('',#115,.T.);
#53=FACE_BOUND('',#116,.T.);
#54=FACE_BOUND('',#117,.T.);
#55=FACE_BOUND('',#118,.T.);
#56=FACE_BOUND('',#119,.T.);
#57=FACE_BOUND('',#120,.T.);
#58=FACE_BOUND('',#121,.T.);
#59=FACE_BOUND('',#122,.T.);
#60=FACE_BOUND('',#123,.T.);
#61=FACE_BOUND('',#124,.T.);
#62=FACE_BOUND('',#125,.T.);
#63=FACE_BOUND('',#126,.T.);
#64=FACE_BOUND('',#127,.T.);
#65=FACE_BOUND('',#128,.T.);
#66=FACE_BOUND('',#129,.T.);
#67=FACE_BOUND('',#130,.T.);
#68=FACE_BOUND('',#131,.T.);
#69=FACE_BOUND('',#132,.T.);
#70=FACE_BOUND('',#133,.T.);
#71=FACE_BOUND('',#134,.T.);
#72=FACE_BOUND('',#135,.T.);
#73=FACE_BOUND('',#136,.T.);
#74=FACE_BOUND('',#137,.T.);
#75=FACE_BOUND('',#138,.T.);
#76=FACE_BOUND('',#139,.T.);
#77=FACE_BOUND('',#140,.T.);
#78=FACE_BOUND('',#141,.T.);
#79=FACE_BOUND('',#142,.T.);
#80=FACE_BOUND('',#143,.T.);
#81=FACE_BOUND('',#144,.T.);
#82=FACE_BOUND('',#145,.T.);
#83=FACE_BOUND('',#146,.T.);
#84=FACE_BOUND('',#147,.T.);
#85=FACE_BOUND('',#148,.T.);
#86=FACE_BOUND('',#149,.T.);
#87=ADVANCED_FACE('',(#110),#107,.T.);
#88=ADVANCED_FACE('',(#111),#108,.T.);
#89=ADVANCED_FACE('',(#51,#52),#46,.T.);
#90=ADVANCED_FACE('',(#53,#54),#47,.T.);
#91=ADVANCED_FACE('',(#55,#56),#39,.T.);
#92=ADVANCED_FACE('',(#57,#58),#34,.F.);
#93=ADVANCED_FACE('',(#59,#60),#40,.T.);
#94=ADVANCED_FACE('',(#61,#62),#48,.T.);
#95=ADVANCED_FACE('',(#63,#64),#41,.T.);
#96=ADVANCED_FACE('',(#65,#66),#42,.T.);
#97=ADVANCED_FACE('',(#67,#68),#49,.T.);
#98=ADVANCED_FACE('',(#69,#70),#43,.T.);
#99=ADVANCED_FACE('',(#71,#72),#35,.F.);
#100=ADVANCED_FACE('',(#73,#74),#36,.F.);
#101=ADVANCED_FACE('',(#75,#76),#37,.F.);
#102=ADVANCED_FACE('',(#77,#78),#109,.T.);
#103=ADVANCED_FACE('',(#79,#80),#50,.T.);
#104=ADVANCED_FACE('',(#81,#82),#44,.T.);
#105=ADVANCED_FACE('',(#83,#84),#45,.T.);
#106=ADVANCED_FACE('',(#85,#86),#38,.T.);
#107=PLANE('',#247);
#108=PLANE('',#249);
#109=PLANE('',#277);
#110=FACE_OUTER_BOUND('',#112,.T.);
#111=FACE_OUTER_BOUND('',#113,.T.);
#112=EDGE_LOOP('',(#150));
#113=EDGE_LOOP('',(#151));
#114=EDGE_LOOP('',(#152));
#115=EDGE_LOOP('',(#153));
#116=EDGE_LOOP('',(#154));
#117=EDGE_LOOP('',(#155));
#118=EDGE_LOOP('',(#156));
#119=EDGE_LOOP('',(#157));
#120=EDGE_LOOP('',(#158));
#121=EDGE_LOOP('',(#159));
#122=EDGE_LOOP('',(#160));
#123=EDGE_LOOP('',(#161));
#124=EDGE_LOOP('',(#162));
#125=EDGE_LOOP('',(#163));
#126=EDGE_LOOP('',(#164));
#127=EDGE_LOOP('',(#165));
#128=EDGE_LOOP('',(#166));
#129=EDGE_LOOP('',(#167));
#130=EDGE_LOOP('',(#168));
#131=EDGE_LOOP('',(#169));
#132=EDGE_LOOP('',(#170));
#133=EDGE_LOOP('',(#171));
#134=EDGE_LOOP('',(#172));
#135=EDGE_LOOP('',(#173));
#136=EDGE_LOOP('',(#174));
#137=EDGE_LOOP('',(#175));
#138=EDGE_LOOP('',(#176));
#139=EDGE_LOOP('',(#177));
#140=EDGE_LOOP('',(#178));
#141=EDGE_LOOP('',(#179));
#142=EDGE_LOOP('',(#180));
#143=EDGE_LOOP('',(#181));
#144=EDGE_LOOP('',(#182));
#145=EDGE_LOOP('',(#183));
#146=EDGE_LOOP('',(#184));
#147=EDGE_LOOP('',(#185));
#148=EDGE_LOOP('',(#186));
#149=EDGE_LOOP('',(#187));
#150=ORIENTED_EDGE('',*,*,#207,.T.);
#151=ORIENTED_EDGE('',*,*,#208,.T.);
#152=ORIENTED_EDGE('',*,*,#209,.F.);
#153=ORIENTED_EDGE('',*,*,#210,.T.);
#154=ORIENTED_EDGE('',*,*,#211,.T.);
#155=ORIENTED_EDGE('',*,*,#212,.T.);
#156=ORIENTED_EDGE('',*,*,#211,.F.);
#157=ORIENTED_EDGE('',*,*,#213,.F.);
#158=ORIENTED_EDGE('',*,*,#214,.T.);
#159=ORIENTED_EDGE('',*,*,#213,.T.);
#160=ORIENTED_EDGE('',*,*,#215,.T.);
#161=ORIENTED_EDGE('',*,*,#212,.F.);
#162=ORIENTED_EDGE('',*,*,#216,.T.);
#163=ORIENTED_EDGE('',*,*,#217,.T.);
#164=ORIENTED_EDGE('',*,*,#218,.T.);
#165=ORIENTED_EDGE('',*,*,#209,.T.);
#166=ORIENTED_EDGE('',*,*,#219,.T.);
#167=ORIENTED_EDGE('',*,*,#210,.F.);
#168=ORIENTED_EDGE('',*,*,#220,.T.);
#169=ORIENTED_EDGE('',*,*,#221,.T.);
#170=ORIENTED_EDGE('',*,*,#208,.F.);
#171=ORIENTED_EDGE('',*,*,#221,.F.);
#172=ORIENTED_EDGE('',*,*,#220,.F.);
#173=ORIENTED_EDGE('',*,*,#219,.F.);
#174=ORIENTED_EDGE('',*,*,#218,.F.);
#175=ORIENTED_EDGE('',*,*,#216,.F.);
#176=ORIENTED_EDGE('',*,*,#217,.F.);
#177=ORIENTED_EDGE('',*,*,#215,.F.);
#178=ORIENTED_EDGE('',*,*,#222,.T.);
#179=ORIENTED_EDGE('',*,*,#214,.F.);
#180=ORIENTED_EDGE('',*,*,#223,.T.);
#181=ORIENTED_EDGE('',*,*,#224,.T.);
#182=ORIENTED_EDGE('',*,*,#225,.T.);
#183=ORIENTED_EDGE('',*,*,#207,.F.);
#184=ORIENTED_EDGE('',*,*,#222,.F.);
#185=ORIENTED_EDGE('',*,*,#224,.F.);
#186=ORIENTED_EDGE('',*,*,#223,.F.);
#187=ORIENTED_EDGE('',*,*,#225,.F.);
#188=VERTEX_POINT('',#367);
#189=VERTEX_POINT('',#370);
#190=VERTEX_POINT('',#373);
#191=VERTEX_POINT('',#375);
#192=VERTEX_POINT('',#378);
#193=VERTEX_POINT('',#380);
#194=VERTEX_POINT('',#383);
#195=VERTEX_POINT('',#386);
#196=VERTEX_POINT('',#389);
#197=VERTEX_POINT('',#392);
#198=VERTEX_POINT('',#394);
#199=VERTEX_POINT('',#397);
#200=VERTEX_POINT('',#400);
#201=VERTEX_POINT('',#403);
#202=VERTEX_POINT('',#405);
#203=VERTEX_POINT('',#412);
#204=VERTEX_POINT('',#415);
#205=VERTEX_POINT('',#417);
#206=VERTEX_POINT('',#420);
#207=EDGE_CURVE('',#188,#188,#226,.T.);
#208=EDGE_CURVE('',#189,#189,#227,.T.);
#209=EDGE_CURVE('',#190,#190,#228,.T.);
#210=EDGE_CURVE('',#191,#191,#229,.T.);
#211=EDGE_CURVE('',#192,#192,#230,.T.);
#212=EDGE_CURVE('',#193,#193,#231,.T.);
#213=EDGE_CURVE('',#194,#194,#232,.T.);
#214=EDGE_CURVE('',#195,#195,#233,.T.);
#215=EDGE_CURVE('',#196,#196,#234,.T.);
#216=EDGE_CURVE('',#197,#197,#235,.T.);
#217=EDGE_CURVE('',#198,#198,#236,.T.);
#218=EDGE_CURVE('',#199,#199,#237,.T.);
#219=EDGE_CURVE('',#200,#200,#238,.T.);
#220=EDGE_CURVE('',#201,#201,#239,.T.);
#221=EDGE_CURVE('',#202,#202,#240,.T.);
#222=EDGE_CURVE('',#203,#203,#241,.T.);
#223=EDGE_CURVE('',#204,#204,#242,.T.);
#224=EDGE_CURVE('',#205,#205,#243,.T.);
#225=EDGE_CURVE('',#206,#206,#244,.T.);
#226=CIRCLE('',#246,0.645);
#227=CIRCLE('',#248,0.71125);
#228=CIRCLE('',#250,0.74675);
#229=CIRCLE('',#251,0.74675);
#230=CIRCLE('',#253,0.74675);
#231=CIRCLE('',#254,0.74675);
#232=CIRCLE('',#256,0.71675);
#233=CIRCLE('',#258,0.671145317862299);
#234=CIRCLE('',#260,0.717536796564404);
#235=CIRCLE('',#262,0.70875);
#236=CIRCLE('',#263,0.70875);
#237=CIRCLE('',#265,0.717536796564404);
#238=CIRCLE('',#267,0.727536796564403);
#239=CIRCLE('',#269,0.71875);
#240=CIRCLE('',#270,0.71875);
#241=CIRCLE('',#276,0.855);
#242=CIRCLE('',#278,0.875);
#243=CIRCLE('',#279,0.875);
#244=CIRCLE('',#281,0.771706022208366);
#245=AXIS2_PLACEMENT_3D('',#365,#285,#286);
#246=AXIS2_PLACEMENT_3D('',#366,#287,#288);
#247=AXIS2_PLACEMENT_3D('',#368,#289,#290);
#248=AXIS2_PLACEMENT_3D('',#369,#291,#292);
#249=AXIS2_PLACEMENT_3D('',#371,#293,#294);
#250=AXIS2_PLACEMENT_3D('',#372,#295,#296);
#251=AXIS2_PLACEMENT_3D('',#374,#297,#298);
#252=AXIS2_PLACEMENT_3D('',#376,#299,#300);
#253=AXIS2_PLACEMENT_3D('',#377,#301,#302);
#254=AXIS2_PLACEMENT_3D('',#379,#303,#304);
#255=AXIS2_PLACEMENT_3D('',#381,#305,#306);
#256=AXIS2_PLACEMENT_3D('',#382,#307,#308);
#257=AXIS2_PLACEMENT_3D('',#384,#309,#310);
#258=AXIS2_PLACEMENT_3D('',#385,#311,#312);
#259=AXIS2_PLACEMENT_3D('',#387,#313,#314);
#260=AXIS2_PLACEMENT_3D('',#388,#315,#316);
#261=AXIS2_PLACEMENT_3D('',#390,#317,#318);
#262=AXIS2_PLACEMENT_3D('',#391,#319,#320);
#263=AXIS2_PLACEMENT_3D('',#393,#321,#322);
#264=AXIS2_PLACEMENT_3D('',#395,#323,#324);
#265=AXIS2_PLACEMENT_3D('',#396,#325,#326);
#266=AXIS2_PLACEMENT_3D('',#398,#327,#328);
#267=AXIS2_PLACEMENT_3D('',#399,#329,#330);
#268=AXIS2_PLACEMENT_3D('',#401,#331,#332);
#269=AXIS2_PLACEMENT_3D('',#402,#333,#334);
#270=AXIS2_PLACEMENT_3D('',#404,#335,#336);
#271=AXIS2_PLACEMENT_3D('',#406,#337,#338);
#272=AXIS2_PLACEMENT_3D('',#407,#339,#340);
#273=AXIS2_PLACEMENT_3D('',#408,#341,#342);
#274=AXIS2_PLACEMENT_3D('',#409,#343,#344);
#275=AXIS2_PLACEMENT_3D('',#410,#345,#346);
#276=AXIS2_PLACEMENT_3D('',#411,#347,#348);
#277=AXIS2_PLACEMENT_3D('',#413,#349,#350);
#278=AXIS2_PLACEMENT_3D('',#414,#351,#352);
#279=AXIS2_PLACEMENT_3D('',#416,#353,#354);
#280=AXIS2_PLACEMENT_3D('',#418,#355,#356);
#281=AXIS2_PLACEMENT_3D('',#419,#357,#358);
#282=AXIS2_PLACEMENT_3D('',#421,#359,#360);
#283=AXIS2_PLACEMENT_3D('',#422,#361,#362);
#284=AXIS2_PLACEMENT_3D('',#423,#363,#364);
#285=DIRECTION('',(0.,0.,1.));
#286=DIRECTION('',(1.,0.,0.));
#287=DIRECTION('',(0.,1.,0.));
#288=DIRECTION('',(-0.866025403784439,0.,0.5));
#289=DIRECTION('',(0.,1.,0.));
#290=DIRECTION('',(0.,0.,1.));
#291=DIRECTION('',(0.,-1.,0.));
#292=DIRECTION('',(-0.866025403784439,0.,0.5));
#293=DIRECTION('',(0.,-1.,0.));
#294=DIRECTION('',(0.,0.,-1.));
#295=DIRECTION('',(0.,1.,0.));
#296=DIRECTION('',(0.866025403784439,0.,-0.5));
#297=DIRECTION('',(0.,1.,0.));
#298=DIRECTION('',(0.866025403784439,0.,-0.5));
#299=DIRECTION('',(0.,1.,0.));
#300=DIRECTION('',(0.866025403784439,0.,-0.5));
#301=DIRECTION('',(0.,-1.,0.));
#302=DIRECTION('',(0.866025403784439,0.,-0.5));
#303=DIRECTION('',(0.,1.,0.));
#304=DIRECTION('',(0.866025403784439,0.,-0.5));
#305=DIRECTION('',(0.,1.,0.));
#306=DIRECTION('',(0.866025403784439,0.,-0.5));
#307=DIRECTION('',(0.,1.,0.));
#308=DIRECTION('',(0.866025403784439,0.,-0.5));
#309=DIRECTION('',(0.,-1.,0.));
#310=DIRECTION('',(-0.866025403784439,0.,0.5));
#311=DIRECTION('',(0.,-1.,0.));
#312=DIRECTION('',(0.,0.,1.));
#313=DIRECTION('',(0.,-1.,0.));
#314=DIRECTION('',(-0.866025403784439,0.,0.5));
#315=DIRECTION('',(0.,1.,0.));
#316=DIRECTION('',(0.866025403784439,0.,-0.5));
#317=DIRECTION('',(0.,1.,0.));
#318=DIRECTION('',(0.866025403784439,1.36194613555265E-017,-0.5));
#319=DIRECTION('',(0.,1.,0.));
#320=DIRECTION('',(0.866025403784439,0.,-0.5));
#321=DIRECTION('',(0.,-1.,0.));
#322=DIRECTION('',(0.866025403784439,0.,-0.5));
#323=DIRECTION('',(0.,1.,0.));
#324=DIRECTION('',(0.866025403784439,0.,-0.5));
#325=DIRECTION('',(0.,-1.,0.));
#326=DIRECTION('',(-0.866025403784439,0.,0.5));
#327=DIRECTION('',(0.,-1.,0.));
#328=DIRECTION('',(-0.866025403784439,5.45294975833869E-017,0.5));
#329=DIRECTION('',(0.,1.,0.));
#330=DIRECTION('',(0.866025403784439,0.,-0.5));
#331=DIRECTION('',(0.,1.,0.));
#332=DIRECTION('',(0.866025403784439,1.36194613555265E-017,-0.5));
#333=DIRECTION('',(0.,-1.,0.));
#334=DIRECTION('',(0.866025403784439,0.,-0.5));
#335=DIRECTION('',(0.,1.,0.));
#336=DIRECTION('',(-0.866025403784439,0.,0.5));
#337=DIRECTION('',(0.,1.,0.));
#338=DIRECTION('',(0.866025403784439,0.,-0.5));
#339=DIRECTION('',(0.,1.,0.));
#340=DIRECTION('',(0.866025403784439,-1.36289738538941E-017,-0.5));
#341=DIRECTION('',(0.,1.,0.));
#342=DIRECTION('',(0.866025403784439,0.,-0.5));
#343=DIRECTION('',(0.,1.,0.));
#344=DIRECTION('',(0.866025403784439,0.,-0.5));
#345=DIRECTION('',(0.,1.,0.));
#346=DIRECTION('',(0.866025403784439,0.,-0.5));
#347=DIRECTION('',(0.,-1.,0.));
#348=DIRECTION('',(0.866025403784439,0.,-0.5));
#349=DIRECTION('',(0.,-1.,0.));
#350=DIRECTION('',(0.866025403784439,0.,-0.5));
#351=DIRECTION('',(0.,-1.,0.));
#352=DIRECTION('',(0.866025403784439,0.,-0.5));
#353=DIRECTION('',(0.,1.,0.));
#354=DIRECTION('',(0.866025403784439,0.,-0.5));
#355=DIRECTION('',(0.,1.,0.));
#356=DIRECTION('',(-0.866025403784439,0.,0.5));
#357=DIRECTION('',(0.,1.,0.));
#358=DIRECTION('',(-0.866025403784439,0.,0.5));
#359=DIRECTION('',(0.,-1.,0.));
#360=DIRECTION('',(0.866025403784439,4.87995978945444E-018,-0.5));
#361=DIRECTION('',(0.,1.,0.));
#362=DIRECTION('',(-0.866025403784439,4.41221946004024E-017,0.5));
#363=DIRECTION('',(0.,-1.,0.));
#364=DIRECTION('',(0.866025403784439,0.,-0.5));
#365=CARTESIAN_POINT('',(0.,0.,0.));
#366=CARTESIAN_POINT('',(0.,2.25,0.));
#367=CARTESIAN_POINT('',(-0.558586385440963,2.25,0.3225));
#368=CARTESIAN_POINT('',(0.,2.25,0.));
#369=CARTESIAN_POINT('',(0.,-5.55111512312578E-017,0.));
#370=CARTESIAN_POINT('',(-0.615960568441682,-5.55111512312578E-017,0.355625));
#371=CARTESIAN_POINT('',(0.,-5.55111512312578E-017,0.));
#372=CARTESIAN_POINT('',(0.,0.806,0.));
#373=CARTESIAN_POINT('',(0.64670447027603,0.806,-0.373375));
#374=CARTESIAN_POINT('',(0.,0.484,0.));
#375=CARTESIAN_POINT('',(0.64670447027603,0.484,-0.373375));
#376=CARTESIAN_POINT('',(0.,2.64332570141505,0.));
#377=CARTESIAN_POINT('',(0.,1.15,0.));
#378=CARTESIAN_POINT('',(0.64670447027603,1.15,-0.373375));
#379=CARTESIAN_POINT('',(0.,0.992,0.));
#380=CARTESIAN_POINT('',(0.64670447027603,0.992,-0.373375));
#381=CARTESIAN_POINT('',(0.,2.64332570141505,0.));
#382=CARTESIAN_POINT('',(0.,1.18,0.));
#383=CARTESIAN_POINT('',(0.620723708162497,1.18,-0.358375));
#384=CARTESIAN_POINT('',(0.,1.18,0.));
#385=CARTESIAN_POINT('',(0.,1.19,0.));
#386=CARTESIAN_POINT('',(0.,1.19,0.671145317862299));
#387=CARTESIAN_POINT('',(0.,1.30495099039223,0.));
#388=CARTESIAN_POINT('',(0.,0.962786796564404,0.));
#389=CARTESIAN_POINT('',(0.62140509397488,0.962786796564404,-0.358768398282202));
#390=CARTESIAN_POINT('',(0.,0.992,0.));
#391=CARTESIAN_POINT('',(0.,0.856426406871193,0.));
#392=CARTESIAN_POINT('',(0.613795504932221,0.856426406871193,-0.354375));
#393=CARTESIAN_POINT('',(0.,0.941573593128808,0.));
#394=CARTESIAN_POINT('',(0.613795504932221,0.941573593128808,-0.354375));
#395=CARTESIAN_POINT('',(0.,2.64332570141505,0.));
#396=CARTESIAN_POINT('',(0.,0.835213203435596,0.));
#397=CARTESIAN_POINT('',(-0.62140509397488,0.835213203435596,0.358768398282202));
#398=CARTESIAN_POINT('',(0.,0.844,0.));
#399=CARTESIAN_POINT('',(0.,0.464786796564404,0.));
#400=CARTESIAN_POINT('',(0.630065348012725,0.464786796564404,-0.363768398282201));
#401=CARTESIAN_POINT('',(0.,0.484,0.));
#402=CARTESIAN_POINT('',(0.,0.443573593128807,0.));
#403=CARTESIAN_POINT('',(0.622455758970065,0.443573593128807,-0.359375));
#404=CARTESIAN_POINT('',(0.,0.00749999999999985,0.));
#405=CARTESIAN_POINT('',(-0.622455758970065,0.00749999999999985,0.359375));
#406=CARTESIAN_POINT('',(0.,2.64332570141505,0.));
#407=CARTESIAN_POINT('',(0.,0.00749999999999985,0.));
#408=CARTESIAN_POINT('',(0.,0.443573593128807,0.));
#409=CARTESIAN_POINT('',(0.,0.856426406871193,0.));
#410=CARTESIAN_POINT('',(0.,0.941573593128808,0.));
#411=CARTESIAN_POINT('',(0.,1.19,0.));
#412=CARTESIAN_POINT('',(0.740451720235695,1.19,-0.4275));
#413=CARTESIAN_POINT('',(0.757772228311384,1.19,-0.4375));
#414=CARTESIAN_POINT('',(0.,2.10455734053989,0.));
#415=CARTESIAN_POINT('',(0.757772228311384,2.10455734053989,-0.4375));
#416=CARTESIAN_POINT('',(0.,1.21,0.));
#417=CARTESIAN_POINT('',(0.757772228311384,1.21,-0.4375));
#418=CARTESIAN_POINT('',(0.,3.83332570141505,0.));
#419=CARTESIAN_POINT('',(0.,2.22765830966642,0.));
#420=CARTESIAN_POINT('',(-0.668317019485884,2.22765830966642,0.385853011104183));
#421=CARTESIAN_POINT('',(0.,2.25,0.));
#422=CARTESIAN_POINT('',(0.,1.21,0.));
#423=CARTESIAN_POINT('',(0.,2.10455734053989,0.));
#424=MECHANICAL_DESIGN_GEOMETRIC_PRESENTATION_REPRESENTATION('',(#24),#425);
#425=(
GEOMETRIC_REPRESENTATION_CONTEXT(3)
GLOBAL_UNCERTAINTY_ASSIGNED_CONTEXT((#426))
GLOBAL_UNIT_ASSIGNED_CONTEXT((#431,#428,#427))
REPRESENTATION_CONTEXT('99-7881_CLR','TOP_LEVEL_ASSEMBLY_PART')
);
#426=UNCERTAINTY_MEASURE_WITH_UNIT(LENGTH_MEASURE(7.8740157480315E-007),
#431,'DISTANCE_ACCURACY_VALUE','Maximum Tolerance applied to model');
#427=(
NAMED_UNIT(*)
SI_UNIT($,.STERADIAN.)
SOLID_ANGLE_UNIT()
);
#428=(
CONVERSION_BASED_UNIT('DEGREE',#429)
NAMED_UNIT(#433)
PLANE_ANGLE_UNIT()
);
#429=PLANE_ANGLE_MEASURE_WITH_UNIT(PLANE_ANGLE_MEASURE(0.0174532925),#430);
#430=(
NAMED_UNIT(*)
PLANE_ANGLE_UNIT()
SI_UNIT($,.RADIAN.)
);
#431=(
CONVERSION_BASED_UNIT('INCH',#434)
LENGTH_UNIT()
NAMED_UNIT(#432)
);
#432=DIMENSIONAL_EXPONENTS(1.,0.,0.,0.,0.,0.,0.);
#433=DIMENSIONAL_EXPONENTS(0.,0.,0.,0.,0.,0.,0.);
#434=LENGTH_MEASURE_WITH_UNIT(LENGTH_MEASURE(25.4),#435);
#435=(
LENGTH_UNIT()
NAMED_UNIT(*)
SI_UNIT(.MILLI.,.METRE.)
);
ENDSEC;
END-ISO-10303-21;
