ISO-10303-21;
HEADER;
/* Generated by software containing ST-Developer
 * from STEP Tools, Inc. (www.steptools.com) 
 */
/* OPTION: using custom schema-name function */

FILE_DESCRIPTION(
/* description */ (''),
/* implementation_level */ '2;1');

FILE_NAME(
/* name */ '99-7832_CLR.stp',
/* time_stamp */ '2011-09-01T09:02:38-04:00',
/* author */ (''),
/* organization */ (''),
/* preprocessor_version */ 'ST-DEVELOPER v11',
/* originating_system */ 'SIEMENS PLM Software NX 7.5',
/* authorisation */ '');

FILE_SCHEMA (('CONFIG_CONTROL_DESIGN'));
ENDSEC;

DATA;
#10=SHAPE_REPRESENTATION_RELATIONSHIP('None',
'relationship between 99-7832-None and 99-7832-None',#94,#11);
#11=ADVANCED_BREP_SHAPE_REPRESENTATION('99-7832-None',(#95),#703);
#12=CC_DESIGN_APPROVAL(#24,(#82));
#13=CC_DESIGN_APPROVAL(#25,(#84));
#14=CC_DESIGN_APPROVAL(#26,(#31));
#15=APPROVAL_PERSON_ORGANIZATION(#69,#24,#18);
#16=APPROVAL_PERSON_ORGANIZATION(#70,#25,#19);
#17=APPROVAL_PERSON_ORGANIZATION(#71,#26,#20);
#18=APPROVAL_ROLE('approver');
#19=APPROVAL_ROLE('approver');
#20=APPROVAL_ROLE('approver');
#21=APPROVAL_DATE_TIME(#39,#24);
#22=APPROVAL_DATE_TIME(#40,#25);
#23=APPROVAL_DATE_TIME(#41,#26);
#24=APPROVAL(#27,' ');
#25=APPROVAL(#28,' ');
#26=APPROVAL(#29,' ');
#27=APPROVAL_STATUS('not_yet_approved');
#28=APPROVAL_STATUS('not_yet_approved');
#29=APPROVAL_STATUS('not_yet_approved');
#30=CC_DESIGN_SECURITY_CLASSIFICATION(#31,(#84));
#31=SECURITY_CLASSIFICATION(' ',' ',#32);
#32=SECURITY_CLASSIFICATION_LEVEL('confidential');
#33=CC_DESIGN_DATE_AND_TIME_ASSIGNMENT(#37,#35,(#82));
#34=CC_DESIGN_DATE_AND_TIME_ASSIGNMENT(#38,#36,(#31));
#35=DATE_TIME_ROLE('creation_date');
#36=DATE_TIME_ROLE('classification_date');
#37=DATE_AND_TIME(#52,#42);
#38=DATE_AND_TIME(#53,#43);
#39=DATE_AND_TIME(#54,#44);
#40=DATE_AND_TIME(#55,#45);
#41=DATE_AND_TIME(#56,#46);
#42=LOCAL_TIME(0,0,0.,#47);
#43=LOCAL_TIME(0,0,0.,#48);
#44=LOCAL_TIME(0,0,0.,#49);
#45=LOCAL_TIME(0,0,0.,#50);
#46=LOCAL_TIME(0,0,0.,#51);
#47=COORDINATED_UNIVERSAL_TIME_OFFSET(0,0,.BEHIND.);
#48=COORDINATED_UNIVERSAL_TIME_OFFSET(0,0,.BEHIND.);
#49=COORDINATED_UNIVERSAL_TIME_OFFSET(0,0,.BEHIND.);
#50=COORDINATED_UNIVERSAL_TIME_OFFSET(0,0,.BEHIND.);
#51=COORDINATED_UNIVERSAL_TIME_OFFSET(0,0,.BEHIND.);
#52=CALENDAR_DATE(0,1,1);
#53=CALENDAR_DATE(0,1,1);
#54=CALENDAR_DATE(0,1,1);
#55=CALENDAR_DATE(0,1,1);
#56=CALENDAR_DATE(0,1,1);
#57=CC_DESIGN_PERSON_AND_ORGANIZATION_ASSIGNMENT(#65,#61,(#82,#84));
#58=CC_DESIGN_PERSON_AND_ORGANIZATION_ASSIGNMENT(#66,#62,(#86));
#59=CC_DESIGN_PERSON_AND_ORGANIZATION_ASSIGNMENT(#67,#63,(#84));
#60=CC_DESIGN_PERSON_AND_ORGANIZATION_ASSIGNMENT(#68,#64,(#31));
#61=PERSON_AND_ORGANIZATION_ROLE('creator');
#62=PERSON_AND_ORGANIZATION_ROLE('design_owner');
#63=PERSON_AND_ORGANIZATION_ROLE('design_supplier');
#64=PERSON_AND_ORGANIZATION_ROLE('classification_officer');
#65=PERSON_AND_ORGANIZATION(#79,#72);
#66=PERSON_AND_ORGANIZATION(#79,#73);
#67=PERSON_AND_ORGANIZATION(#79,#74);
#68=PERSON_AND_ORGANIZATION(#79,#75);
#69=PERSON_AND_ORGANIZATION(#79,#76);
#70=PERSON_AND_ORGANIZATION(#79,#77);
#71=PERSON_AND_ORGANIZATION(#79,#78);
#72=ORGANIZATION(' ',' ',' ');
#73=ORGANIZATION(' ',' ',' ');
#74=ORGANIZATION(' ',' ',' ');
#75=ORGANIZATION(' ',' ',' ');
#76=ORGANIZATION(' ',' ',' ');
#77=ORGANIZATION(' ',' ',' ');
#78=ORGANIZATION(' ',' ',' ');
#79=PERSON(' ',' ',' ',(' '),$,$);
#80=SHAPE_DEFINITION_REPRESENTATION(#81,#94);
#81=PRODUCT_DEFINITION_SHAPE('','',#82);
#82=PRODUCT_DEFINITION(' ','',#84,#83);
#83=DESIGN_CONTEXT('',#93,'design');
#84=PRODUCT_DEFINITION_FORMATION_WITH_SPECIFIED_SOURCE(' ',' ',#86,.NOT_KNOWN.);
#85=PRODUCT_RELATED_PRODUCT_CATEGORY('detail','',(#86));
#86=PRODUCT('99-7832','99-7832',' ',(#91));
#87=PRODUCT_CATEGORY_RELATIONSHIP(' ',' ',#89,#90);
#88=PRODUCT_CATEGORY_RELATIONSHIP('','',#90,#85);
#89=PRODUCT_CATEGORY('part',' ');
#90=PRODUCT_CATEGORY(' ','');
#91=MECHANICAL_CONTEXT(' ',#93,'mechanical');
#92=APPLICATION_PROTOCOL_DEFINITION('international standard',
'config_control_design',1994,#93);
#93=APPLICATION_CONTEXT(
'configuration controlled 3D designs of mechanical parts and assemblies');
#94=SHAPE_REPRESENTATION('99-7832-None',(#433),#703);
#95=MANIFOLD_SOLID_BREP('',#96);
#96=CLOSED_SHELL('',(#153,#154,#155,#156,#157,#158,#159,#160,#161,#162,#163,
#164,#165,#166,#167,#168,#169,#170,#171,#172,#173,#174,#175,#176,#177,#178,
#179,#180));
#97=TOROIDAL_SURFACE('',#461,1.1065,0.0125);
#98=TOROIDAL_SURFACE('',#462,1.08025,0.015);
#99=TOROIDAL_SURFACE('',#476,0.869,0.125);
#100=TOROIDAL_SURFACE('',#482,0.969,0.125);
#101=CONICAL_SURFACE('',#459,1.193,45.);
#102=CONICAL_SURFACE('',#460,1.2105,45.0000000000005);
#103=CONICAL_SURFACE('',#463,1.079,45.0000000000005);
#104=CONICAL_SURFACE('',#480,0.806,80.);
#105=CONICAL_SURFACE('',#486,1.094,45.0000000000004);
#106=CYLINDRICAL_SURFACE('',#439,1.094);
#107=CYLINDRICAL_SURFACE('',#442,1.094);
#108=CYLINDRICAL_SURFACE('',#454,1.2105);
#109=CYLINDRICAL_SURFACE('',#456,1.09525);
#110=CYLINDRICAL_SURFACE('',#467,1.0615);
#111=CYLINDRICAL_SURFACE('',#471,1.1415);
#112=CYLINDRICAL_SURFACE('',#484,1.094);
#113=FACE_BOUND('',#202,.T.);
#114=FACE_BOUND('',#203,.T.);
#115=FACE_BOUND('',#204,.T.);
#116=FACE_BOUND('',#205,.T.);
#117=FACE_BOUND('',#206,.T.);
#118=FACE_BOUND('',#207,.T.);
#119=FACE_BOUND('',#208,.T.);
#120=FACE_BOUND('',#209,.T.);
#121=FACE_BOUND('',#210,.T.);
#122=FACE_BOUND('',#211,.T.);
#123=FACE_BOUND('',#212,.T.);
#124=FACE_BOUND('',#213,.T.);
#125=FACE_BOUND('',#214,.T.);
#126=FACE_BOUND('',#215,.T.);
#127=FACE_BOUND('',#217,.T.);
#128=FACE_BOUND('',#218,.T.);
#129=FACE_BOUND('',#219,.T.);
#130=FACE_BOUND('',#220,.T.);
#131=FACE_BOUND('',#221,.T.);
#132=FACE_BOUND('',#222,.T.);
#133=FACE_BOUND('',#223,.T.);
#134=FACE_BOUND('',#224,.T.);
#135=FACE_BOUND('',#225,.T.);
#136=FACE_BOUND('',#226,.T.);
#137=FACE_BOUND('',#227,.T.);
#138=FACE_BOUND('',#228,.T.);
#139=FACE_BOUND('',#229,.T.);
#140=FACE_BOUND('',#230,.T.);
#141=FACE_BOUND('',#236,.T.);
#142=FACE_BOUND('',#237,.T.);
#143=FACE_BOUND('',#239,.T.);
#144=FACE_BOUND('',#240,.T.);
#145=FACE_BOUND('',#241,.T.);
#146=FACE_BOUND('',#242,.T.);
#147=FACE_BOUND('',#243,.T.);
#148=FACE_BOUND('',#244,.T.);
#149=FACE_BOUND('',#245,.T.);
#150=FACE_BOUND('',#246,.T.);
#151=FACE_BOUND('',#247,.T.);
#152=FACE_BOUND('',#248,.T.);
#153=ADVANCED_FACE('',(#193),#181,.T.);
#154=ADVANCED_FACE('',(#113,#114),#106,.T.);
#155=ADVANCED_FACE('',(#115,#116),#107,.T.);
#156=ADVANCED_FACE('',(#117,#118),#182,.T.);
#157=ADVANCED_FACE('',(#119,#120),#183,.T.);
#158=ADVANCED_FACE('',(#121,#122),#184,.T.);
#159=ADVANCED_FACE('',(#123,#124),#108,.T.);
#160=ADVANCED_FACE('',(#125,#126),#109,.F.);
#161=ADVANCED_FACE('',(#194),#185,.T.);
#162=ADVANCED_FACE('',(#127,#128),#101,.T.);
#163=ADVANCED_FACE('',(#129,#130),#102,.T.);
#164=ADVANCED_FACE('',(#131,#132),#97,.F.);
#165=ADVANCED_FACE('',(#133,#134),#98,.F.);
#166=ADVANCED_FACE('',(#135,#136),#103,.T.);
#167=ADVANCED_FACE('',(#137,#138),#186,.T.);
#168=ADVANCED_FACE('',(#139,#140),#110,.T.);
#169=ADVANCED_FACE('',(#195),#187,.T.);
#170=ADVANCED_FACE('',(#196),#111,.T.);
#171=ADVANCED_FACE('',(#197),#188,.T.);
#172=ADVANCED_FACE('',(#198),#189,.T.);
#173=ADVANCED_FACE('',(#199),#190,.T.);
#174=ADVANCED_FACE('',(#141,#142),#99,.F.);
#175=ADVANCED_FACE('',(#200),#191,.T.);
#176=ADVANCED_FACE('',(#143,#144),#104,.T.);
#177=ADVANCED_FACE('',(#145,#146),#100,.T.);
#178=ADVANCED_FACE('',(#147,#148),#112,.T.);
#179=ADVANCED_FACE('',(#149,#150),#105,.T.);
#180=ADVANCED_FACE('',(#151,#152),#192,.T.);
#181=PLANE('',#436);
#182=PLANE('',#445);
#183=PLANE('',#448);
#184=PLANE('',#451);
#185=PLANE('',#458);
#186=PLANE('',#465);
#187=PLANE('',#469);
#188=PLANE('',#472);
#189=PLANE('',#473);
#190=PLANE('',#474);
#191=PLANE('',#478);
#192=PLANE('',#487);
#193=FACE_OUTER_BOUND('',#201,.T.);
#194=FACE_OUTER_BOUND('',#216,.T.);
#195=FACE_OUTER_BOUND('',#231,.T.);
#196=FACE_OUTER_BOUND('',#232,.T.);
#197=FACE_OUTER_BOUND('',#233,.T.);
#198=FACE_OUTER_BOUND('',#234,.T.);
#199=FACE_OUTER_BOUND('',#235,.T.);
#200=FACE_OUTER_BOUND('',#238,.T.);
#201=EDGE_LOOP('',(#269,#270,#271,#272));
#202=EDGE_LOOP('',(#273));
#203=EDGE_LOOP('',(#274,#275));
#204=EDGE_LOOP('',(#276));
#205=EDGE_LOOP('',(#277));
#206=EDGE_LOOP('',(#278));
#207=EDGE_LOOP('',(#279));
#208=EDGE_LOOP('',(#280));
#209=EDGE_LOOP('',(#281));
#210=EDGE_LOOP('',(#282));
#211=EDGE_LOOP('',(#283));
#212=EDGE_LOOP('',(#284));
#213=EDGE_LOOP('',(#285));
#214=EDGE_LOOP('',(#286));
#215=EDGE_LOOP('',(#287));
#216=EDGE_LOOP('',(#288));
#217=EDGE_LOOP('',(#289));
#218=EDGE_LOOP('',(#290));
#219=EDGE_LOOP('',(#291));
#220=EDGE_LOOP('',(#292));
#221=EDGE_LOOP('',(#293));
#222=EDGE_LOOP('',(#294));
#223=EDGE_LOOP('',(#295));
#224=EDGE_LOOP('',(#296));
#225=EDGE_LOOP('',(#297));
#226=EDGE_LOOP('',(#298));
#227=EDGE_LOOP('',(#299));
#228=EDGE_LOOP('',(#300));
#229=EDGE_LOOP('',(#301,#302,#303,#304));
#230=EDGE_LOOP('',(#305));
#231=EDGE_LOOP('',(#306,#307,#308,#309));
#232=EDGE_LOOP('',(#310,#311,#312,#313));
#233=EDGE_LOOP('',(#314,#315,#316,#317));
#234=EDGE_LOOP('',(#318,#319,#320,#321,#322));
#235=EDGE_LOOP('',(#323,#324,#325,#326,#327));
#236=EDGE_LOOP('',(#328));
#237=EDGE_LOOP('',(#329));
#238=EDGE_LOOP('',(#330));
#239=EDGE_LOOP('',(#331));
#240=EDGE_LOOP('',(#332));
#241=EDGE_LOOP('',(#333));
#242=EDGE_LOOP('',(#334));
#243=EDGE_LOOP('',(#335));
#244=EDGE_LOOP('',(#336));
#245=EDGE_LOOP('',(#337));
#246=EDGE_LOOP('',(#338));
#247=EDGE_LOOP('',(#339));
#248=EDGE_LOOP('',(#340));
#249=LINE('',#612,#259);
#250=LINE('',#616,#260);
#251=LINE('',#661,#261);
#252=LINE('',#663,#262);
#253=LINE('',#667,#263);
#254=LINE('',#671,#264);
#255=LINE('',#676,#265);
#256=LINE('',#677,#266);
#257=LINE('',#679,#267);
#258=LINE('',#680,#268);
#259=VECTOR('',#492,1.);
#260=VECTOR('',#495,1.);
#261=VECTOR('',#556,1.);
#262=VECTOR('',#557,1.);
#263=VECTOR('',#562,1.);
#264=VECTOR('',#565,1.);
#265=VECTOR('',#570,1.);
#266=VECTOR('',#571,1.);
#267=VECTOR('',#574,1.);
#268=VECTOR('',#575,1.);
#269=ORIENTED_EDGE('',*,*,#371,.F.);
#270=ORIENTED_EDGE('',*,*,#372,.T.);
#271=ORIENTED_EDGE('',*,*,#373,.F.);
#272=ORIENTED_EDGE('',*,*,#374,.T.);
#273=ORIENTED_EDGE('',*,*,#375,.T.);
#274=ORIENTED_EDGE('',*,*,#371,.T.);
#275=ORIENTED_EDGE('',*,*,#376,.T.);
#276=ORIENTED_EDGE('',*,*,#377,.T.);
#277=ORIENTED_EDGE('',*,*,#378,.T.);
#278=ORIENTED_EDGE('',*,*,#379,.T.);
#279=ORIENTED_EDGE('',*,*,#380,.T.);
#280=ORIENTED_EDGE('',*,*,#381,.T.);
#281=ORIENTED_EDGE('',*,*,#382,.T.);
#282=ORIENTED_EDGE('',*,*,#383,.T.);
#283=ORIENTED_EDGE('',*,*,#384,.T.);
#284=ORIENTED_EDGE('',*,*,#385,.T.);
#285=ORIENTED_EDGE('',*,*,#386,.T.);
#286=ORIENTED_EDGE('',*,*,#387,.T.);
#287=ORIENTED_EDGE('',*,*,#382,.F.);
#288=ORIENTED_EDGE('',*,*,#388,.T.);
#289=ORIENTED_EDGE('',*,*,#386,.F.);
#290=ORIENTED_EDGE('',*,*,#384,.F.);
#291=ORIENTED_EDGE('',*,*,#381,.F.);
#292=ORIENTED_EDGE('',*,*,#385,.F.);
#293=ORIENTED_EDGE('',*,*,#383,.F.);
#294=ORIENTED_EDGE('',*,*,#375,.F.);
#295=ORIENTED_EDGE('',*,*,#388,.F.);
#296=ORIENTED_EDGE('',*,*,#387,.F.);
#297=ORIENTED_EDGE('',*,*,#377,.F.);
#298=ORIENTED_EDGE('',*,*,#379,.F.);
#299=ORIENTED_EDGE('',*,*,#378,.F.);
#300=ORIENTED_EDGE('',*,*,#389,.T.);
#301=ORIENTED_EDGE('',*,*,#390,.T.);
#302=ORIENTED_EDGE('',*,*,#373,.T.);
#303=ORIENTED_EDGE('',*,*,#391,.T.);
#304=ORIENTED_EDGE('',*,*,#392,.F.);
#305=ORIENTED_EDGE('',*,*,#389,.F.);
#306=ORIENTED_EDGE('',*,*,#376,.F.);
#307=ORIENTED_EDGE('',*,*,#393,.T.);
#308=ORIENTED_EDGE('',*,*,#394,.T.);
#309=ORIENTED_EDGE('',*,*,#395,.T.);
#310=ORIENTED_EDGE('',*,*,#396,.T.);
#311=ORIENTED_EDGE('',*,*,#397,.T.);
#312=ORIENTED_EDGE('',*,*,#394,.F.);
#313=ORIENTED_EDGE('',*,*,#398,.T.);
#314=ORIENTED_EDGE('',*,*,#392,.T.);
#315=ORIENTED_EDGE('',*,*,#399,.T.);
#316=ORIENTED_EDGE('',*,*,#396,.F.);
#317=ORIENTED_EDGE('',*,*,#400,.T.);
#318=ORIENTED_EDGE('',*,*,#374,.F.);
#319=ORIENTED_EDGE('',*,*,#390,.F.);
#320=ORIENTED_EDGE('',*,*,#400,.F.);
#321=ORIENTED_EDGE('',*,*,#398,.F.);
#322=ORIENTED_EDGE('',*,*,#393,.F.);
#323=ORIENTED_EDGE('',*,*,#399,.F.);
#324=ORIENTED_EDGE('',*,*,#391,.F.);
#325=ORIENTED_EDGE('',*,*,#372,.F.);
#326=ORIENTED_EDGE('',*,*,#395,.F.);
#327=ORIENTED_EDGE('',*,*,#397,.F.);
#328=ORIENTED_EDGE('',*,*,#401,.T.);
#329=ORIENTED_EDGE('',*,*,#380,.F.);
#330=ORIENTED_EDGE('',*,*,#402,.T.);
#331=ORIENTED_EDGE('',*,*,#403,.T.);
#332=ORIENTED_EDGE('',*,*,#402,.F.);
#333=ORIENTED_EDGE('',*,*,#404,.F.);
#334=ORIENTED_EDGE('',*,*,#403,.F.);
#335=ORIENTED_EDGE('',*,*,#404,.T.);
#336=ORIENTED_EDGE('',*,*,#405,.T.);
#337=ORIENTED_EDGE('',*,*,#406,.F.);
#338=ORIENTED_EDGE('',*,*,#405,.F.);
#339=ORIENTED_EDGE('',*,*,#406,.T.);
#340=ORIENTED_EDGE('',*,*,#401,.F.);
#341=VERTEX_POINT('',#610);
#342=VERTEX_POINT('',#611);
#343=VERTEX_POINT('',#613);
#344=VERTEX_POINT('',#615);
#345=VERTEX_POINT('',#619);
#346=VERTEX_POINT('',#623);
#347=VERTEX_POINT('',#625);
#348=VERTEX_POINT('',#628);
#349=VERTEX_POINT('',#630);
#350=VERTEX_POINT('',#633);
#351=VERTEX_POINT('',#635);
#352=VERTEX_POINT('',#638);
#353=VERTEX_POINT('',#640);
#354=VERTEX_POINT('',#643);
#355=VERTEX_POINT('',#645);
#356=VERTEX_POINT('',#648);
#357=VERTEX_POINT('',#651);
#358=VERTEX_POINT('',#659);
#359=VERTEX_POINT('',#662);
#360=VERTEX_POINT('',#664);
#361=VERTEX_POINT('',#668);
#362=VERTEX_POINT('',#670);
#363=VERTEX_POINT('',#674);
#364=VERTEX_POINT('',#675);
#365=VERTEX_POINT('',#685);
#366=VERTEX_POINT('',#688);
#367=VERTEX_POINT('',#691);
#368=VERTEX_POINT('',#694);
#369=VERTEX_POINT('',#697);
#370=VERTEX_POINT('',#700);
#371=EDGE_CURVE('',#341,#342,#407,.T.);
#372=EDGE_CURVE('',#341,#343,#249,.T.);
#373=EDGE_CURVE('',#344,#343,#408,.T.);
#374=EDGE_CURVE('',#344,#342,#250,.T.);
#375=EDGE_CURVE('',#345,#345,#409,.T.);
#376=EDGE_CURVE('',#342,#341,#410,.T.);
#377=EDGE_CURVE('',#346,#346,#411,.T.);
#378=EDGE_CURVE('',#347,#347,#412,.T.);
#379=EDGE_CURVE('',#348,#348,#413,.T.);
#380=EDGE_CURVE('',#349,#349,#414,.T.);
#381=EDGE_CURVE('',#350,#350,#415,.T.);
#382=EDGE_CURVE('',#351,#351,#416,.T.);
#383=EDGE_CURVE('',#352,#352,#417,.T.);
#384=EDGE_CURVE('',#353,#353,#418,.T.);
#385=EDGE_CURVE('',#354,#354,#419,.T.);
#386=EDGE_CURVE('',#355,#355,#420,.T.);
#387=EDGE_CURVE('',#356,#356,#421,.T.);
#388=EDGE_CURVE('',#357,#357,#422,.T.);
#389=EDGE_CURVE('',#358,#358,#423,.T.);
#390=EDGE_CURVE('',#359,#344,#251,.T.);
#391=EDGE_CURVE('',#343,#360,#252,.T.);
#392=EDGE_CURVE('',#359,#360,#424,.T.);
#393=EDGE_CURVE('',#342,#361,#253,.T.);
#394=EDGE_CURVE('',#361,#362,#425,.T.);
#395=EDGE_CURVE('',#362,#341,#254,.T.);
#396=EDGE_CURVE('',#363,#364,#426,.T.);
#397=EDGE_CURVE('',#364,#362,#255,.T.);
#398=EDGE_CURVE('',#361,#363,#256,.T.);
#399=EDGE_CURVE('',#360,#364,#257,.T.);
#400=EDGE_CURVE('',#363,#359,#258,.T.);
#401=EDGE_CURVE('',#365,#365,#427,.T.);
#402=EDGE_CURVE('',#366,#366,#428,.T.);
#403=EDGE_CURVE('',#367,#367,#429,.T.);
#404=EDGE_CURVE('',#368,#368,#430,.T.);
#405=EDGE_CURVE('',#369,#369,#431,.T.);
#406=EDGE_CURVE('',#370,#370,#432,.T.);
#407=CIRCLE('',#434,1.094);
#408=CIRCLE('',#435,1.0615);
#409=CIRCLE('',#437,1.094);
#410=CIRCLE('',#438,1.094);
#411=CIRCLE('',#440,1.094);
#412=CIRCLE('',#441,1.094);
#413=CIRCLE('',#443,1.079);
#414=CIRCLE('',#444,0.869);
#415=CIRCLE('',#446,1.1955);
#416=CIRCLE('',#447,1.09525);
#417=CIRCLE('',#449,1.1065);
#418=CIRCLE('',#450,1.193);
#419=CIRCLE('',#452,1.2105);
#420=CIRCLE('',#453,1.2105);
#421=CIRCLE('',#455,1.09525);
#422=CIRCLE('',#457,1.08025);
#423=CIRCLE('',#464,1.0615);
#424=CIRCLE('',#466,1.0615);
#425=CIRCLE('',#468,1.1415);
#426=CIRCLE('',#470,1.1415);
#427=CIRCLE('',#475,0.817726225026823);
#428=CIRCLE('',#477,0.806);
#429=CIRCLE('',#479,0.990706022208366);
#430=CIRCLE('',#481,1.094);
#431=CIRCLE('',#483,1.094);
#432=CIRCLE('',#485,1.074);
#433=AXIS2_PLACEMENT_3D('',#608,#488,#489);
#434=AXIS2_PLACEMENT_3D('',#609,#490,#491);
#435=AXIS2_PLACEMENT_3D('',#614,#493,#494);
#436=AXIS2_PLACEMENT_3D('',#617,#496,#497);
#437=AXIS2_PLACEMENT_3D('',#618,#498,#499);
#438=AXIS2_PLACEMENT_3D('',#620,#500,#501);
#439=AXIS2_PLACEMENT_3D('',#621,#502,#503);
#440=AXIS2_PLACEMENT_3D('',#622,#504,#505);
#441=AXIS2_PLACEMENT_3D('',#624,#506,#507);
#442=AXIS2_PLACEMENT_3D('',#626,#508,#509);
#443=AXIS2_PLACEMENT_3D('',#627,#510,#511);
#444=AXIS2_PLACEMENT_3D('',#629,#512,#513);
#445=AXIS2_PLACEMENT_3D('',#631,#514,#515);
#446=AXIS2_PLACEMENT_3D('',#632,#516,#517);
#447=AXIS2_PLACEMENT_3D('',#634,#518,#519);
#448=AXIS2_PLACEMENT_3D('',#636,#520,#521);
#449=AXIS2_PLACEMENT_3D('',#637,#522,#523);
#450=AXIS2_PLACEMENT_3D('',#639,#524,#525);
#451=AXIS2_PLACEMENT_3D('',#641,#526,#527);
#452=AXIS2_PLACEMENT_3D('',#642,#528,#529);
#453=AXIS2_PLACEMENT_3D('',#644,#530,#531);
#454=AXIS2_PLACEMENT_3D('',#646,#532,#533);
#455=AXIS2_PLACEMENT_3D('',#647,#534,#535);
#456=AXIS2_PLACEMENT_3D('',#649,#536,#537);
#457=AXIS2_PLACEMENT_3D('',#650,#538,#539);
#458=AXIS2_PLACEMENT_3D('',#652,#540,#541);
#459=AXIS2_PLACEMENT_3D('',#653,#542,#543);
#460=AXIS2_PLACEMENT_3D('',#654,#544,#545);
#461=AXIS2_PLACEMENT_3D('',#655,#546,#547);
#462=AXIS2_PLACEMENT_3D('',#656,#548,#549);
#463=AXIS2_PLACEMENT_3D('',#657,#550,#551);
#464=AXIS2_PLACEMENT_3D('',#658,#552,#553);
#465=AXIS2_PLACEMENT_3D('',#660,#554,#555);
#466=AXIS2_PLACEMENT_3D('',#665,#558,#559);
#467=AXIS2_PLACEMENT_3D('',#666,#560,#561);
#468=AXIS2_PLACEMENT_3D('',#669,#563,#564);
#469=AXIS2_PLACEMENT_3D('',#672,#566,#567);
#470=AXIS2_PLACEMENT_3D('',#673,#568,#569);
#471=AXIS2_PLACEMENT_3D('',#678,#572,#573);
#472=AXIS2_PLACEMENT_3D('',#681,#576,#577);
#473=AXIS2_PLACEMENT_3D('',#682,#578,#579);
#474=AXIS2_PLACEMENT_3D('',#683,#580,#581);
#475=AXIS2_PLACEMENT_3D('',#684,#582,#583);
#476=AXIS2_PLACEMENT_3D('',#686,#584,#585);
#477=AXIS2_PLACEMENT_3D('',#687,#586,#587);
#478=AXIS2_PLACEMENT_3D('',#689,#588,#589);
#479=AXIS2_PLACEMENT_3D('',#690,#590,#591);
#480=AXIS2_PLACEMENT_3D('',#692,#592,#593);
#481=AXIS2_PLACEMENT_3D('',#693,#594,#595);
#482=AXIS2_PLACEMENT_3D('',#695,#596,#597);
#483=AXIS2_PLACEMENT_3D('',#696,#598,#599);
#484=AXIS2_PLACEMENT_3D('',#698,#600,#601);
#485=AXIS2_PLACEMENT_3D('',#699,#602,#603);
#486=AXIS2_PLACEMENT_3D('',#701,#604,#605);
#487=AXIS2_PLACEMENT_3D('',#702,#606,#607);
#488=DIRECTION('',(0.,0.,1.));
#489=DIRECTION('',(1.,0.,0.));
#490=DIRECTION('',(0.,-1.,0.));
#491=DIRECTION('',(0.,0.,-1.));
#492=DIRECTION('',(-1.,0.,-1.59357799630415E-016));
#493=DIRECTION('',(0.,1.,0.));
#494=DIRECTION('',(0.,0.,-1.));
#495=DIRECTION('',(1.,0.,-2.27653999472022E-017));
#496=DIRECTION('',(0.,1.,0.));
#497=DIRECTION('',(0.,0.,-1.));
#498=DIRECTION('',(0.,1.,0.));
#499=DIRECTION('',(0.,0.,-1.));
#500=DIRECTION('',(0.,-1.,0.));
#501=DIRECTION('',(0.,0.,-1.));
#502=DIRECTION('',(0.,1.,0.));
#503=DIRECTION('',(0.,0.,-1.));
#504=DIRECTION('',(0.,-1.,0.));
#505=DIRECTION('',(0.,0.,-1.));
#506=DIRECTION('',(0.,1.,0.));
#507=DIRECTION('',(0.,0.,1.));
#508=DIRECTION('',(0.,1.,0.));
#509=DIRECTION('',(0.,0.,-1.));
#510=DIRECTION('',(0.,1.,0.));
#511=DIRECTION('',(0.,0.,-1.));
#512=DIRECTION('',(0.,-1.,0.));
#513=DIRECTION('',(0.,0.,-1.));
#514=DIRECTION('',(0.,1.,0.));
#515=DIRECTION('',(0.,0.,-1.));
#516=DIRECTION('',(0.,-1.,0.));
#517=DIRECTION('',(0.,0.,1.));
#518=DIRECTION('',(0.,1.,0.));
#519=DIRECTION('',(0.,0.,-1.));
#520=DIRECTION('',(0.,-1.,0.));
#521=DIRECTION('',(0.,0.,1.));
#522=DIRECTION('',(0.,-1.,0.));
#523=DIRECTION('',(0.,0.,-1.));
#524=DIRECTION('',(0.,1.,0.));
#525=DIRECTION('',(0.,0.,-1.));
#526=DIRECTION('',(0.,1.,0.));
#527=DIRECTION('',(0.,0.,-1.));
#528=DIRECTION('',(0.,1.,0.));
#529=DIRECTION('',(0.,0.,1.));
#530=DIRECTION('',(0.,-1.,0.));
#531=DIRECTION('',(0.,0.,-1.));
#532=DIRECTION('',(0.,1.,0.));
#533=DIRECTION('',(0.,0.,-1.));
#534=DIRECTION('',(0.,1.,0.));
#535=DIRECTION('',(0.,0.,1.));
#536=DIRECTION('',(0.,1.,0.));
#537=DIRECTION('',(0.,0.,-1.));
#538=DIRECTION('',(0.,-1.,0.));
#539=DIRECTION('',(0.,0.,1.));
#540=DIRECTION('',(0.,-1.,0.));
#541=DIRECTION('',(0.,0.,1.));
#542=DIRECTION('',(0.,-1.,0.));
#543=DIRECTION('',(0.,-2.69392568662174E-017,1.));
#544=DIRECTION('',(0.,1.,0.));
#545=DIRECTION('',(0.,-2.6927639560358E-017,-1.));
#546=DIRECTION('',(0.,1.,0.));
#547=DIRECTION('',(0.,0.,-1.));
#548=DIRECTION('',(0.,-1.,0.));
#549=DIRECTION('',(0.,0.,1.));
#550=DIRECTION('',(0.,-1.,0.));
#551=DIRECTION('',(0.,2.70151813465364E-017,1.));
#552=DIRECTION('',(0.,1.,0.));
#553=DIRECTION('',(0.,0.,-1.));
#554=DIRECTION('',(0.,-1.,0.));
#555=DIRECTION('',(0.,0.,1.));
#556=DIRECTION('',(0.,-1.,0.));
#557=DIRECTION('',(0.,1.,0.));
#558=DIRECTION('',(0.,-1.,0.));
#559=DIRECTION('',(0.,0.,-1.));
#560=DIRECTION('',(0.,1.,0.));
#561=DIRECTION('',(0.,0.,-1.));
#562=DIRECTION('',(1.,0.,-2.27653999472022E-017));
#563=DIRECTION('',(0.,-1.,0.));
#564=DIRECTION('',(0.,0.,-1.));
#565=DIRECTION('',(-1.,0.,-1.59357799630415E-016));
#566=DIRECTION('',(0.,-1.,0.));
#567=DIRECTION('',(0.,0.,-1.));
#568=DIRECTION('',(0.,-1.,0.));
#569=DIRECTION('',(0.,0.,-1.));
#570=DIRECTION('',(0.,-1.,0.));
#571=DIRECTION('',(0.,1.,0.));
#572=DIRECTION('',(0.,-1.,0.));
#573=DIRECTION('',(0.,0.,-1.));
#574=DIRECTION('',(1.,0.,1.59357799630415E-016));
#575=DIRECTION('',(-1.,0.,2.27653999472022E-017));
#576=DIRECTION('',(0.,1.,0.));
#577=DIRECTION('',(0.,0.,1.));
#578=DIRECTION('',(-2.27653999472022E-017,0.,-1.));
#579=DIRECTION('',(-1.,0.,2.25514051876985E-017));
#580=DIRECTION('',(-1.59357799630415E-016,0.,1.));
#581=DIRECTION('',(1.,0.,1.59160878920872E-016));
#582=DIRECTION('',(0.,-1.,0.));
#583=DIRECTION('',(0.,0.,1.));
#584=DIRECTION('',(0.,1.,0.));
#585=DIRECTION('',(0.,0.,-1.));
#586=DIRECTION('',(0.,1.,0.));
#587=DIRECTION('',(0.,0.,1.));
#588=DIRECTION('',(0.,1.,0.));
#589=DIRECTION('',(0.,0.,1.));
#590=DIRECTION('',(0.,1.,0.));
#591=DIRECTION('',(0.,0.,1.));
#592=DIRECTION('',(0.,-1.,0.));
#593=DIRECTION('',(0.,-9.75290729173236E-018,-1.));
#594=DIRECTION('',(0.,-1.,0.));
#595=DIRECTION('',(0.,0.,-1.));
#596=DIRECTION('',(0.,-1.,0.));
#597=DIRECTION('',(0.,0.,-1.));
#598=DIRECTION('',(0.,1.,0.));
#599=DIRECTION('',(0.,0.,-1.));
#600=DIRECTION('',(0.,1.,0.));
#601=DIRECTION('',(0.,0.,1.));
#602=DIRECTION('',(0.,-1.,0.));
#603=DIRECTION('',(0.,0.,-1.));
#604=DIRECTION('',(0.,1.,0.));
#605=DIRECTION('',(0.,-8.10155005245107E-017,1.));
#606=DIRECTION('',(0.,-1.,0.));
#607=DIRECTION('',(0.,0.,-1.));
#608=CARTESIAN_POINT('',(0.,0.,0.));
#609=CARTESIAN_POINT('',(0.,0.8985,0.));
#610=CARTESIAN_POINT('',(1.08492424130674,0.8985,-0.140625));
#611=CARTESIAN_POINT('',(1.08492424130674,0.8985,0.140625));
#612=CARTESIAN_POINT('',(1.91567994880713E-016,0.8985,-0.140625));
#613=CARTESIAN_POINT('',(1.05214393472329,0.898500000000001,-0.140625));
#614=CARTESIAN_POINT('',(0.,0.8985,0.));
#615=CARTESIAN_POINT('',(1.05214393472329,0.8985,0.140625));
#616=CARTESIAN_POINT('',(-2.09640876763802E-017,0.8985,0.140625));
#617=CARTESIAN_POINT('',(0.,0.8985,-1.0615));
#618=CARTESIAN_POINT('',(0.,0.502,0.));
#619=CARTESIAN_POINT('',(0.,0.502,-1.094));
#620=CARTESIAN_POINT('',(0.,0.8985,0.));
#621=CARTESIAN_POINT('',(0.,2.64332570141505,0.));
#622=CARTESIAN_POINT('',(0.,6.229,0.));
#623=CARTESIAN_POINT('',(0.,6.229,-1.094));
#624=CARTESIAN_POINT('',(0.,0.988,0.));
#625=CARTESIAN_POINT('',(0.,0.988,1.094));
#626=CARTESIAN_POINT('',(0.,2.64332570141505,0.));
#627=CARTESIAN_POINT('',(0.,6.244,0.));
#628=CARTESIAN_POINT('',(0.,6.244,-1.079));
#629=CARTESIAN_POINT('',(0.,6.244,0.));
#630=CARTESIAN_POINT('',(0.,6.244,-0.869));
#631=CARTESIAN_POINT('',(0.,6.244,3.33066907387547E-016));
#632=CARTESIAN_POINT('',(0.,-4.16333634234434E-017,0.));
#633=CARTESIAN_POINT('',(0.,-4.16333634234434E-017,1.1955));
#634=CARTESIAN_POINT('',(0.,0.,0.));
#635=CARTESIAN_POINT('',(0.,0.,-1.09525));
#636=CARTESIAN_POINT('',(0.,-4.16333634234434E-017,-1.2105));
#637=CARTESIAN_POINT('',(0.,0.4895,0.));
#638=CARTESIAN_POINT('',(0.,0.4895,-1.1065));
#639=CARTESIAN_POINT('',(0.,0.4895,0.));
#640=CARTESIAN_POINT('',(0.,0.4895,-1.193));
#641=CARTESIAN_POINT('',(0.,0.4895,-1.094));
#642=CARTESIAN_POINT('',(0.,0.0149999999999997,0.));
#643=CARTESIAN_POINT('',(0.,0.0149999999999997,1.2105));
#644=CARTESIAN_POINT('',(0.,0.472,0.));
#645=CARTESIAN_POINT('',(0.,0.472,-1.2105));
#646=CARTESIAN_POINT('',(0.,2.64332570141505,0.));
#647=CARTESIAN_POINT('',(0.,0.195,0.));
#648=CARTESIAN_POINT('',(0.,0.195,1.09525));
#649=CARTESIAN_POINT('',(0.,2.64332570141505,0.));
#650=CARTESIAN_POINT('',(0.,0.21,0.));
#651=CARTESIAN_POINT('',(0.,0.21,1.08025));
#652=CARTESIAN_POINT('',(0.,0.21,-1.09525));
#653=CARTESIAN_POINT('',(0.,0.4895,0.));
#654=CARTESIAN_POINT('',(0.,0.0149999999999997,0.));
#655=CARTESIAN_POINT('',(0.,0.502,0.));
#656=CARTESIAN_POINT('',(0.,0.195,0.));
#657=CARTESIAN_POINT('',(0.,6.244,0.));
#658=CARTESIAN_POINT('',(0.,0.988,0.));
#659=CARTESIAN_POINT('',(0.,0.988,-1.0615));
#660=CARTESIAN_POINT('',(0.,0.988,-1.125));
#661=CARTESIAN_POINT('',(1.05214393472329,-1.70582570141505,0.140625));
#662=CARTESIAN_POINT('',(1.05214393472329,0.9765,0.140625));
#663=CARTESIAN_POINT('',(1.05214393472329,-1.70582570141505,-0.140625));
#664=CARTESIAN_POINT('',(1.05214393472329,0.9765,-0.140625));
#665=CARTESIAN_POINT('',(-3.94430452610506E-031,0.9765,0.));
#666=CARTESIAN_POINT('',(0.,2.64332570141505,0.));
#667=CARTESIAN_POINT('',(-2.09640876763802E-017,0.8985,0.140625));
#668=CARTESIAN_POINT('',(1.13280486376737,0.898500000000001,0.140625));
#669=CARTESIAN_POINT('',(-3.94430452610506E-031,0.898500000000001,0.));
#670=CARTESIAN_POINT('',(1.13280486376737,0.898500000000001,-0.140625));
#671=CARTESIAN_POINT('',(1.91567994880713E-016,0.8985,-0.140625));
#672=CARTESIAN_POINT('',(-3.94430452610506E-031,0.8985,1.0615));
#673=CARTESIAN_POINT('',(-3.94430452610506E-031,0.9765,0.));
#674=CARTESIAN_POINT('',(1.13280486376737,0.9765,0.140625));
#675=CARTESIAN_POINT('',(1.13280486376737,0.9765,-0.140625));
#676=CARTESIAN_POINT('',(1.13280486376737,-1.70582570141505,-0.140625));
#677=CARTESIAN_POINT('',(1.13280486376737,-1.70582570141505,0.140625));
#678=CARTESIAN_POINT('',(-3.94430452610506E-031,-1.70582570141505,0.));
#679=CARTESIAN_POINT('',(2.04316618851146E-016,0.9765,-0.140625));
#680=CARTESIAN_POINT('',(-2.27853196721564E-017,0.9765,0.140625));
#681=CARTESIAN_POINT('',(-3.94430452610506E-031,0.9765,1.1415));
#682=CARTESIAN_POINT('',(0.75,1.9375,0.140625));
#683=CARTESIAN_POINT('',(1.5,1.9375,-0.140625));
#684=CARTESIAN_POINT('',(0.,6.255,0.));
#685=CARTESIAN_POINT('',(0.,6.255,0.817726225026823));
#686=CARTESIAN_POINT('',(0.,6.369,0.));
#687=CARTESIAN_POINT('',(0.,7.58,0.));
#688=CARTESIAN_POINT('',(0.,7.58,0.806));
#689=CARTESIAN_POINT('',(0.,7.58,1.11022302462516E-016));
#690=CARTESIAN_POINT('',(0.,7.54743134478533,0.));
#691=CARTESIAN_POINT('',(0.,7.54743134478533,0.990706022208366));
#692=CARTESIAN_POINT('',(0.,7.58,0.));
#693=CARTESIAN_POINT('',(0.,7.4243303756588,0.));
#694=CARTESIAN_POINT('',(0.,7.4243303756588,-1.094));
#695=CARTESIAN_POINT('',(0.,7.4243303756588,0.));
#696=CARTESIAN_POINT('',(0.,6.275,0.));
#697=CARTESIAN_POINT('',(0.,6.275,-1.094));
#698=CARTESIAN_POINT('',(0.,8.89832570141505,0.));
#699=CARTESIAN_POINT('',(0.,6.255,0.));
#700=CARTESIAN_POINT('',(0.,6.255,-1.074));
#701=CARTESIAN_POINT('',(0.,6.275,0.));
#702=CARTESIAN_POINT('',(0.,6.255,-1.094));
#703=(
GEOMETRIC_REPRESENTATION_CONTEXT(3)
GLOBAL_UNCERTAINTY_ASSIGNED_CONTEXT((#704))
GLOBAL_UNIT_ASSIGNED_CONTEXT((#709,#706,#705))
REPRESENTATION_CONTEXT('99-7832_CLR','TOP_LEVEL_ASSEMBLY_PART')
);
#704=UNCERTAINTY_MEASURE_WITH_UNIT(LENGTH_MEASURE(0.00078740157480315),#709,
'DISTANCE_ACCURACY_VALUE','Maximum Tolerance applied to model');
#705=(
NAMED_UNIT(*)
SI_UNIT($,.STERADIAN.)
SOLID_ANGLE_UNIT()
);
#706=(
CONVERSION_BASED_UNIT('DEGREE',#707)
NAMED_UNIT(#711)
PLANE_ANGLE_UNIT()
);
#707=PLANE_ANGLE_MEASURE_WITH_UNIT(PLANE_ANGLE_MEASURE(0.0174532925),#708);
#708=(
NAMED_UNIT(*)
PLANE_ANGLE_UNIT()
SI_UNIT($,.RADIAN.)
);
#709=(
CONVERSION_BASED_UNIT('INCH',#712)
LENGTH_UNIT()
NAMED_UNIT(#710)
);
#710=DIMENSIONAL_EXPONENTS(1.,0.,0.,0.,0.,0.,0.);
#711=DIMENSIONAL_EXPONENTS(0.,0.,0.,0.,0.,0.,0.);
#712=LENGTH_MEASURE_WITH_UNIT(LENGTH_MEASURE(25.4),#713);
#713=(
LENGTH_UNIT()
NAMED_UNIT(*)
SI_UNIT(.MILLI.,.METRE.)
);
ENDSEC;
END-ISO-10303-21;
