ISO-10303-21;
HEADER;
/* Generated by software containing ST-Developer
 * from STEP Tools, Inc. (www.steptools.com) 
 */
/* OPTION: using custom schema-name function */

FILE_DESCRIPTION(
/* description */ (''),
/* implementation_level */ '2;1');

FILE_NAME(
/* name */ '99-100-2D2_CLR.stp',
/* time_stamp */ '2020-10-28T14:59:34-04:00',
/* author */ (''),
/* organization */ (''),
/* preprocessor_version */ 'ST-DEVELOPER v16.7',
/* originating_system */ 'SIEMENS PLM Software NX 1888',
/* authorisation */ '');

FILE_SCHEMA (('AUTOMOTIVE_DESIGN { 1 0 10303 214 3 1 1 1 }'));
ENDSEC;

DATA;
#10=SHAPE_REPRESENTATION_RELATIONSHIP('None',
'relationship between 82933-2-None and 82933-2-None',#22,#11);
#11=ADVANCED_BREP_SHAPE_REPRESENTATION('82933-2-None',(#32),#225);
#12=SHAPE_DEFINITION_REPRESENTATION(#13,#22);
#13=PRODUCT_DEFINITION_SHAPE('','',#14);
#14=PRODUCT_DEFINITION(' ','',#16,#15);
#15=PRODUCT_DEFINITION_CONTEXT('part definition',#21,'design');
#16=PRODUCT_DEFINITION_FORMATION_WITH_SPECIFIED_SOURCE(' ',' ',#18,
 .NOT_KNOWN.);
#17=PRODUCT_RELATED_PRODUCT_CATEGORY('part','',(#18));
#18=PRODUCT('82933-2','82933-2',' ',(#19));
#19=PRODUCT_CONTEXT(' ',#21,'mechanical');
#20=APPLICATION_PROTOCOL_DEFINITION('international standard',
'automotive_design',2010,#21);
#21=APPLICATION_CONTEXT(
'core data for automotive mechanical design processes');
#22=SHAPE_REPRESENTATION('82933-2-None',(#135),#225);
#23=PRESENTATION_LAYER_ASSIGNMENT('1','Layer 1',(#32));
#24=STYLED_ITEM('',(#25),#32);
#25=PRESENTATION_STYLE_ASSIGNMENT((#26));
#26=SURFACE_STYLE_USAGE(.BOTH.,#27);
#27=SURFACE_SIDE_STYLE('',(#28));
#28=SURFACE_STYLE_FILL_AREA(#29);
#29=FILL_AREA_STYLE('',(#30));
#30=FILL_AREA_STYLE_COLOUR('',#31);
#31=COLOUR_RGB('Medium Steel',0.596063172350652,0.666666666666667,0.686259250782025);
#32=MANIFOLD_SOLID_BREP('',#33);
#33=CLOSED_SHELL('',(#41,#42,#43,#44,#45,#46,#47,#48,#49,#50));
#34=TOROIDAL_SURFACE('',#151,0.435749999999999,0.095);
#35=CYLINDRICAL_SURFACE('',#142,0.53075);
#36=CYLINDRICAL_SURFACE('',#146,0.587500000000048);
#37=CYLINDRICAL_SURFACE('',#150,0.530749999999999);
#38=CYLINDRICAL_SURFACE('',#154,0.25);
#39=FACE_OUTER_BOUND('',#74,.T.);
#40=FACE_OUTER_BOUND('',#87,.T.);
#41=ADVANCED_FACE('',(#56,#57),#51,.T.);
#42=ADVANCED_FACE('',(#39),#52,.T.);
#43=ADVANCED_FACE('',(#58,#59),#35,.T.);
#44=ADVANCED_FACE('',(#60,#61),#53,.T.);
#45=ADVANCED_FACE('',(#62,#63),#36,.T.);
#46=ADVANCED_FACE('',(#64,#65),#54,.T.);
#47=ADVANCED_FACE('',(#66,#67),#37,.T.);
#48=ADVANCED_FACE('',(#68,#69),#34,.T.);
#49=ADVANCED_FACE('',(#40),#55,.F.);
#50=ADVANCED_FACE('',(#70,#71),#38,.F.);
#51=PLANE('',#138);
#52=PLANE('',#140);
#53=PLANE('',#144);
#54=PLANE('',#148);
#55=PLANE('',#153);
#56=FACE_BOUND('',#72,.T.);
#57=FACE_BOUND('',#73,.T.);
#58=FACE_BOUND('',#75,.T.);
#59=FACE_BOUND('',#76,.T.);
#60=FACE_BOUND('',#77,.T.);
#61=FACE_BOUND('',#78,.T.);
#62=FACE_BOUND('',#79,.T.);
#63=FACE_BOUND('',#80,.T.);
#64=FACE_BOUND('',#81,.T.);
#65=FACE_BOUND('',#82,.T.);
#66=FACE_BOUND('',#83,.T.);
#67=FACE_BOUND('',#84,.T.);
#68=FACE_BOUND('',#85,.T.);
#69=FACE_BOUND('',#86,.T.);
#70=FACE_BOUND('',#88,.T.);
#71=FACE_BOUND('',#89,.T.);
#72=EDGE_LOOP('',(#90));
#73=EDGE_LOOP('',(#91));
#74=EDGE_LOOP('',(#92));
#75=EDGE_LOOP('',(#93));
#76=EDGE_LOOP('',(#94));
#77=EDGE_LOOP('',(#95));
#78=EDGE_LOOP('',(#96));
#79=EDGE_LOOP('',(#97));
#80=EDGE_LOOP('',(#98));
#81=EDGE_LOOP('',(#99));
#82=EDGE_LOOP('',(#100));
#83=EDGE_LOOP('',(#101));
#84=EDGE_LOOP('',(#102));
#85=EDGE_LOOP('',(#103));
#86=EDGE_LOOP('',(#104));
#87=EDGE_LOOP('',(#105));
#88=EDGE_LOOP('',(#106));
#89=EDGE_LOOP('',(#107));
#90=ORIENTED_EDGE('',*,*,#117,.T.);
#91=ORIENTED_EDGE('',*,*,#118,.T.);
#92=ORIENTED_EDGE('',*,*,#119,.T.);
#93=ORIENTED_EDGE('',*,*,#120,.T.);
#94=ORIENTED_EDGE('',*,*,#119,.F.);
#95=ORIENTED_EDGE('',*,*,#121,.T.);
#96=ORIENTED_EDGE('',*,*,#120,.F.);
#97=ORIENTED_EDGE('',*,*,#122,.T.);
#98=ORIENTED_EDGE('',*,*,#121,.F.);
#99=ORIENTED_EDGE('',*,*,#123,.T.);
#100=ORIENTED_EDGE('',*,*,#122,.F.);
#101=ORIENTED_EDGE('',*,*,#124,.T.);
#102=ORIENTED_EDGE('',*,*,#123,.F.);
#103=ORIENTED_EDGE('',*,*,#118,.F.);
#104=ORIENTED_EDGE('',*,*,#124,.F.);
#105=ORIENTED_EDGE('',*,*,#125,.T.);
#106=ORIENTED_EDGE('',*,*,#125,.F.);
#107=ORIENTED_EDGE('',*,*,#117,.F.);
#108=VERTEX_POINT('',#197);
#109=VERTEX_POINT('',#199);
#110=VERTEX_POINT('',#202);
#111=VERTEX_POINT('',#205);
#112=VERTEX_POINT('',#208);
#113=VERTEX_POINT('',#211);
#114=VERTEX_POINT('',#214);
#115=VERTEX_POINT('',#217);
#116=VERTEX_POINT('',#221);
#117=EDGE_CURVE('',#108,#108,#126,.T.);
#118=EDGE_CURVE('',#109,#109,#127,.T.);
#119=EDGE_CURVE('',#110,#110,#128,.T.);
#120=EDGE_CURVE('',#111,#111,#129,.T.);
#121=EDGE_CURVE('',#112,#112,#130,.T.);
#122=EDGE_CURVE('',#113,#113,#131,.T.);
#123=EDGE_CURVE('',#114,#114,#132,.T.);
#124=EDGE_CURVE('',#115,#115,#133,.T.);
#125=EDGE_CURVE('',#116,#116,#134,.T.);
#126=CIRCLE('',#136,0.25);
#127=CIRCLE('',#137,0.435749999999999);
#128=CIRCLE('',#139,0.53075);
#129=CIRCLE('',#141,0.53075);
#130=CIRCLE('',#143,0.587500000000048);
#131=CIRCLE('',#145,0.587500000000048);
#132=CIRCLE('',#147,0.53075);
#133=CIRCLE('',#149,0.530749999999999);
#134=CIRCLE('',#152,0.25);
#135=AXIS2_PLACEMENT_3D('',#195,#155,#156);
#136=AXIS2_PLACEMENT_3D('',#196,#157,#158);
#137=AXIS2_PLACEMENT_3D('',#198,#159,#160);
#138=AXIS2_PLACEMENT_3D('',#200,#161,#162);
#139=AXIS2_PLACEMENT_3D('',#201,#163,#164);
#140=AXIS2_PLACEMENT_3D('',#203,#165,#166);
#141=AXIS2_PLACEMENT_3D('',#204,#167,#168);
#142=AXIS2_PLACEMENT_3D('',#206,#169,#170);
#143=AXIS2_PLACEMENT_3D('',#207,#171,#172);
#144=AXIS2_PLACEMENT_3D('',#209,#173,#174);
#145=AXIS2_PLACEMENT_3D('',#210,#175,#176);
#146=AXIS2_PLACEMENT_3D('',#212,#177,#178);
#147=AXIS2_PLACEMENT_3D('',#213,#179,#180);
#148=AXIS2_PLACEMENT_3D('',#215,#181,#182);
#149=AXIS2_PLACEMENT_3D('',#216,#183,#184);
#150=AXIS2_PLACEMENT_3D('',#218,#185,#186);
#151=AXIS2_PLACEMENT_3D('',#219,#187,#188);
#152=AXIS2_PLACEMENT_3D('',#220,#189,#190);
#153=AXIS2_PLACEMENT_3D('',#222,#191,#192);
#154=AXIS2_PLACEMENT_3D('',#223,#193,#194);
#155=DIRECTION('',(0.,0.,1.));
#156=DIRECTION('',(1.,0.,0.));
#157=DIRECTION('',(0.,1.,1.66343347011475E-16));
#158=DIRECTION('',(0.,-1.66343347011475E-16,1.));
#159=DIRECTION('',(0.,-1.,-1.66343347011475E-16));
#160=DIRECTION('',(0.,1.66343347011475E-16,-1.));
#161=DIRECTION('',(0.,-1.,-1.66343347011475E-16));
#162=DIRECTION('',(0.,1.66343347011475E-16,-1.));
#163=DIRECTION('',(0.,1.,1.66343347011475E-16));
#164=DIRECTION('',(0.,0.,1.));
#165=DIRECTION('',(0.,1.,1.66343347011475E-16));
#166=DIRECTION('',(0.,-1.66533453693773E-16,1.));
#167=DIRECTION('',(0.,1.,1.66343347011475E-16));
#168=DIRECTION('',(0.,0.,1.));
#169=DIRECTION('',(0.,1.,1.66343347011475E-16));
#170=DIRECTION('',(0.,-1.66343347011475E-16,1.));
#171=DIRECTION('',(0.,1.,1.66343347011475E-16));
#172=DIRECTION('',(0.,0.,1.));
#173=DIRECTION('',(0.,1.,1.66343347011475E-16));
#174=DIRECTION('',(0.,-1.66533453693773E-16,1.));
#175=DIRECTION('',(0.,1.,1.66343347011475E-16));
#176=DIRECTION('',(0.,0.,1.));
#177=DIRECTION('',(0.,1.,1.66343347011475E-16));
#178=DIRECTION('',(0.,-1.66343347011475E-16,1.));
#179=DIRECTION('',(0.,1.,1.66343347011475E-16));
#180=DIRECTION('',(0.,0.,1.));
#181=DIRECTION('',(0.,-1.,-1.66343347011475E-16));
#182=DIRECTION('',(0.,1.66533453693773E-16,-1.));
#183=DIRECTION('',(0.,1.,1.66343347011475E-16));
#184=DIRECTION('',(0.,1.60848327464924E-16,-1.));
#185=DIRECTION('',(0.,1.,1.66343347011475E-16));
#186=DIRECTION('',(0.,-1.66343347011475E-16,1.));
#187=DIRECTION('',(0.,-1.,-1.66343347011475E-16));
#188=DIRECTION('',(0.,1.60848327464924E-16,-1.));
#189=DIRECTION('',(0.,-1.,-1.66343347011475E-16));
#190=DIRECTION('',(0.,0.,1.));
#191=DIRECTION('',(0.,1.,1.66343347011475E-16));
#192=DIRECTION('',(0.,-1.66533453693773E-16,1.));
#193=DIRECTION('',(0.,1.,1.66343347011475E-16));
#194=DIRECTION('',(0.,-1.66343347011475E-16,1.));
#195=CARTESIAN_POINT('',(0.,0.,0.));
#196=CARTESIAN_POINT('',(0.,-1.77264702689559E-32,6.16297582203915E-33));
#197=CARTESIAN_POINT('',(0.,-4.15858367528688E-17,0.25));
#198=CARTESIAN_POINT('',(0.,0.,-4.16333634234434E-17));
#199=CARTESIAN_POINT('',(0.,7.24841134602499E-17,-0.435749999999999));
#200=CARTESIAN_POINT('',(0.,-8.67687283659923E-17,0.530749999999998));
#201=CARTESIAN_POINT('',(0.,9.198,1.4883927423881E-15));
#202=CARTESIAN_POINT('',(0.,9.198,0.530750000000002));
#203=CARTESIAN_POINT('',(0.,9.198,1.4432899320127E-15));
#204=CARTESIAN_POINT('',(0.,8.243,1.32953484599214E-15));
#205=CARTESIAN_POINT('',(0.,8.243,0.530750000000001));
#206=CARTESIAN_POINT('',(0.,0.,-4.16333634234434E-17));
#207=CARTESIAN_POINT('',(0.,8.243,1.32953484599214E-15));
#208=CARTESIAN_POINT('',(0.,8.243,0.587500000000049));
#209=CARTESIAN_POINT('',(0.,8.243,0.530750000000001));
#210=CARTESIAN_POINT('',(0.,8.138,1.31206879455594E-15));
#211=CARTESIAN_POINT('',(0.,8.138,0.587500000000049));
#212=CARTESIAN_POINT('',(0.,0.,-4.16333634234434E-17));
#213=CARTESIAN_POINT('',(0.,8.138,1.31206879455594E-15));
#214=CARTESIAN_POINT('',(0.,8.138,0.530750000000001));
#215=CARTESIAN_POINT('',(0.,8.138,0.587500000000049));
#216=CARTESIAN_POINT('',(0.,0.095,-2.58307454573533E-17));
#217=CARTESIAN_POINT('',(0.,0.0950000000000001,-0.530749999999999));
#218=CARTESIAN_POINT('',(0.,0.,-4.16333634234434E-17));
#219=CARTESIAN_POINT('',(0.,0.095,-2.58307454573533E-17));
#220=CARTESIAN_POINT('',(0.,1.,1.66343347011475E-16));
#221=CARTESIAN_POINT('',(0.,1.,0.25));
#222=CARTESIAN_POINT('',(0.,1.,1.66343347011475E-16));
#223=CARTESIAN_POINT('',(0.,-1.77264702689559E-32,6.16297582203915E-33));
#224=MECHANICAL_DESIGN_GEOMETRIC_PRESENTATION_REPRESENTATION('',(#24),#225);
#225=(
GEOMETRIC_REPRESENTATION_CONTEXT(3)
GLOBAL_UNCERTAINTY_ASSIGNED_CONTEXT((#226))
GLOBAL_UNIT_ASSIGNED_CONTEXT((#231,#228,#227))
REPRESENTATION_CONTEXT('99-100-2D2_CLR','TOP_LEVEL_ASSEMBLY_PART')
);
#226=UNCERTAINTY_MEASURE_WITH_UNIT(LENGTH_MEASURE(7.8740157480315E-7),#231,
'DISTANCE_ACCURACY_VALUE','Maximum Tolerance applied to model');
#227=(
NAMED_UNIT(*)
SI_UNIT($,.STERADIAN.)
SOLID_ANGLE_UNIT()
);
#228=(
CONVERSION_BASED_UNIT('DEGREE',#229)
NAMED_UNIT(#233)
PLANE_ANGLE_UNIT()
);
#229=PLANE_ANGLE_MEASURE_WITH_UNIT(PLANE_ANGLE_MEASURE(0.0174532925),#230);
#230=(
NAMED_UNIT(*)
PLANE_ANGLE_UNIT()
SI_UNIT($,.RADIAN.)
);
#231=(
CONVERSION_BASED_UNIT('INCH',#234)
LENGTH_UNIT()
NAMED_UNIT(#232)
);
#232=DIMENSIONAL_EXPONENTS(1.,0.,0.,0.,0.,0.,0.);
#233=DIMENSIONAL_EXPONENTS(0.,0.,0.,0.,0.,0.,0.);
#234=LENGTH_MEASURE_WITH_UNIT(LENGTH_MEASURE(25.4),#235);
#235=(
LENGTH_UNIT()
NAMED_UNIT(*)
SI_UNIT(.MILLI.,.METRE.)
);
ENDSEC;
END-ISO-10303-21;
