ISO-10303-21;
HEADER;
/* Generated by software containing ST-Developer
 * from STEP Tools, Inc. (www.steptools.com) 
 */
/* OPTION: using custom schema-name function */

FILE_DESCRIPTION(
/* description */ (''),
/* implementation_level */ '2;1');

FILE_NAME(
/* name */ '99-100-245.stp',
/* time_stamp */ '2012-06-26T17:38:09-04:00',
/* author */ (''),
/* organization */ (''),
/* preprocessor_version */ 'ST-DEVELOPER v14',
/* originating_system */ 'SIEMENS PLM Software NX 8.0',
/* authorisation */ '');

FILE_SCHEMA (('CONFIG_CONTROL_DESIGN'));
ENDSEC;

DATA;
#10=SHAPE_REPRESENTATION_RELATIONSHIP('None',
'relationship between 130133-None and 130133-None',#92,#11);
#11=ADVANCED_BREP_SHAPE_REPRESENTATION('130133-None',(#93),#384);
#12=CC_DESIGN_APPROVAL(#24,(#82));
#13=CC_DESIGN_APPROVAL(#25,(#84));
#14=CC_DESIGN_APPROVAL(#26,(#31));
#15=APPROVAL_PERSON_ORGANIZATION(#69,#24,#18);
#16=APPROVAL_PERSON_ORGANIZATION(#70,#25,#19);
#17=APPROVAL_PERSON_ORGANIZATION(#71,#26,#20);
#18=APPROVAL_ROLE('approver');
#19=APPROVAL_ROLE('approver');
#20=APPROVAL_ROLE('approver');
#21=APPROVAL_DATE_TIME(#39,#24);
#22=APPROVAL_DATE_TIME(#40,#25);
#23=APPROVAL_DATE_TIME(#41,#26);
#24=APPROVAL(#27,' ');
#25=APPROVAL(#28,' ');
#26=APPROVAL(#29,' ');
#27=APPROVAL_STATUS('not_yet_approved');
#28=APPROVAL_STATUS('not_yet_approved');
#29=APPROVAL_STATUS('not_yet_approved');
#30=CC_DESIGN_SECURITY_CLASSIFICATION(#31,(#84));
#31=SECURITY_CLASSIFICATION(' ',' ',#32);
#32=SECURITY_CLASSIFICATION_LEVEL('confidential');
#33=CC_DESIGN_DATE_AND_TIME_ASSIGNMENT(#37,#35,(#82));
#34=CC_DESIGN_DATE_AND_TIME_ASSIGNMENT(#38,#36,(#31));
#35=DATE_TIME_ROLE('creation_date');
#36=DATE_TIME_ROLE('classification_date');
#37=DATE_AND_TIME(#52,#42);
#38=DATE_AND_TIME(#53,#43);
#39=DATE_AND_TIME(#54,#44);
#40=DATE_AND_TIME(#55,#45);
#41=DATE_AND_TIME(#56,#46);
#42=LOCAL_TIME(0,0,0.,#47);
#43=LOCAL_TIME(0,0,0.,#48);
#44=LOCAL_TIME(0,0,0.,#49);
#45=LOCAL_TIME(0,0,0.,#50);
#46=LOCAL_TIME(0,0,0.,#51);
#47=COORDINATED_UNIVERSAL_TIME_OFFSET(0,0,.BEHIND.);
#48=COORDINATED_UNIVERSAL_TIME_OFFSET(0,0,.BEHIND.);
#49=COORDINATED_UNIVERSAL_TIME_OFFSET(0,0,.BEHIND.);
#50=COORDINATED_UNIVERSAL_TIME_OFFSET(0,0,.BEHIND.);
#51=COORDINATED_UNIVERSAL_TIME_OFFSET(0,0,.BEHIND.);
#52=CALENDAR_DATE(0,1,1);
#53=CALENDAR_DATE(0,1,1);
#54=CALENDAR_DATE(0,1,1);
#55=CALENDAR_DATE(0,1,1);
#56=CALENDAR_DATE(0,1,1);
#57=CC_DESIGN_PERSON_AND_ORGANIZATION_ASSIGNMENT(#65,#61,(#82,#84));
#58=CC_DESIGN_PERSON_AND_ORGANIZATION_ASSIGNMENT(#66,#62,(#86));
#59=CC_DESIGN_PERSON_AND_ORGANIZATION_ASSIGNMENT(#67,#63,(#84));
#60=CC_DESIGN_PERSON_AND_ORGANIZATION_ASSIGNMENT(#68,#64,(#31));
#61=PERSON_AND_ORGANIZATION_ROLE('creator');
#62=PERSON_AND_ORGANIZATION_ROLE('design_owner');
#63=PERSON_AND_ORGANIZATION_ROLE('design_supplier');
#64=PERSON_AND_ORGANIZATION_ROLE('classification_officer');
#65=PERSON_AND_ORGANIZATION(#79,#72);
#66=PERSON_AND_ORGANIZATION(#79,#73);
#67=PERSON_AND_ORGANIZATION(#79,#74);
#68=PERSON_AND_ORGANIZATION(#79,#75);
#69=PERSON_AND_ORGANIZATION(#79,#76);
#70=PERSON_AND_ORGANIZATION(#79,#77);
#71=PERSON_AND_ORGANIZATION(#79,#78);
#72=ORGANIZATION(' ',' ',' ');
#73=ORGANIZATION(' ',' ',' ');
#74=ORGANIZATION(' ',' ',' ');
#75=ORGANIZATION(' ',' ',' ');
#76=ORGANIZATION(' ',' ',' ');
#77=ORGANIZATION(' ',' ',' ');
#78=ORGANIZATION(' ',' ',' ');
#79=PERSON(' ',' ',' ',(' '),$,$);
#80=SHAPE_DEFINITION_REPRESENTATION(#81,#92);
#81=PRODUCT_DEFINITION_SHAPE('','',#82);
#82=PRODUCT_DEFINITION(' ','',#84,#83);
#83=DESIGN_CONTEXT('',#91,'design');
#84=PRODUCT_DEFINITION_FORMATION_WITH_SPECIFIED_SOURCE(' ',' ',#86,
 .NOT_KNOWN.);
#85=PRODUCT_RELATED_PRODUCT_CATEGORY('detail','',(#86));
#86=PRODUCT('130133','130133',' ',(#89));
#87=PRODUCT_CATEGORY('part',' ');
#88=PRODUCT_CATEGORY(' ','');
#89=MECHANICAL_CONTEXT(' ',#91,'mechanical');
#90=APPLICATION_PROTOCOL_DEFINITION('international standard',
'config_control_design',2010,#91);
#91=APPLICATION_CONTEXT(
'configuration controlled 3D designs of mechanical parts and assemblies');
#92=SHAPE_REPRESENTATION('130133-None',(#226),#384);
#93=MANIFOLD_SOLID_BREP('',#94);
#94=CLOSED_SHELL('',(#107,#108,#109,#110,#111,#112,#113,#114,#115,#116,#117));
#95=PLANE('',#237);
#96=PLANE('',#240);
#97=PLANE('',#241);
#98=PLANE('',#242);
#99=PLANE('',#244);
#100=(
BOUNDED_SURFACE()
B_SPLINE_SURFACE(3,3,((#339,#340,#341,#342,#343,#344,#345),(#346,#347,#348,
#349,#350,#351,#352),(#353,#354,#355,#356,#357,#358,#359),(#360,#361,#362,
#363,#364,#365,#366)),.UNSPECIFIED.,.F.,.T.,.F.)
B_SPLINE_SURFACE_WITH_KNOTS((4,4),(1,3,3,3,1),(0.,1.),(-0.5,0.,0.5,1.,1.5),
 .UNSPECIFIED.)
GEOMETRIC_REPRESENTATION_ITEM()
RATIONAL_B_SPLINE_SURFACE(((1.,0.333333333333333,0.333333333333333,1.,0.333333333333333,
0.333333333333333,1.),(0.988395060689715,0.329465020229905,0.329465020229905,
0.988395060689715,0.329465020229905,0.329465020229905,0.988395060689715),
(0.988395060689715,0.329465020229905,0.329465020229905,0.988395060689715,
0.329465020229905,0.329465020229905,0.988395060689715),(1.,0.333333333333333,
0.333333333333333,1.,0.333333333333333,0.333333333333333,1.)))
REPRESENTATION_ITEM('')
SURFACE()
);
#101=TOROIDAL_SURFACE('',#231,0.47,0.06);
#102=FACE_OUTER_BOUND('',#146,.T.);
#103=FACE_OUTER_BOUND('',#157,.T.);
#104=FACE_OUTER_BOUND('',#158,.T.);
#105=FACE_OUTER_BOUND('',#159,.T.);
#106=FACE_OUTER_BOUND('',#160,.T.);
#107=ADVANCED_FACE('',(#132,#133),#118,.T.);
#108=ADVANCED_FACE('',(#102),#101,.T.);
#109=ADVANCED_FACE('',(#134,#135),#100,.T.);
#110=ADVANCED_FACE('',(#136,#137),#119,.T.);
#111=ADVANCED_FACE('',(#138,#139),#95,.F.);
#112=ADVANCED_FACE('',(#140,#141),#120,.T.);
#113=ADVANCED_FACE('',(#142,#143),#96,.F.);
#114=ADVANCED_FACE('',(#103),#97,.F.);
#115=ADVANCED_FACE('',(#104),#98,.F.);
#116=ADVANCED_FACE('',(#105),#121,.F.);
#117=ADVANCED_FACE('',(#106),#99,.T.);
#118=CYLINDRICAL_SURFACE('',#229,0.53);
#119=CYLINDRICAL_SURFACE('',#235,0.53075);
#120=CYLINDRICAL_SURFACE('',#239,0.5875);
#121=CYLINDRICAL_SURFACE('',#243,0.125);
#122=B_SPLINE_CURVE_WITH_KNOTS('',3,(#292,#293,#294,#295,#296,#297,#298,
#299,#300,#301,#302,#303,#304,#305),.UNSPECIFIED.,.F.,.F.,(4,2,2,2,2,2,4),
(0.,0.125,0.25,0.5,0.75,0.875,1.),.UNSPECIFIED.);
#123=B_SPLINE_CURVE_WITH_KNOTS('',3,(#311,#312,#313,#314,#315,#316,#317,
#318),.UNSPECIFIED.,.F.,.F.,(4,2,2,4),(0.,0.500000000000001,0.75,1.),
 .UNSPECIFIED.);
#124=B_SPLINE_CURVE_WITH_KNOTS('',3,(#322,#323,#324,#325,#326,#327,#328,
#329),.UNSPECIFIED.,.F.,.F.,(4,2,2,4),(0.,0.25,0.5,1.),.UNSPECIFIED.);
#125=B_SPLINE_CURVE_WITH_KNOTS('',3,(#333,#334,#335,#336,#337,#338),
 .UNSPECIFIED.,.F.,.F.,(4,2,4),(0.,0.5,1.),.UNSPECIFIED.);
#126=LINE('',#289,#129);
#127=LINE('',#307,#130);
#128=LINE('',#381,#131);
#129=VECTOR('',#249,1.);
#130=VECTOR('',#250,1.);
#131=VECTOR('',#281,1.);
#132=FACE_BOUND('',#144,.T.);
#133=FACE_BOUND('',#145,.T.);
#134=FACE_BOUND('',#147,.T.);
#135=FACE_BOUND('',#148,.T.);
#136=FACE_BOUND('',#149,.T.);
#137=FACE_BOUND('',#150,.T.);
#138=FACE_BOUND('',#151,.T.);
#139=FACE_BOUND('',#152,.T.);
#140=FACE_BOUND('',#153,.T.);
#141=FACE_BOUND('',#154,.T.);
#142=FACE_BOUND('',#155,.T.);
#143=FACE_BOUND('',#156,.T.);
#144=EDGE_LOOP('',(#161));
#145=EDGE_LOOP('',(#162,#163,#164,#165));
#146=EDGE_LOOP('',(#166,#167,#168,#169));
#147=EDGE_LOOP('',(#170));
#148=EDGE_LOOP('',(#171,#172));
#149=EDGE_LOOP('',(#173));
#150=EDGE_LOOP('',(#174));
#151=EDGE_LOOP('',(#175));
#152=EDGE_LOOP('',(#176));
#153=EDGE_LOOP('',(#177));
#154=EDGE_LOOP('',(#178));
#155=EDGE_LOOP('',(#179));
#156=EDGE_LOOP('',(#180));
#157=EDGE_LOOP('',(#181));
#158=EDGE_LOOP('',(#182));
#159=EDGE_LOOP('',(#183,#184));
#160=EDGE_LOOP('',(#185,#186,#187,#188,#189,#190));
#161=ORIENTED_EDGE('',*,*,#203,.T.);
#162=ORIENTED_EDGE('',*,*,#204,.F.);
#163=ORIENTED_EDGE('',*,*,#205,.F.);
#164=ORIENTED_EDGE('',*,*,#206,.F.);
#165=ORIENTED_EDGE('',*,*,#207,.F.);
#166=ORIENTED_EDGE('',*,*,#208,.F.);
#167=ORIENTED_EDGE('',*,*,#209,.F.);
#168=ORIENTED_EDGE('',*,*,#210,.F.);
#169=ORIENTED_EDGE('',*,*,#207,.T.);
#170=ORIENTED_EDGE('',*,*,#211,.F.);
#171=ORIENTED_EDGE('',*,*,#212,.F.);
#172=ORIENTED_EDGE('',*,*,#209,.T.);
#173=ORIENTED_EDGE('',*,*,#213,.F.);
#174=ORIENTED_EDGE('',*,*,#214,.T.);
#175=ORIENTED_EDGE('',*,*,#215,.F.);
#176=ORIENTED_EDGE('',*,*,#213,.T.);
#177=ORIENTED_EDGE('',*,*,#216,.F.);
#178=ORIENTED_EDGE('',*,*,#215,.T.);
#179=ORIENTED_EDGE('',*,*,#203,.F.);
#180=ORIENTED_EDGE('',*,*,#216,.T.);
#181=ORIENTED_EDGE('',*,*,#211,.T.);
#182=ORIENTED_EDGE('',*,*,#214,.F.);
#183=ORIENTED_EDGE('',*,*,#205,.T.);
#184=ORIENTED_EDGE('',*,*,#217,.F.);
#185=ORIENTED_EDGE('',*,*,#204,.T.);
#186=ORIENTED_EDGE('',*,*,#210,.T.);
#187=ORIENTED_EDGE('',*,*,#212,.T.);
#188=ORIENTED_EDGE('',*,*,#208,.T.);
#189=ORIENTED_EDGE('',*,*,#206,.T.);
#190=ORIENTED_EDGE('',*,*,#217,.T.);
#191=VERTEX_POINT('',#288);
#192=VERTEX_POINT('',#290);
#193=VERTEX_POINT('',#291);
#194=VERTEX_POINT('',#306);
#195=VERTEX_POINT('',#308);
#196=VERTEX_POINT('',#319);
#197=VERTEX_POINT('',#321);
#198=VERTEX_POINT('',#332);
#199=VERTEX_POINT('',#368);
#200=VERTEX_POINT('',#370);
#201=VERTEX_POINT('',#373);
#202=VERTEX_POINT('',#376);
#203=EDGE_CURVE('',#191,#191,#218,.T.);
#204=EDGE_CURVE('',#192,#193,#126,.T.);
#205=EDGE_CURVE('',#194,#192,#122,.T.);
#206=EDGE_CURVE('',#195,#194,#127,.T.);
#207=EDGE_CURVE('',#193,#195,#219,.T.);
#208=EDGE_CURVE('',#196,#195,#123,.T.);
#209=EDGE_CURVE('',#197,#196,#220,.T.);
#210=EDGE_CURVE('',#193,#197,#124,.T.);
#211=EDGE_CURVE('',#198,#198,#221,.T.);
#212=EDGE_CURVE('',#197,#196,#125,.T.);
#213=EDGE_CURVE('',#199,#199,#222,.T.);
#214=EDGE_CURVE('',#200,#200,#223,.T.);
#215=EDGE_CURVE('',#201,#201,#224,.T.);
#216=EDGE_CURVE('',#202,#202,#225,.T.);
#217=EDGE_CURVE('',#194,#192,#128,.T.);
#218=CIRCLE('',#227,0.53);
#219=CIRCLE('',#228,0.53);
#220=CIRCLE('',#230,0.491904761904766);
#221=CIRCLE('',#232,0.355);
#222=CIRCLE('',#233,0.53075);
#223=CIRCLE('',#234,0.530750000000001);
#224=CIRCLE('',#236,0.5875);
#225=CIRCLE('',#238,0.5875);
#226=AXIS2_PLACEMENT_3D('',#286,#245,#246);
#227=AXIS2_PLACEMENT_3D('',#287,#247,#248);
#228=AXIS2_PLACEMENT_3D('',#309,#251,#252);
#229=AXIS2_PLACEMENT_3D('',#310,#253,#254);
#230=AXIS2_PLACEMENT_3D('',#320,#255,#256);
#231=AXIS2_PLACEMENT_3D('',#330,#257,#258);
#232=AXIS2_PLACEMENT_3D('',#331,#259,#260);
#233=AXIS2_PLACEMENT_3D('',#367,#261,#262);
#234=AXIS2_PLACEMENT_3D('',#369,#263,#264);
#235=AXIS2_PLACEMENT_3D('',#371,#265,#266);
#236=AXIS2_PLACEMENT_3D('',#372,#267,#268);
#237=AXIS2_PLACEMENT_3D('',#374,#269,#270);
#238=AXIS2_PLACEMENT_3D('',#375,#271,#272);
#239=AXIS2_PLACEMENT_3D('',#377,#273,#274);
#240=AXIS2_PLACEMENT_3D('',#378,#275,#276);
#241=AXIS2_PLACEMENT_3D('',#379,#277,#278);
#242=AXIS2_PLACEMENT_3D('',#380,#279,#280);
#243=AXIS2_PLACEMENT_3D('',#382,#282,#283);
#244=AXIS2_PLACEMENT_3D('',#383,#284,#285);
#245=DIRECTION('',(0.,0.,1.));
#246=DIRECTION('',(1.,0.,0.));
#247=DIRECTION('',(0.,-1.,0.));
#248=DIRECTION('',(0.,0.,-1.));
#249=DIRECTION('',(0.,-1.,0.));
#250=DIRECTION('',(0.,1.,0.));
#251=DIRECTION('',(0.,-1.,0.));
#252=DIRECTION('',(0.,0.,-1.));
#253=DIRECTION('',(0.,-1.,0.));
#254=DIRECTION('',(0.,0.,-1.));
#255=DIRECTION('',(0.,-1.,0.));
#256=DIRECTION('',(0.,0.,-1.));
#257=DIRECTION('',(0.,-1.,0.));
#258=DIRECTION('',(0.,0.,-1.));
#259=DIRECTION('',(0.,-1.,0.));
#260=DIRECTION('',(0.,0.,-1.));
#261=DIRECTION('',(0.,-1.,0.));
#262=DIRECTION('',(0.,0.,-1.));
#263=DIRECTION('',(0.,-1.,0.));
#264=DIRECTION('',(0.,0.,-1.));
#265=DIRECTION('',(0.,-1.,0.));
#266=DIRECTION('',(0.,0.,-1.));
#267=DIRECTION('',(0.,-1.,0.));
#268=DIRECTION('',(0.,0.,-1.));
#269=DIRECTION('',(0.,-1.,0.));
#270=DIRECTION('',(0.,0.,-1.));
#271=DIRECTION('',(0.,-1.,0.));
#272=DIRECTION('',(0.,0.,-1.));
#273=DIRECTION('',(0.,-1.,0.));
#274=DIRECTION('',(0.,0.,-1.));
#275=DIRECTION('',(0.,1.,0.));
#276=DIRECTION('',(0.,0.,1.));
#277=DIRECTION('',(0.,1.,0.));
#278=DIRECTION('',(0.,0.,1.));
#279=DIRECTION('',(0.,-1.,0.));
#280=DIRECTION('',(0.,0.,-1.));
#281=DIRECTION('',(1.,0.,0.));
#282=DIRECTION('',(-1.,0.,0.));
#283=DIRECTION('',(0.,0.,1.));
#284=DIRECTION('',(0.,0.,-1.));
#285=DIRECTION('',(-1.,0.,0.));
#286=CARTESIAN_POINT('',(0.,0.,0.));
#287=CARTESIAN_POINT('',(0.,2.8425,0.));
#288=CARTESIAN_POINT('',(0.,2.8425,-0.53));
#289=CARTESIAN_POINT('',(0.224722050542442,-2.34980846560003,-0.48));
#290=CARTESIAN_POINT('',(0.224722050542442,2.,-0.48));
#291=CARTESIAN_POINT('',(0.224722050542442,0.0817424340277045,-0.48));
#292=CARTESIAN_POINT('',(-0.224722050542443,2.,-0.48));
#293=CARTESIAN_POINT('',(-0.224722050542443,2.02328432459894,-0.48));
#294=CARTESIAN_POINT('',(-0.210469762258254,2.04331943324234,-0.486781158626599));
#295=CARTESIAN_POINT('',(-0.175451415919427,2.07018366062988,-0.500469996973613));
#296=CARTESIAN_POINT('',(-0.154886614485871,2.07845168394775,-0.507339574443514));
#297=CARTESIAN_POINT('',(-0.0910640482261942,2.09657858606009,-0.52396618945724));
#298=CARTESIAN_POINT('',(-0.045089540506042,2.10000673730863,-0.530008983076207));
#299=CARTESIAN_POINT('',(0.045300474952232,2.09999324695081,-0.529990995936368));
#300=CARTESIAN_POINT('',(0.0911828303290625,2.09658155031164,-0.523954187604518));
#301=CARTESIAN_POINT('',(0.15514799398234,2.07835895818272,-0.507261939018727));
#302=CARTESIAN_POINT('',(0.175656613756198,2.07006727222005,-0.500395199146084));
#303=CARTESIAN_POINT('',(0.210531484955774,2.0432307393887,-0.486751574344717));
#304=CARTESIAN_POINT('',(0.224722050542443,2.02324394714536,-0.48));
#305=CARTESIAN_POINT('',(0.224722050542443,2.,-0.48));
#306=CARTESIAN_POINT('',(-0.224722050542442,2.,-0.48));
#307=CARTESIAN_POINT('',(-0.224722050542442,-2.34980846560003,-0.48));
#308=CARTESIAN_POINT('',(-0.224722050542443,0.0817424340277044,-0.48));
#309=CARTESIAN_POINT('',(0.,0.0817424340277044,0.));
#310=CARTESIAN_POINT('',(0.,-2.34980846560003,0.));
#311=CARTESIAN_POINT('',(-0.107565304743603,0.025883850032981,-0.48));
#312=CARTESIAN_POINT('',(-0.130637392649808,0.0278623074062596,-0.48));
#313=CARTESIAN_POINT('',(-0.153647646073003,0.0309236720198176,-0.48));
#314=CARTESIAN_POINT('',(-0.186800911187788,0.0416724558285785,-0.48));
#315=CARTESIAN_POINT('',(-0.197549914680417,0.0462259195653125,-0.48));
#316=CARTESIAN_POINT('',(-0.216440667636628,0.0600048836202055,-0.48));
#317=CARTESIAN_POINT('',(-0.224722050542442,0.0699417724451917,-0.48));
#318=CARTESIAN_POINT('',(-0.224722050542442,0.0817424340277045,-0.48));
#319=CARTESIAN_POINT('',(-0.107565304743603,0.0258838500329813,-0.48));
#320=CARTESIAN_POINT('',(0.,0.0258838500329813,0.));
#321=CARTESIAN_POINT('',(0.107565304743603,0.0258838500329813,-0.48));
#322=CARTESIAN_POINT('',(0.224722050542444,0.0817424340277044,-0.48));
#323=CARTESIAN_POINT('',(0.224722050542444,0.0699834707162697,-0.48));
#324=CARTESIAN_POINT('',(0.216303483434307,0.0598703449495752,-0.48));
#325=CARTESIAN_POINT('',(0.197413613475406,0.0461614809584929,-0.48));
#326=CARTESIAN_POINT('',(0.1865276023284,0.0415672136359427,-0.48));
#327=CARTESIAN_POINT('',(0.153512697853445,0.0309137034828444,-0.48));
#328=CARTESIAN_POINT('',(0.130627048920738,0.0278614204199096,-0.48));
#329=CARTESIAN_POINT('',(0.107565304743603,0.0258838500329813,-0.48));
#330=CARTESIAN_POINT('',(0.,0.0817424340277043,0.));
#331=CARTESIAN_POINT('',(0.,0.,0.));
#332=CARTESIAN_POINT('',(0.,0.,-0.355));
#333=CARTESIAN_POINT('',(0.107565304743603,0.0258838500329813,-0.48));
#334=CARTESIAN_POINT('',(0.07167409041085,0.0228061382142142,-0.48));
#335=CARTESIAN_POINT('',(0.0351151959497541,0.0214273940622333,-0.48));
#336=CARTESIAN_POINT('',(-0.0365856273613247,0.0214662228988927,-0.48));
#337=CARTESIAN_POINT('',(-0.0722109830267388,0.0228521773572204,-0.48));
#338=CARTESIAN_POINT('',(-0.107565304743603,0.0258838500329813,-0.48));
#339=CARTESIAN_POINT('',(0.,-6.82961998416066E-017,-0.355));
#340=CARTESIAN_POINT('',(0.71,-6.82961998416066E-017,-0.355));
#341=CARTESIAN_POINT('',(0.71,-6.82961998416066E-017,0.355));
#342=CARTESIAN_POINT('',(0.,-6.82961998416066E-017,0.355));
#343=CARTESIAN_POINT('',(-0.71,-6.82961998416066E-017,0.355));
#344=CARTESIAN_POINT('',(-0.71,-6.82961998416066E-017,-0.355));
#345=CARTESIAN_POINT('',(0.,-6.82961998416066E-017,-0.355));
#346=CARTESIAN_POINT('',(0.,2.4861297223357E-015,-0.401988680319626));
#347=CARTESIAN_POINT('',(0.803977360639252,2.4861297223357E-015,-0.401988680319626));
#348=CARTESIAN_POINT('',(0.803977360639252,2.4861297223357E-015,0.401988680319626));
#349=CARTESIAN_POINT('',(0.,2.4861297223357E-015,0.401988680319626));
#350=CARTESIAN_POINT('',(-0.803977360639252,2.4861297223357E-015,0.401988680319626));
#351=CARTESIAN_POINT('',(-0.803977360639252,2.4861297223357E-015,-0.401988680319626));
#352=CARTESIAN_POINT('',(0.,2.4861297223357E-015,-0.401988680319626));
#353=CARTESIAN_POINT('',(0.,0.00872925245597195,-0.448159409464182));
#354=CARTESIAN_POINT('',(0.896318818928364,0.00872925245597195,-0.448159409464182));
#355=CARTESIAN_POINT('',(0.896318818928364,0.00872925245597195,0.448159409464182));
#356=CARTESIAN_POINT('',(0.,0.00872925245597195,0.448159409464182));
#357=CARTESIAN_POINT('',(-0.896318818928364,0.00872925245597195,0.448159409464182));
#358=CARTESIAN_POINT('',(-0.896318818928364,0.00872925245597195,-0.448159409464182));
#359=CARTESIAN_POINT('',(0.,0.00872925245597195,-0.448159409464182));
#360=CARTESIAN_POINT('',(0.,0.0258838500329813,-0.491904761904766));
#361=CARTESIAN_POINT('',(0.983809523809532,0.0258838500329813,-0.491904761904766));
#362=CARTESIAN_POINT('',(0.983809523809532,0.0258838500329813,0.491904761904766));
#363=CARTESIAN_POINT('',(0.,0.0258838500329813,0.491904761904766));
#364=CARTESIAN_POINT('',(-0.983809523809532,0.0258838500329813,0.491904761904766));
#365=CARTESIAN_POINT('',(-0.983809523809532,0.0258838500329813,-0.491904761904766));
#366=CARTESIAN_POINT('',(0.,0.0258838500329813,-0.491904761904766));
#367=CARTESIAN_POINT('',(0.,2.9475,0.));
#368=CARTESIAN_POINT('',(0.,2.9475,-0.53075));
#369=CARTESIAN_POINT('',(0.,3.9,0.));
#370=CARTESIAN_POINT('',(0.,3.9,-0.530750000000001));
#371=CARTESIAN_POINT('',(0.,-2.34980846560003,0.));
#372=CARTESIAN_POINT('',(0.,2.9475,0.));
#373=CARTESIAN_POINT('',(0.,2.9475,-0.5875));
#374=CARTESIAN_POINT('',(0.,2.9475,0.53075));
#375=CARTESIAN_POINT('',(0.,2.8425,0.));
#376=CARTESIAN_POINT('',(0.,2.8425,-0.5875));
#377=CARTESIAN_POINT('',(0.,-2.34980846560003,0.));
#378=CARTESIAN_POINT('',(0.,2.8425,0.5875));
#379=CARTESIAN_POINT('',(0.,-3.41480999208033E-017,0.355));
#380=CARTESIAN_POINT('',(0.,3.9,6.66133814775094E-016));
#381=CARTESIAN_POINT('',(0.64625,2.,-0.48));
#382=CARTESIAN_POINT('',(0.64625,2.,-0.605));
#383=CARTESIAN_POINT('',(0.64625,2.,-0.48));
#384=(
GEOMETRIC_REPRESENTATION_CONTEXT(3)
GLOBAL_UNCERTAINTY_ASSIGNED_CONTEXT((#385))
GLOBAL_UNIT_ASSIGNED_CONTEXT((#390,#387,#386))
REPRESENTATION_CONTEXT('99-100-245','TOP_LEVEL_ASSEMBLY_PART')
);
#385=UNCERTAINTY_MEASURE_WITH_UNIT(LENGTH_MEASURE(0.002),#390,
'DISTANCE_ACCURACY_VALUE','Maximum Tolerance applied to model');
#386=(
NAMED_UNIT(*)
SI_UNIT($,.STERADIAN.)
SOLID_ANGLE_UNIT()
);
#387=(
CONVERSION_BASED_UNIT('DEGREE',#388)
NAMED_UNIT(#392)
PLANE_ANGLE_UNIT()
);
#388=PLANE_ANGLE_MEASURE_WITH_UNIT(PLANE_ANGLE_MEASURE(0.0174532925),#389);
#389=(
NAMED_UNIT(*)
PLANE_ANGLE_UNIT()
SI_UNIT($,.RADIAN.)
);
#390=(
CONVERSION_BASED_UNIT('INCH',#393)
LENGTH_UNIT()
NAMED_UNIT(#391)
);
#391=DIMENSIONAL_EXPONENTS(1.,0.,0.,0.,0.,0.,0.);
#392=DIMENSIONAL_EXPONENTS(0.,0.,0.,0.,0.,0.,0.);
#393=LENGTH_MEASURE_WITH_UNIT(LENGTH_MEASURE(25.4),#394);
#394=(
LENGTH_UNIT()
NAMED_UNIT(*)
SI_UNIT(.MILLI.,.METRE.)
);
ENDSEC;
END-ISO-10303-21;
