ISO-10303-21;
HEADER;
FILE_DESCRIPTION (( 'STEP AP214' ),
    '1' );
FILE_NAME ('0BS01-00622MING_06_30mm.STEP',
    '2016-04-29T12:16:36',
    ( '' ),
    ( '' ),
    'SwSTEP 2.0',
    'SolidWorks 2015',
    '' );
FILE_SCHEMA (( 'AUTOMOTIVE_DESIGN' ));
ENDSEC;

DATA;
#1 = CARTESIAN_POINT ( 'NONE',  ( 4.085662799228888800E-016, 3.527990493605468000, 3.336196854532658600 ) ) ;
#2 = ORIENTED_EDGE ( 'NONE', *, *, #275, .F. ) ;
#3 = FILL_AREA_STYLE_COLOUR ( '', #210 ) ;
#4 = EDGE_LOOP ( 'NONE', ( #100, #104, #279, #196 ) ) ;
#5 = DIRECTION ( 'NONE',  ( 0.0000000000000000000, 0.0000000000000000000, 1.000000000000000000 ) ) ;
#6 =( GEOMETRIC_REPRESENTATION_CONTEXT ( 3 ) GLOBAL_UNCERTAINTY_ASSIGNED_CONTEXT ( ( #180 ) ) GLOBAL_UNIT_ASSIGNED_CONTEXT ( ( #287, #291, #292 ) ) REPRESENTATION_CONTEXT ( 'NONE', 'WORKASPACE' ) );
#7 = PRESENTATION_STYLE_ASSIGNMENT (( #152 ) ) ;
#8 = CARTESIAN_POINT ( 'NONE',  ( 0.0000000000000000000, 5.700000000000000200, 0.0000000000000000000 ) ) ;
#9 = DIRECTION ( 'NONE',  ( -0.0000000000000000000, -1.000000000000000000, -0.0000000000000000000 ) ) ;
#10 = EDGE_LOOP ( 'NONE', ( #364, #224, #52, #105 ) ) ;
#11 = ORIENTED_EDGE ( 'NONE', *, *, #278, .F. ) ;
#12 = DIRECTION ( 'NONE',  ( 0.0000000000000000000, 0.0000000000000000000, -1.000000000000000000 ) ) ;
#13 = AXIS2_PLACEMENT_3D ( 'NONE', #71, #73, #76 ) ;
#14 = ORIENTED_EDGE ( 'NONE', *, *, #163, .T. ) ;
#15 = DIRECTION ( 'NONE',  ( -0.0000000000000000000, -1.000000000000000000, -0.0000000000000000000 ) ) ;
#16 = ADVANCED_FACE ( 'NONE', ( #173 ), #211, .T. ) ;
#17 = CARTESIAN_POINT ( 'NONE',  ( 0.0000000000000000000, 1.134793366539249800, 0.0000000000000000000 ) ) ;
#18 = EDGE_LOOP ( 'NONE', ( #315, #360 ) ) ;
#19 = ADVANCED_FACE ( 'NONE', ( #288 ), #247, .T. ) ;
#20 = DIRECTION ( 'NONE',  ( -0.0000000000000000000, -1.000000000000000000, -0.0000000000000000000 ) ) ;
#21 = VERTEX_POINT ( 'NONE', #96 ) ;
#22 = EDGE_CURVE ( 'NONE', #57, #227, #323, .T. ) ;
#23 = EDGE_CURVE ( 'NONE', #24, #216, #115, .T. ) ;
#24 = VERTEX_POINT ( 'NONE', #30 ) ;
#25 = DIRECTION ( 'NONE',  ( 1.000000000000000000, 0.0000000000000000000, -1.224646799147353200E-016 ) ) ;
#26 = AXIS2_PLACEMENT_3D ( 'NONE', #326, #329, #339 ) ;
#27 = DIRECTION ( 'NONE',  ( 0.0000000000000000000, 0.0000000000000000000, -1.000000000000000000 ) ) ;
#28 = ORIENTED_EDGE ( 'NONE', *, *, #309, .T. ) ;
#29 = CARTESIAN_POINT ( 'NONE',  ( 6.172219867702660300E-016, 12.00000000000000000, 5.039999999999999100 ) ) ;
#30 = CARTESIAN_POINT ( 'NONE',  ( 2.025465997325047100, 1.134793366539249800, -2.480480450405920400E-016 ) ) ;
#31 =( NAMED_UNIT ( * ) SI_UNIT ( $, .STERADIAN. ) SOLID_ANGLE_UNIT ( ) );
#32 = CIRCLE ( 'NONE', #175, 2.025465997325047100 ) ;
#33 = AXIS2_PLACEMENT_3D ( 'NONE', #146, #44, #49 ) ;
#34 = DIRECTION ( 'NONE',  ( 0.0000000000000000000, 0.0000000000000000000, -1.000000000000000000 ) ) ;
#35 = SHAPE_DEFINITION_REPRESENTATION ( #226, #161 ) ;
#36 = ADVANCED_FACE ( 'NONE', ( #139 ), #56, .T. ) ;
#37 = ADVANCED_FACE ( 'NONE', ( #142 ), #199, .T. ) ;
#38 = DIRECTION ( 'NONE',  ( -0.0000000000000000000, -1.000000000000000000, -0.0000000000000000000 ) ) ;
#39 = ADVANCED_FACE ( 'NONE', ( #189 ), #178, .T. ) ;
#40 = DIRECTION ( 'NONE',  ( 0.0000000000000000000, 0.0000000000000000000, -1.000000000000000000 ) ) ;
#41 = ORIENTED_EDGE ( 'NONE', *, *, #94, .T. ) ;
#42 = LINE ( 'NONE', #170, #246 ) ;
#43 =( NAMED_UNIT ( * ) PLANE_ANGLE_UNIT ( ) SI_UNIT ( $, .RADIAN. ) );
#44 = DIRECTION ( 'NONE',  ( 0.0000000000000000000, -1.000000000000000000, -0.0000000000000000000 ) ) ;
#45 = DIRECTION ( 'NONE',  ( 1.000000000000000000, 0.0000000000000000000, 0.0000000000000000000 ) ) ;
#46 = AXIS2_PLACEMENT_3D ( 'NONE', #245, #295, #297 ) ;
#47 = CARTESIAN_POINT ( 'NONE',  ( 3.000000000000000000, 13.32000000000000000, 0.0000000000000000000 ) ) ;
#48 = CIRCLE ( 'NONE', #158, 1.991052631578946300 ) ;
#49 = DIRECTION ( 'NONE',  ( 0.0000000000000000000, 0.0000000000000000000, -1.000000000000000000 ) ) ;
#50 = CIRCLE ( 'NONE', #214, 5.039999999999999100 ) ;
#51 = ORIENTED_EDGE ( 'NONE', *, *, #74, .F. ) ;
#52 = ORIENTED_EDGE ( 'NONE', *, *, #239, .T. ) ;
#53 = AXIS2_PLACEMENT_3D ( 'NONE', #206, #85, #87 ) ;
#54 = APPLICATION_CONTEXT ( 'automotive_design' ) ;
#55 = CARTESIAN_POINT ( 'NONE',  ( 0.0000000000000000000, 2.375000000000000000, 0.0000000000000000000 ) ) ;
#56 = PLANE ( 'NONE',  #181 ) ;
#57 = VERTEX_POINT ( 'NONE', #191 ) ;
#58 = CARTESIAN_POINT ( 'NONE',  ( 4.923080132572359300E-016, 13.32000000000000000, 3.000000000000000000 ) ) ;
#59 = CARTESIAN_POINT ( 'NONE',  ( 0.0000000000000000000, 2.375000000000000000, 0.0000000000000000000 ) ) ;
#60 = UNCERTAINTY_MEASURE_WITH_UNIT (LENGTH_MEASURE( 1.000000000000000100E-005 ), #369, 'distance_accuracy_value', 'NONE');
#61 = EDGE_CURVE ( 'NONE', #227, #21, #220, .T. ) ;
#62 = CARTESIAN_POINT ( 'NONE',  ( 0.0000000000000000000, 3.527990493605468000, -3.336196854532658600 ) ) ;
#63 = APPLICATION_PROTOCOL_DEFINITION ( 'draft international standard', 'automotive_design', 1998, #54 ) ;
#64 = ORIENTED_EDGE ( 'NONE', *, *, #145, .T. ) ;
#65 = EDGE_CURVE ( 'NONE', #91, #174, #136, .T. ) ;
#66 = DIRECTION ( 'NONE',  ( -1.224646799147353200E-016, 0.0000000000000000000, -1.000000000000000000 ) ) ;
#67 = DIRECTION ( 'NONE',  ( -1.000000000000000000, 0.0000000000000000000, 1.224646799147353200E-016 ) ) ;
#68 = AXIS2_PLACEMENT_3D ( 'NONE', #300, #262, #304 ) ;
#69 = CIRCLE ( 'NONE', #197, 1.991052631578946300 ) ;
#70 = DIRECTION ( 'NONE',  ( -0.0000000000000000000, -1.000000000000000000, -0.0000000000000000000 ) ) ;
#71 = CARTESIAN_POINT ( 'NONE',  ( 0.0000000000000000000, 13.32000000000000000, 0.0000000000000000000 ) ) ;
#72 = ORIENTED_EDGE ( 'NONE', *, *, #92, .F. ) ;
#73 = DIRECTION ( 'NONE',  ( -0.0000000000000000000, -1.000000000000000000, -0.0000000000000000000 ) ) ;
#74 = EDGE_CURVE ( 'NONE', #21, #125, #228, .T. ) ;
#75 = ORIENTED_EDGE ( 'NONE', *, *, #243, .F. ) ;
#76 = DIRECTION ( 'NONE',  ( 0.0000000000000000000, 0.0000000000000000000, -1.000000000000000000 ) ) ;
#77 = DIRECTION ( 'NONE',  ( 0.0000000000000000000, 1.000000000000000000, 0.0000000000000000000 ) ) ;
#78 = AXIS2_PLACEMENT_3D ( 'NONE', #93, #95, #101 ) ;
#79 = CARTESIAN_POINT ( 'NONE',  ( 3.283071624817404100E-016, 1.134793366539249800, 2.025465997325047100 ) ) ;
#80 = SURFACE_SIDE_STYLE ('',( #190 ) ) ;
#81 = ORIENTED_EDGE ( 'NONE', *, *, #278, .T. ) ;
#82 = VERTEX_POINT ( 'NONE', #272 ) ;
#83 = EDGE_CURVE ( 'NONE', #154, #82, #232, .T. ) ;
#84 = CARTESIAN_POINT ( 'NONE',  ( -2.025465997325047100, 1.134793366539249800, 0.0000000000000000000 ) ) ;
#85 = DIRECTION ( 'NONE',  ( -0.0000000000000000000, -1.000000000000000000, -0.0000000000000000000 ) ) ;
#86 = VERTEX_POINT ( 'NONE', #132 ) ;
#87 = DIRECTION ( 'NONE',  ( 0.0000000000000000000, 0.0000000000000000000, -1.000000000000000000 ) ) ;
#88 = FACE_OUTER_BOUND ( 'NONE', #338, .T. ) ;
#89 = VERTEX_POINT ( 'NONE', #106 ) ;
#90 = PRESENTATION_STYLE_ASSIGNMENT (( #283 ) ) ;
#91 = VERTEX_POINT ( 'NONE', #1 ) ;
#92 = EDGE_CURVE ( 'NONE', #21, #227, #357, .T. ) ;
#93 = CARTESIAN_POINT ( 'NONE',  ( 0.0000000000000000000, 1.134793366539249800, 0.0000000000000000000 ) ) ;
#94 = EDGE_CURVE ( 'NONE', #174, #159, #238, .T. ) ;
#95 = DIRECTION ( 'NONE',  ( -0.0000000000000000000, -1.000000000000000000, -0.0000000000000000000 ) ) ;
#96 = CARTESIAN_POINT ( 'NONE',  ( 0.0000000000000000000, 5.700000000000000200, -2.490000000000000200 ) ) ;
#97 = CARTESIAN_POINT ( 'NONE',  ( 0.0000000000000000000, 11.08363636363636600, 0.0000000000000000000 ) ) ;
#98 = AXIS2_PLACEMENT_3D ( 'NONE', #119, #127, #128 ) ;
#99 = ADVANCED_FACE ( 'NONE', ( #294 ), #253, .T. ) ;
#100 = ORIENTED_EDGE ( 'NONE', *, *, #22, .F. ) ;
#101 = DIRECTION ( 'NONE',  ( 0.0000000000000000000, 0.0000000000000000000, -1.000000000000000000 ) ) ;
#102 = EDGE_CURVE ( 'NONE', #57, #371, #250, .T. ) ;
#103 = ADVANCED_FACE ( 'NONE', ( #299, #307 ), #166, .T. ) ;
#104 = ORIENTED_EDGE ( 'NONE', *, *, #102, .T. ) ;
#105 = ORIENTED_EDGE ( 'NONE', *, *, #83, .F. ) ;
#106 = CARTESIAN_POINT ( 'NONE',  ( 0.0000000000000000000, 13.32000000000000000, -3.000000000000000000 ) ) ;
#107 = EDGE_LOOP ( 'NONE', ( #319, #289, #72, #2 ) ) ;
#108 = CARTESIAN_POINT ( 'NONE',  ( 0.0000000000000000000, 12.00000000000000000, 0.0000000000000000000 ) ) ;
#109 =( GEOMETRIC_REPRESENTATION_CONTEXT ( 3 ) GLOBAL_UNCERTAINTY_ASSIGNED_CONTEXT ( ( #60 ) ) GLOBAL_UNIT_ASSIGNED_CONTEXT ( ( #369, #370, #372 ) ) REPRESENTATION_CONTEXT ( 'NONE', 'WORKASPACE' ) );
#110 = AXIS2_PLACEMENT_3D ( 'NONE', #59, #66, #67 ) ;
#111 = ORIENTED_EDGE ( 'NONE', *, *, #74, .T. ) ;
#112 = CARTESIAN_POINT ( 'NONE',  ( 3.567516664552899300E-016, 5.700000000000000200, 2.490000000000000200 ) ) ;
#113 = EDGE_CURVE ( 'NONE', #89, #135, #334, .T. ) ;
#114 = DIRECTION ( 'NONE',  ( -1.000000000000000000, 0.0000000000000000000, 0.0000000000000000000 ) ) ;
#115 = CIRCLE ( 'NONE', #110, 2.374999999999999600 ) ;
#116 = ORIENTED_EDGE ( 'NONE', *, *, #284, .F. ) ;
#117 = AXIS2_PLACEMENT_3D ( 'NONE', #155, #156, #157 ) ;
#118 = DIRECTION ( 'NONE',  ( -1.224646799147353200E-016, 0.0000000000000000000, -1.000000000000000000 ) ) ;
#119 = CARTESIAN_POINT ( 'NONE',  ( 3.673940397442059900E-016, 11.08363636363636600, 3.000000000000000000 ) ) ;
#120 = ORIENTED_EDGE ( 'NONE', *, *, #233, .F. ) ;
#121 = AXIS2_PLACEMENT_3D ( 'NONE', #303, #200, #225 ) ;
#122 = DIRECTION ( 'NONE',  ( 0.0000000000000000000, 0.0000000000000000000, 1.000000000000000000 ) ) ;
#123 = CIRCLE ( 'NONE', #254, 2.374999999999999600 ) ;
#124 = CIRCLE ( 'NONE', #137, 2.236363636363635900 ) ;
#125 = VERTEX_POINT ( 'NONE', #62 ) ;
#126 = EDGE_CURVE ( 'NONE', #135, #89, #317, .T. ) ;
#127 = DIRECTION ( 'NONE',  ( 1.000000000000000000, 0.0000000000000000000, -1.224646799147353200E-016 ) ) ;
#128 = DIRECTION ( 'NONE',  ( -1.224646799147353200E-016, 0.0000000000000000000, -1.000000000000000000 ) ) ;
#129 = AXIS2_PLACEMENT_3D ( 'NONE', #322, #310, #325 ) ;
#130 = ORIENTED_EDGE ( 'NONE', *, *, #251, .F. ) ;
#131 = CARTESIAN_POINT ( 'NONE',  ( -1.454268073987481600E-016, 4.336808689942017700E-016, 0.0000000000000000000 ) ) ;
#132 = CARTESIAN_POINT ( 'NONE',  ( 0.0000000000000000000, 1.134793366539249800, -2.025465997325047100 ) ) ;
#133 = DIRECTION ( 'NONE',  ( 0.0000000000000000000, 0.0000000000000000000, -1.000000000000000000 ) ) ;
#134 = FACE_OUTER_BOUND ( 'NONE', #148, .T. ) ;
#135 = VERTEX_POINT ( 'NONE', #58 ) ;
#136 = CIRCLE ( 'NONE', #240, 1.991052631578946300 ) ;
#137 = AXIS2_PLACEMENT_3D ( 'NONE', #162, #164, #167 ) ;
#138 = APPLICATION_CONTEXT ( 'automotive_design' ) ;
#139 = FACE_OUTER_BOUND ( 'NONE', #18, .T. ) ;
#140 = CARTESIAN_POINT ( 'NONE',  ( 1.725462884903929700E-016, 3.027990493605469300, 1.408947368421053400 ) ) ;
#141 = UNCERTAINTY_MEASURE_WITH_UNIT (LENGTH_MEASURE( 1.000000000000000100E-005 ), #160, 'distance_accuracy_value', 'NONE');
#142 = FACE_OUTER_BOUND ( 'NONE', #4, .T. ) ;
#143 = ORIENTED_EDGE ( 'NONE', *, *, #233, .T. ) ;
#144 = DIRECTION ( 'NONE',  ( 0.0000000000000000000, 0.0000000000000000000, -1.000000000000000000 ) ) ;
#145 = EDGE_CURVE ( 'NONE', #86, #24, #331, .T. ) ;
#146 = CARTESIAN_POINT ( 'NONE',  ( 2.489999999999999800, 12.00000000000000000, 0.0000000000000000000 ) ) ;
#147 = PRODUCT ( '0BS01-00622MING_06_30mm', '0BS01-00622MING_06_30mm', '', ( #314 ) ) ;
#148 = EDGE_LOOP ( 'NONE', ( #282, #64, #219, #212 ) ) ;
#149 = STYLED_ITEM ( 'NONE', ( #7 ), #161 ) ;
#150 = DIRECTION ( 'NONE',  ( -0.0000000000000000000, -1.000000000000000000, -0.0000000000000000000 ) ) ;
#151 = COLOUR_RGB ( '',0.7921568627450980000, 0.8196078431372548800, 0.9333333333333333500 ) ;
#152 = SURFACE_STYLE_USAGE ( .BOTH. , #80 ) ;
#153 = EDGE_LOOP ( 'NONE', ( #341, #143, #194, #130, #208 ) ) ;
#154 = VERTEX_POINT ( 'NONE', #29 ) ;
#155 = CARTESIAN_POINT ( 'NONE',  ( 0.0000000000000000000, 3.527990493605468000, 0.0000000000000000000 ) ) ;
#156 = DIRECTION ( 'NONE',  ( -0.0000000000000000000, -1.000000000000000000, -0.0000000000000000000 ) ) ;
#157 = DIRECTION ( 'NONE',  ( 0.0000000000000000000, 0.0000000000000000000, -1.000000000000000000 ) ) ;
#158 = AXIS2_PLACEMENT_3D ( 'NONE', #177, #179, #182 ) ;
#159 = VERTEX_POINT ( 'NONE', #84 ) ;
#160 =( LENGTH_UNIT ( ) NAMED_UNIT ( * ) SI_UNIT ( .MILLI., .METRE. ) );
#161 = ADVANCED_BREP_SHAPE_REPRESENTATION ( '0BS01-00622MING_06_30mm', ( #350, #263 ), #109 ) ;
#162 = CARTESIAN_POINT ( 'NONE',  ( 0.0000000000000000000, 11.08363636363636600, -3.000000000000000000 ) ) ;
#163 = EDGE_CURVE ( 'NONE', #135, #154, #342, .T. ) ;
#164 = DIRECTION ( 'NONE',  ( -1.000000000000000000, 0.0000000000000000000, 0.0000000000000000000 ) ) ;
#165 = AXIS2_PLACEMENT_3D ( 'NONE', #215, #264, #188 ) ;
#166 = PLANE ( 'NONE',  #33 ) ;
#167 = DIRECTION ( 'NONE',  ( 0.0000000000000000000, 0.0000000000000000000, 1.000000000000000000 ) ) ;
#168 = ORIENTED_EDGE ( 'NONE', *, *, #113, .T. ) ;
#169 = DIRECTION ( 'NONE',  ( -0.0000000000000000000, -1.000000000000000000, -0.0000000000000000000 ) ) ;
#170 = CARTESIAN_POINT ( 'NONE',  ( 0.0000000000000000000, 0.0000000000000000000, -2.490000000000000200 ) ) ;
#171 = PRESENTATION_LAYER_ASSIGNMENT (  '', '', ( #149 ) ) ;
#172 = CARTESIAN_POINT ( 'NONE',  ( 0.0000000000000000000, 4.027990493605469300, -1.408947368421053400 ) ) ;
#173 = FACE_OUTER_BOUND ( 'NONE', #327, .T. ) ;
#174 = VERTEX_POINT ( 'NONE', #79 ) ;
#175 = AXIS2_PLACEMENT_3D ( 'NONE', #184, #185, #192 ) ;
#176 = VECTOR ( 'NONE', #277, 1000.000000000000000 ) ;
#177 = CARTESIAN_POINT ( 'NONE',  ( 1.725462884903929700E-016, 4.027990493605469300, 1.408947368421053400 ) ) ;
#178 = TOROIDAL_SURFACE ( 'NONE', #165, 1.408947368421053400, 1.991052631578946300 ) ;
#179 = DIRECTION ( 'NONE',  ( 1.000000000000000000, 0.0000000000000000000, -1.224646799147353200E-016 ) ) ;
#180 = UNCERTAINTY_MEASURE_WITH_UNIT (LENGTH_MEASURE( 1.000000000000000100E-005 ), #287, 'distance_accuracy_value', 'NONE');
#181 = AXIS2_PLACEMENT_3D ( 'NONE', #47, #77, #248 ) ;
#182 = DIRECTION ( 'NONE',  ( -1.224646799147353200E-016, 0.0000000000000000000, -1.000000000000000000 ) ) ;
#183 = DIRECTION ( 'NONE',  ( -0.0000000000000000000, -1.000000000000000000, -0.0000000000000000000 ) ) ;
#184 = CARTESIAN_POINT ( 'NONE',  ( 0.0000000000000000000, 1.134793366539249800, 0.0000000000000000000 ) ) ;
#185 = DIRECTION ( 'NONE',  ( -0.0000000000000000000, -1.000000000000000000, -0.0000000000000000000 ) ) ;
#186 = DIRECTION ( 'NONE',  ( 0.0000000000000000000, 0.0000000000000000000, -1.000000000000000000 ) ) ;
#187 = MECHANICAL_DESIGN_GEOMETRIC_PRESENTATION_REPRESENTATION (  '', ( #149 ), #207 ) ;
#188 = DIRECTION ( 'NONE',  ( 0.0000000000000000000, 0.0000000000000000000, -1.000000000000000000 ) ) ;
#189 = FACE_OUTER_BOUND ( 'NONE', #276, .T. ) ;
#190 = SURFACE_STYLE_FILL_AREA ( #298 ) ;
#191 = CARTESIAN_POINT ( 'NONE',  ( 3.049370529876908900E-016, 12.00000000000000000, 2.489999999999999800 ) ) ;
#192 = DIRECTION ( 'NONE',  ( 0.0000000000000000000, 0.0000000000000000000, -1.000000000000000000 ) ) ;
#193 = FACE_OUTER_BOUND ( 'NONE', #259, .T. ) ;
#194 = ORIENTED_EDGE ( 'NONE', *, *, #261, .T. ) ;
#195 = DIRECTION ( 'NONE',  ( -0.0000000000000000000, -1.000000000000000000, -0.0000000000000000000 ) ) ;
#196 = ORIENTED_EDGE ( 'NONE', *, *, #61, .F. ) ;
#197 = AXIS2_PLACEMENT_3D ( 'NONE', #198, #201, #203 ) ;
#198 = CARTESIAN_POINT ( 'NONE',  ( 0.0000000000000000000, 3.027990493605469300, -1.408947368421053400 ) ) ;
#199 = CYLINDRICAL_SURFACE ( 'NONE', #222, 2.490000000000000200 ) ;
#200 = DIRECTION ( 'NONE',  ( -0.0000000000000000000, -1.000000000000000000, -0.0000000000000000000 ) ) ;
#201 = DIRECTION ( 'NONE',  ( -1.000000000000000000, 0.0000000000000000000, 0.0000000000000000000 ) ) ;
#202 = AXIS2_PLACEMENT_3D ( 'NONE', #209, #150, #133 ) ;
#203 = DIRECTION ( 'NONE',  ( 0.0000000000000000000, 0.0000000000000000000, 1.000000000000000000 ) ) ;
#204 = EDGE_LOOP ( 'NONE', ( #168, #14, #11, #269 ) ) ;
#205 = ORIENTED_EDGE ( 'NONE', *, *, #83, .T. ) ;
#206 = CARTESIAN_POINT ( 'NONE',  ( 0.0000000000000000000, 13.32000000000000000, 0.0000000000000000000 ) ) ;
#207 =( GEOMETRIC_REPRESENTATION_CONTEXT ( 3 ) GLOBAL_UNCERTAINTY_ASSIGNED_CONTEXT ( ( #141 ) ) GLOBAL_UNIT_ASSIGNED_CONTEXT ( ( #160, #43, #31 ) ) REPRESENTATION_CONTEXT ( 'NONE', 'WORKASPACE' ) );
#208 = ORIENTED_EDGE ( 'NONE', *, *, #94, .F. ) ;
#209 = CARTESIAN_POINT ( 'NONE',  ( 0.0000000000000000000, 5.700000000000000200, 0.0000000000000000000 ) ) ;
#210 = COLOUR_RGB ( '',0.7921568627450980000, 0.8196078431372548800, 0.9333333333333333500 ) ;
#211 = TOROIDAL_SURFACE ( 'NONE', #365, 1.408947368421053400, 1.991052631578946300 ) ;
#212 = ORIENTED_EDGE ( 'NONE', *, *, #309, .F. ) ;
#213 = DIRECTION ( 'NONE',  ( -1.000000000000000000, 0.0000000000000000000, 0.0000000000000000000 ) ) ;
#214 = AXIS2_PLACEMENT_3D ( 'NONE', #218, #221, #223 ) ;
#215 = CARTESIAN_POINT ( 'NONE',  ( 0.0000000000000000000, 4.027990493605469300, 0.0000000000000000000 ) ) ;
#216 = VERTEX_POINT ( 'NONE', #131 ) ;
#217 = PRODUCT_DEFINITION_CONTEXT ( 'detailed design', #54, 'design' ) ;
#218 = CARTESIAN_POINT ( 'NONE',  ( 0.0000000000000000000, 12.00000000000000000, 0.0000000000000000000 ) ) ;
#219 = ORIENTED_EDGE ( 'NONE', *, *, #23, .T. ) ;
#220 = CIRCLE ( 'NONE', #202, 2.490000000000000200 ) ;
#221 = DIRECTION ( 'NONE',  ( -0.0000000000000000000, -1.000000000000000000, -0.0000000000000000000 ) ) ;
#222 = AXIS2_PLACEMENT_3D ( 'NONE', #255, #70, #144 ) ;
#223 = DIRECTION ( 'NONE',  ( 0.0000000000000000000, 0.0000000000000000000, -1.000000000000000000 ) ) ;
#224 = ORIENTED_EDGE ( 'NONE', *, *, #126, .T. ) ;
#225 = DIRECTION ( 'NONE',  ( 0.0000000000000000000, 0.0000000000000000000, -1.000000000000000000 ) ) ;
#226 = PRODUCT_DEFINITION_SHAPE ( 'NONE', 'NONE',  #286 ) ;
#227 = VERTEX_POINT ( 'NONE', #112 ) ;
#228 = CIRCLE ( 'NONE', #258, 1.991052631578946300 ) ;
#229 = CARTESIAN_POINT ( 'NONE',  ( 0.0000000000000000000, 1.134793366539249800, 0.0000000000000000000 ) ) ;
#230 = AXIS2_PLACEMENT_3D ( 'NONE', #229, #231, #234 ) ;
#231 = DIRECTION ( 'NONE',  ( -0.0000000000000000000, -1.000000000000000000, -0.0000000000000000000 ) ) ;
#232 = CIRCLE ( 'NONE', #281, 5.039999999999999100 ) ;
#233 = EDGE_CURVE ( 'NONE', #91, #125, #351, .T. ) ;
#234 = DIRECTION ( 'NONE',  ( 0.0000000000000000000, 0.0000000000000000000, -1.000000000000000000 ) ) ;
#235 = CARTESIAN_POINT ( 'NONE',  ( 0.0000000000000000000, 3.027990493605469300, 0.0000000000000000000 ) ) ;
#236 = DIRECTION ( 'NONE',  ( -0.0000000000000000000, -0.0000000000000000000, -1.000000000000000000 ) ) ;
#237 = ORIENTED_EDGE ( 'NONE', *, *, #102, .F. ) ;
#238 = CIRCLE ( 'NONE', #318, 2.025465997325047100 ) ;
#239 = EDGE_CURVE ( 'NONE', #89, #82, #124, .T. ) ;
#240 = AXIS2_PLACEMENT_3D ( 'NONE', #140, #25, #118 ) ;
#241 = DIRECTION ( 'NONE',  ( 0.0000000000000000000, 0.0000000000000000000, -1.000000000000000000 ) ) ;
#242 = CARTESIAN_POINT ( 'NONE',  ( 0.0000000000000000000, 2.375000000000000000, 0.0000000000000000000 ) ) ;
#243 = EDGE_CURVE ( 'NONE', #227, #91, #48, .T. ) ;
#244 = EDGE_LOOP ( 'NONE', ( #260, #237 ) ) ;
#245 = CARTESIAN_POINT ( 'NONE',  ( 0.0000000000000000000, 2.375000000000000000, 0.0000000000000000000 ) ) ;
#246 = VECTOR ( 'NONE', #195, 1000.000000000000000 ) ;
#247 = TOROIDAL_SURFACE ( 'NONE', #121, 3.000000000000000000, 2.236363636363635900 ) ;
#248 = DIRECTION ( 'NONE',  ( 0.0000000000000000000, -0.0000000000000000000, 1.000000000000000000 ) ) ;
#249 = CIRCLE ( 'NONE', #273, 3.336196854532658600 ) ;
#250 = CIRCLE ( 'NONE', #333, 2.489999999999999800 ) ;
#251 = EDGE_CURVE ( 'NONE', #159, #86, #32, .T. ) ;
#252 = FILL_AREA_STYLE ('',( #3 ) ) ;
#253 = TOROIDAL_SURFACE ( 'NONE', #353, 3.000000000000000000, 2.236363636363635900 ) ;
#254 = AXIS2_PLACEMENT_3D ( 'NONE', #55, #348, #337 ) ;
#255 = CARTESIAN_POINT ( 'NONE',  ( 0.0000000000000000000, 0.0000000000000000000, 0.0000000000000000000 ) ) ;
#256 = EDGE_LOOP ( 'NONE', ( #81, #205 ) ) ;
#257 = SPHERICAL_SURFACE ( 'NONE', #46, 2.374999999999999600 ) ;
#258 = AXIS2_PLACEMENT_3D ( 'NONE', #172, #114, #122 ) ;
#259 = EDGE_LOOP ( 'NONE', ( #293, #324, #41, #28 ) ) ;
#260 = ORIENTED_EDGE ( 'NONE', *, *, #359, .F. ) ;
#261 = EDGE_CURVE ( 'NONE', #125, #86, #69, .T. ) ;
#262 = DIRECTION ( 'NONE',  ( -0.0000000000000000000, -1.000000000000000000, -0.0000000000000000000 ) ) ;
#263 = AXIS2_PLACEMENT_3D ( 'NONE', #347, #5, #45 ) ;
#264 = DIRECTION ( 'NONE',  ( -0.0000000000000000000, -1.000000000000000000, -0.0000000000000000000 ) ) ;
#265 = ORIENTED_EDGE ( 'NONE', *, *, #92, .T. ) ;
#266 = CARTESIAN_POINT ( 'NONE',  ( 0.0000000000000000000, 3.527990493605468000, 0.0000000000000000000 ) ) ;
#267 = CARTESIAN_POINT ( 'NONE',  ( 0.0000000000000000000, 4.027990493605469300, 0.0000000000000000000 ) ) ;
#268 = TOROIDAL_SURFACE ( 'NONE', #290, 1.408947368421053400, 1.991052631578946300 ) ;
#269 = ORIENTED_EDGE ( 'NONE', *, *, #239, .F. ) ;
#270 = ORIENTED_EDGE ( 'NONE', *, *, #243, .T. ) ;
#271 = DIRECTION ( 'NONE',  ( -0.0000000000000000000, -1.000000000000000000, -0.0000000000000000000 ) ) ;
#272 = CARTESIAN_POINT ( 'NONE',  ( 0.0000000000000000000, 12.00000000000000000, -5.039999999999999100 ) ) ;
#273 = AXIS2_PLACEMENT_3D ( 'NONE', #266, #271, #274 ) ;
#274 = DIRECTION ( 'NONE',  ( 0.0000000000000000000, 0.0000000000000000000, -1.000000000000000000 ) ) ;
#275 = EDGE_CURVE ( 'NONE', #371, #21, #42, .T. ) ;
#276 = EDGE_LOOP ( 'NONE', ( #75, #346, #111, #120 ) ) ;
#277 = DIRECTION ( 'NONE',  ( -0.0000000000000000000, -1.000000000000000000, -0.0000000000000000000 ) ) ;
#278 = EDGE_CURVE ( 'NONE', #82, #154, #50, .T. ) ;
#279 = ORIENTED_EDGE ( 'NONE', *, *, #275, .T. ) ;
#280 = SURFACE_SIDE_STYLE ('',( #305 ) ) ;
#281 = AXIS2_PLACEMENT_3D ( 'NONE', #354, #330, #241 ) ;
#282 = ORIENTED_EDGE ( 'NONE', *, *, #251, .T. ) ;
#283 = SURFACE_STYLE_USAGE ( .BOTH. , #280 ) ;
#284 = EDGE_CURVE ( 'NONE', #24, #174, #340, .T. ) ;
#285 = ORIENTED_EDGE ( 'NONE', *, *, #261, .F. ) ;
#286 = PRODUCT_DEFINITION ( 'UNKNOWN', '', #302, #217 ) ;
#287 =( LENGTH_UNIT ( ) NAMED_UNIT ( * ) SI_UNIT ( .MILLI., .METRE. ) );
#288 = FACE_OUTER_BOUND ( 'NONE', #204, .T. ) ;
#289 = ORIENTED_EDGE ( 'NONE', *, *, #22, .T. ) ;
#290 = AXIS2_PLACEMENT_3D ( 'NONE', #235, #183, #320 ) ;
#291 =( NAMED_UNIT ( * ) PLANE_ANGLE_UNIT ( ) SI_UNIT ( $, .RADIAN. ) );
#292 =( NAMED_UNIT ( * ) SI_UNIT ( $, .STERADIAN. ) SOLID_ANGLE_UNIT ( ) );
#293 = ORIENTED_EDGE ( 'NONE', *, *, #23, .F. ) ;
#294 = FACE_OUTER_BOUND ( 'NONE', #10, .T. ) ;
#295 = DIRECTION ( 'NONE',  ( -0.0000000000000000000, -0.0000000000000000000, -1.000000000000000000 ) ) ;
#296 = AXIS2_PLACEMENT_3D ( 'NONE', #8, #9, #12 ) ;
#297 = DIRECTION ( 'NONE',  ( -1.000000000000000000, 0.0000000000000000000, 0.0000000000000000000 ) ) ;
#298 = FILL_AREA_STYLE ('',( #345 ) ) ;
#299 = FACE_OUTER_BOUND ( 'NONE', #256, .T. ) ;
#300 = CARTESIAN_POINT ( 'NONE',  ( 0.0000000000000000000, 3.027990493605469300, 0.0000000000000000000 ) ) ;
#301 = CIRCLE ( 'NONE', #26, 2.489999999999999800 ) ;
#302 = PRODUCT_DEFINITION_FORMATION_WITH_SPECIFIED_SOURCE ( 'ANY', '', #147, .NOT_KNOWN. ) ;
#303 = CARTESIAN_POINT ( 'NONE',  ( 0.0000000000000000000, 11.08363636363636600, 0.0000000000000000000 ) ) ;
#304 = DIRECTION ( 'NONE',  ( 0.0000000000000000000, 0.0000000000000000000, -1.000000000000000000 ) ) ;
#305 = SURFACE_STYLE_FILL_AREA ( #252 ) ;
#306 = ORIENTED_EDGE ( 'NONE', *, *, #349, .T. ) ;
#307 = FACE_BOUND ( 'NONE', #244, .T. ) ;
#308 = CARTESIAN_POINT ( 'NONE',  ( 3.049370529876909400E-016, 0.0000000000000000000, 2.490000000000000200 ) ) ;
#309 = EDGE_CURVE ( 'NONE', #159, #216, #123, .T. ) ;
#310 = DIRECTION ( 'NONE',  ( -0.0000000000000000000, -1.000000000000000000, -0.0000000000000000000 ) ) ;
#311 = AXIS2_PLACEMENT_3D ( 'NONE', #242, #236, #213 ) ;
#312 = ORIENTED_EDGE ( 'NONE', *, *, #349, .F. ) ;
#313 = FACE_OUTER_BOUND ( 'NONE', #107, .T. ) ;
#314 = PRODUCT_CONTEXT ( 'NONE', #138, 'mechanical' ) ;
#315 = ORIENTED_EDGE ( 'NONE', *, *, #113, .F. ) ;
#316 = APPLICATION_PROTOCOL_DEFINITION ( 'draft international standard', 'automotive_design', 1998, #138 ) ;
#317 = CIRCLE ( 'NONE', #53, 3.000000000000000000 ) ;
#318 = AXIS2_PLACEMENT_3D ( 'NONE', #17, #20, #27 ) ;
#319 = ORIENTED_EDGE ( 'NONE', *, *, #359, .T. ) ;
#320 = DIRECTION ( 'NONE',  ( 0.0000000000000000000, 0.0000000000000000000, -1.000000000000000000 ) ) ;
#321 = PRODUCT_RELATED_PRODUCT_CATEGORY ( 'part', '', ( #147 ) ) ;
#322 = CARTESIAN_POINT ( 'NONE',  ( 0.0000000000000000000, 0.0000000000000000000, 0.0000000000000000000 ) ) ;
#323 = LINE ( 'NONE', #308, #176 ) ;
#324 = ORIENTED_EDGE ( 'NONE', *, *, #284, .T. ) ;
#325 = DIRECTION ( 'NONE',  ( 0.0000000000000000000, 0.0000000000000000000, -1.000000000000000000 ) ) ;
#326 = CARTESIAN_POINT ( 'NONE',  ( 0.0000000000000000000, 12.00000000000000000, 0.0000000000000000000 ) ) ;
#327 = EDGE_LOOP ( 'NONE', ( #265, #270, #312, #51 ) ) ;
#328 = STYLED_ITEM ( 'NONE', ( #90 ), #350 ) ;
#329 = DIRECTION ( 'NONE',  ( -0.0000000000000000000, -1.000000000000000000, -0.0000000000000000000 ) ) ;
#330 = DIRECTION ( 'NONE',  ( -0.0000000000000000000, -1.000000000000000000, -0.0000000000000000000 ) ) ;
#331 = CIRCLE ( 'NONE', #78, 2.025465997325047100 ) ;
#332 = ADVANCED_FACE ( 'NONE', ( #88 ), #268, .T. ) ;
#333 = AXIS2_PLACEMENT_3D ( 'NONE', #108, #38, #40 ) ;
#334 = CIRCLE ( 'NONE', #13, 3.000000000000000000 ) ;
#335 = ORIENTED_EDGE ( 'NONE', *, *, #145, .F. ) ;
#336 = ADVANCED_FACE ( 'NONE', ( #193 ), #366, .T. ) ;
#337 = DIRECTION ( 'NONE',  ( 1.000000000000000000, 0.0000000000000000000, 0.0000000000000000000 ) ) ;
#338 = EDGE_LOOP ( 'NONE', ( #306, #352, #116, #335, #285 ) ) ;
#339 = DIRECTION ( 'NONE',  ( 0.0000000000000000000, 0.0000000000000000000, -1.000000000000000000 ) ) ;
#340 = CIRCLE ( 'NONE', #230, 2.025465997325047100 ) ;
#341 = ORIENTED_EDGE ( 'NONE', *, *, #65, .F. ) ;
#342 = CIRCLE ( 'NONE', #98, 2.236363636363635900 ) ;
#343 = TOROIDAL_SURFACE ( 'NONE', #68, 1.408947368421053400, 1.991052631578946300 ) ;
#344 = PRESENTATION_LAYER_ASSIGNMENT (  '', '', ( #328 ) ) ;
#345 = FILL_AREA_STYLE_COLOUR ( '', #151 ) ;
#346 = ORIENTED_EDGE ( 'NONE', *, *, #61, .T. ) ;
#347 = CARTESIAN_POINT ( 'NONE',  ( 0.0000000000000000000, 0.0000000000000000000, 0.0000000000000000000 ) ) ;
#348 = DIRECTION ( 'NONE',  ( -0.0000000000000000000, 0.0000000000000000000, 1.000000000000000000 ) ) ;
#349 = EDGE_CURVE ( 'NONE', #125, #91, #249, .T. ) ;
#350 = MANIFOLD_SOLID_BREP ( 'Revolve1', #367 ) ;
#351 = CIRCLE ( 'NONE', #117, 3.336196854532658600 ) ;
#352 = ORIENTED_EDGE ( 'NONE', *, *, #65, .T. ) ;
#353 = AXIS2_PLACEMENT_3D ( 'NONE', #97, #15, #34 ) ;
#354 = CARTESIAN_POINT ( 'NONE',  ( 0.0000000000000000000, 12.00000000000000000, 0.0000000000000000000 ) ) ;
#355 = ADVANCED_FACE ( 'NONE', ( #134 ), #257, .T. ) ;
#356 = CARTESIAN_POINT ( 'NONE',  ( 0.0000000000000000000, 12.00000000000000000, -2.489999999999999800 ) ) ;
#357 = CIRCLE ( 'NONE', #296, 2.490000000000000200 ) ;
#358 = ADVANCED_FACE ( 'NONE', ( #362 ), #343, .T. ) ;
#359 = EDGE_CURVE ( 'NONE', #371, #57, #301, .T. ) ;
#360 = ORIENTED_EDGE ( 'NONE', *, *, #126, .F. ) ;
#361 = ADVANCED_FACE ( 'NONE', ( #313 ), #368, .T. ) ;
#362 = FACE_OUTER_BOUND ( 'NONE', #153, .T. ) ;
#363 = MECHANICAL_DESIGN_GEOMETRIC_PRESENTATION_REPRESENTATION (  '', ( #328 ), #6 ) ;
#364 = ORIENTED_EDGE ( 'NONE', *, *, #163, .F. ) ;
#365 = AXIS2_PLACEMENT_3D ( 'NONE', #267, #169, #186 ) ;
#366 = SPHERICAL_SURFACE ( 'NONE', #311, 2.374999999999999600 ) ;
#367 = CLOSED_SHELL ( 'NONE', ( #19, #361, #16, #332, #355, #336, #358, #39, #37, #103, #99, #36 ) ) ;
#368 = CYLINDRICAL_SURFACE ( 'NONE', #129, 2.490000000000000200 ) ;
#369 =( LENGTH_UNIT ( ) NAMED_UNIT ( * ) SI_UNIT ( .MILLI., .METRE. ) );
#370 =( NAMED_UNIT ( * ) PLANE_ANGLE_UNIT ( ) SI_UNIT ( $, .RADIAN. ) );
#371 = VERTEX_POINT ( 'NONE', #356 ) ;
#372 =( NAMED_UNIT ( * ) SI_UNIT ( $, .STERADIAN. ) SOLID_ANGLE_UNIT ( ) );
ENDSEC;
END-ISO-10303-21;
