ISO-10303-21;
HEADER;
FILE_DESCRIPTION (( 'STEP AP214' ),
    '1' );
FILE_NAME ('0BS01-00622MIDG_09_50mm.STEP',
    '2016-04-29T12:15:56',
    ( '' ),
    ( '' ),
    'SwSTEP 2.0',
    'SolidWorks 2015',
    '' );
FILE_SCHEMA (( 'AUTOMOTIVE_DESIGN' ));
ENDSEC;

DATA;
#1 = APPLICATION_PROTOCOL_DEFINITION ( 'draft international standard', 'automotive_design', 1998, #200 ) ;
#2 = CARTESIAN_POINT ( 'NONE',  ( 0.0000000000000000000, 1.134793366539249800, 0.0000000000000000000 ) ) ;
#3 = CIRCLE ( 'NONE', #342, 3.000000000000000000 ) ;
#4 = DIRECTION ( 'NONE',  ( -0.0000000000000000000, -1.000000000000000000, -0.0000000000000000000 ) ) ;
#5 = DIRECTION ( 'NONE',  ( 0.0000000000000000000, 0.0000000000000000000, -1.000000000000000000 ) ) ;
#6 = AXIS2_PLACEMENT_3D ( 'NONE', #187, #189, #191 ) ;
#7 = DIRECTION ( 'NONE',  ( -1.224646799147353200E-016, 0.0000000000000000000, -1.000000000000000000 ) ) ;
#8 = DIRECTION ( 'NONE',  ( 0.0000000000000000000, 0.0000000000000000000, -1.000000000000000000 ) ) ;
#9 = SURFACE_STYLE_USAGE ( .BOTH. , #89 ) ;
#10 = EDGE_CURVE ( 'NONE', #256, #69, #67, .T. ) ;
#11 = CARTESIAN_POINT ( 'NONE',  ( 3.283071624817404100E-016, 1.134793366539249800, 2.025465997325047100 ) ) ;
#12 = CYLINDRICAL_SURFACE ( 'NONE', #354, 2.490000000000000200 ) ;
#13 = AXIS2_PLACEMENT_3D ( 'NONE', #224, #216, #208 ) ;
#14 =( LENGTH_UNIT ( ) NAMED_UNIT ( * ) SI_UNIT ( .MILLI., .METRE. ) );
#15 = CARTESIAN_POINT ( 'NONE',  ( 0.0000000000000000000, 1.134793366539249800, 0.0000000000000000000 ) ) ;
#16 = ORIENTED_EDGE ( 'NONE', *, *, #322, .T. ) ;
#17 = DIRECTION ( 'NONE',  ( -0.0000000000000000000, -1.000000000000000000, -0.0000000000000000000 ) ) ;
#18 = EDGE_CURVE ( 'NONE', #69, #52, #363, .T. ) ;
#19 = PRESENTATION_LAYER_ASSIGNMENT (  '', '', ( #339 ) ) ;
#20 = DIRECTION ( 'NONE',  ( 0.0000000000000000000, 0.0000000000000000000, 1.000000000000000000 ) ) ;
#21 = DIRECTION ( 'NONE',  ( 0.0000000000000000000, 0.0000000000000000000, -1.000000000000000000 ) ) ;
#22 =( NAMED_UNIT ( * ) SI_UNIT ( $, .STERADIAN. ) SOLID_ANGLE_UNIT ( ) );
#23 = VERTEX_POINT ( 'NONE', #172 ) ;
#24 = ADVANCED_FACE ( 'NONE', ( #155 ), #142, .T. ) ;
#25 = EDGE_CURVE ( 'NONE', #69, #107, #146, .T. ) ;
#26 = PRODUCT_DEFINITION_SHAPE ( 'NONE', 'NONE',  #141 ) ;
#27 = ADVANCED_FACE ( 'NONE', ( #83 ), #87, .T. ) ;
#28 = STYLED_ITEM ( 'NONE', ( #360 ), #286 ) ;
#29 = ORIENTED_EDGE ( 'NONE', *, *, #322, .F. ) ;
#30 = CARTESIAN_POINT ( 'NONE',  ( 2.490000000000000700, 15.19999999999999900, 0.0000000000000000000 ) ) ;
#31 = ORIENTED_EDGE ( 'NONE', *, *, #178, .T. ) ;
#32 = EDGE_CURVE ( 'NONE', #221, #78, #153, .T. ) ;
#33 = AXIS2_PLACEMENT_3D ( 'NONE', #53, #74, #282 ) ;
#34 = CARTESIAN_POINT ( 'NONE',  ( 6.172219867702661300E-016, 15.19999999999999900, 5.040000000000000900 ) ) ;
#35 = CARTESIAN_POINT ( 'NONE',  ( 0.0000000000000000000, 14.28363636363636300, -3.000000000000000000 ) ) ;
#36 = EDGE_LOOP ( 'NONE', ( #343, #59, #31, #16 ) ) ;
#37 = ORIENTED_EDGE ( 'NONE', *, *, #233, .F. ) ;
#38 = VERTEX_POINT ( 'NONE', #238 ) ;
#39 = PRODUCT_DEFINITION_CONTEXT ( 'detailed design', #85, 'design' ) ;
#40 = CARTESIAN_POINT ( 'NONE',  ( 0.0000000000000000000, 3.027990493605469300, -1.408947368421053400 ) ) ;
#41 = MECHANICAL_DESIGN_GEOMETRIC_PRESENTATION_REPRESENTATION (  '', ( #339 ), #60 ) ;
#42 = DIRECTION ( 'NONE',  ( -1.000000000000000000, 0.0000000000000000000, 0.0000000000000000000 ) ) ;
#43 = DIRECTION ( 'NONE',  ( 0.0000000000000000000, 0.0000000000000000000, 1.000000000000000000 ) ) ;
#44 = CARTESIAN_POINT ( 'NONE',  ( 0.0000000000000000000, 15.19999999999999900, -2.490000000000000700 ) ) ;
#45 = FACE_OUTER_BOUND ( 'NONE', #125, .T. ) ;
#46 = VERTEX_POINT ( 'NONE', #261 ) ;
#47 = EDGE_LOOP ( 'NONE', ( #92, #193, #280, #88 ) ) ;
#48 = ORIENTED_EDGE ( 'NONE', *, *, #147, .T. ) ;
#49 = PRESENTATION_LAYER_ASSIGNMENT (  '', '', ( #28 ) ) ;
#50 = CARTESIAN_POINT ( 'NONE',  ( 0.0000000000000000000, 4.027990493605469300, -1.408947368421053400 ) ) ;
#51 = ORIENTED_EDGE ( 'NONE', *, *, #291, .T. ) ;
#52 = VERTEX_POINT ( 'NONE', #255 ) ;
#53 = CARTESIAN_POINT ( 'NONE',  ( 0.0000000000000000000, 2.375000000000000000, 0.0000000000000000000 ) ) ;
#54 = DIRECTION ( 'NONE',  ( -1.000000000000000000, 0.0000000000000000000, 0.0000000000000000000 ) ) ;
#55 = EDGE_CURVE ( 'NONE', #52, #69, #174, .T. ) ;
#56 = AXIS2_PLACEMENT_3D ( 'NONE', #207, #176, #139 ) ;
#57 = ORIENTED_EDGE ( 'NONE', *, *, #64, .T. ) ;
#58 = ORIENTED_EDGE ( 'NONE', *, *, #324, .T. ) ;
#59 = ORIENTED_EDGE ( 'NONE', *, *, #93, .T. ) ;
#60 =( GEOMETRIC_REPRESENTATION_CONTEXT ( 3 ) GLOBAL_UNCERTAINTY_ASSIGNED_CONTEXT ( ( #204 ) ) GLOBAL_UNIT_ASSIGNED_CONTEXT ( ( #14, #130, #22 ) ) REPRESENTATION_CONTEXT ( 'NONE', 'WORKASPACE' ) );
#61 = DIRECTION ( 'NONE',  ( 0.0000000000000000000, 0.0000000000000000000, 1.000000000000000000 ) ) ;
#62 = ORIENTED_EDGE ( 'NONE', *, *, #64, .F. ) ;
#63 = DIRECTION ( 'NONE',  ( -0.0000000000000000000, -1.000000000000000000, -0.0000000000000000000 ) ) ;
#64 = EDGE_CURVE ( 'NONE', #38, #164, #182, .T. ) ;
#65 = DIRECTION ( 'NONE',  ( -0.0000000000000000000, -0.0000000000000000000, -1.000000000000000000 ) ) ;
#66 = ORIENTED_EDGE ( 'NONE', *, *, #201, .F. ) ;
#67 = CIRCLE ( 'NONE', #361, 1.991052631578946300 ) ;
#68 = ORIENTED_EDGE ( 'NONE', *, *, #81, .T. ) ;
#69 = VERTEX_POINT ( 'NONE', #269 ) ;
#70 = ADVANCED_FACE ( 'NONE', ( #177 ), #215, .T. ) ;
#71 = EDGE_CURVE ( 'NONE', #164, #38, #213, .T. ) ;
#72 = DIRECTION ( 'NONE',  ( 0.0000000000000000000, 0.0000000000000000000, -1.000000000000000000 ) ) ;
#73 = MECHANICAL_DESIGN_GEOMETRIC_PRESENTATION_REPRESENTATION (  '', ( #28 ), #95 ) ;
#74 = DIRECTION ( 'NONE',  ( -0.0000000000000000000, -0.0000000000000000000, -1.000000000000000000 ) ) ;
#75 = CARTESIAN_POINT ( 'NONE',  ( 3.673940397442059900E-016, 14.28363636363636300, 3.000000000000000000 ) ) ;
#76 = ORIENTED_EDGE ( 'NONE', *, *, #55, .F. ) ;
#77 = PRODUCT_CONTEXT ( 'NONE', #200, 'mechanical' ) ;
#78 = VERTEX_POINT ( 'NONE', #97 ) ;
#79 = DIRECTION ( 'NONE',  ( 1.000000000000000000, 0.0000000000000000000, -1.224646799147353200E-016 ) ) ;
#80 = DIRECTION ( 'NONE',  ( -1.224646799147353200E-016, 0.0000000000000000000, -1.000000000000000000 ) ) ;
#81 = EDGE_CURVE ( 'NONE', #281, #23, #206, .T. ) ;
#82 = AXIS2_PLACEMENT_3D ( 'NONE', #136, #320, #8 ) ;
#83 = FACE_OUTER_BOUND ( 'NONE', #119, .T. ) ;
#84 = CLOSED_SHELL ( 'NONE', ( #346, #372, #329, #369, #27, #24, #365, #308, #70, #190, #301, #333 ) ) ;
#85 = APPLICATION_CONTEXT ( 'automotive_design' ) ;
#86 = CARTESIAN_POINT ( 'NONE',  ( 0.0000000000000000000, 15.19999999999999900, 0.0000000000000000000 ) ) ;
#87 = SPHERICAL_SURFACE ( 'NONE', #33, 2.374999999999999600 ) ;
#88 = ORIENTED_EDGE ( 'NONE', *, *, #18, .F. ) ;
#89 = SURFACE_SIDE_STYLE ('',( #140 ) ) ;
#90 = FILL_AREA_STYLE_COLOUR ( '', #250 ) ;
#91 = CIRCLE ( 'NONE', #129, 2.374999999999999600 ) ;
#92 = ORIENTED_EDGE ( 'NONE', *, *, #10, .F. ) ;
#93 = EDGE_CURVE ( 'NONE', #23, #107, #205, .T. ) ;
#94 = PLANE ( 'NONE',  #319 ) ;
#95 =( GEOMETRIC_REPRESENTATION_CONTEXT ( 3 ) GLOBAL_UNCERTAINTY_ASSIGNED_CONTEXT ( ( #218 ) ) GLOBAL_UNIT_ASSIGNED_CONTEXT ( ( #203, #211, #212 ) ) REPRESENTATION_CONTEXT ( 'NONE', 'WORKASPACE' ) );
#96 = CARTESIAN_POINT ( 'NONE',  ( 0.0000000000000000000, 1.134793366539249800, 0.0000000000000000000 ) ) ;
#97 = CARTESIAN_POINT ( 'NONE',  ( 3.049370529876909900E-016, 15.19999999999999900, 2.490000000000000700 ) ) ;
#98 = FILL_AREA_STYLE ('',( #90 ) ) ;
#99 = DIRECTION ( 'NONE',  ( -0.0000000000000000000, -1.000000000000000000, -0.0000000000000000000 ) ) ;
#100 = DIRECTION ( 'NONE',  ( 0.0000000000000000000, 0.0000000000000000000, -1.000000000000000000 ) ) ;
#101 = ORIENTED_EDGE ( 'NONE', *, *, #357, .F. ) ;
#102 = AXIS2_PLACEMENT_3D ( 'NONE', #185, #278, #309 ) ;
#103 = DIRECTION ( 'NONE',  ( 0.0000000000000000000, -1.000000000000000000, -0.0000000000000000000 ) ) ;
#104 = EDGE_CURVE ( 'NONE', #296, #38, #219, .T. ) ;
#105 = AXIS2_PLACEMENT_3D ( 'NONE', #2, #4, #5 ) ;
#106 = DIRECTION ( 'NONE',  ( 0.0000000000000000000, 0.0000000000000000000, -1.000000000000000000 ) ) ;
#107 = VERTEX_POINT ( 'NONE', #11 ) ;
#108 = CARTESIAN_POINT ( 'NONE',  ( 0.0000000000000000000, 1.134793366539249800, -2.025465997325047100 ) ) ;
#109 = APPLICATION_PROTOCOL_DEFINITION ( 'draft international standard', 'automotive_design', 1998, #85 ) ;
#110 = ORIENTED_EDGE ( 'NONE', *, *, #287, .T. ) ;
#111 = ORIENTED_EDGE ( 'NONE', *, *, #147, .F. ) ;
#112 = CARTESIAN_POINT ( 'NONE',  ( 0.0000000000000000000, 1.134793366539249800, 0.0000000000000000000 ) ) ;
#113 = ORIENTED_EDGE ( 'NONE', *, *, #18, .T. ) ;
#114 = AXIS2_PLACEMENT_3D ( 'NONE', #237, #242, #243 ) ;
#115 = DIRECTION ( 'NONE',  ( -0.0000000000000000000, -1.000000000000000000, -0.0000000000000000000 ) ) ;
#116 = AXIS2_PLACEMENT_3D ( 'NONE', #271, #275, #276 ) ;
#117 = CARTESIAN_POINT ( 'NONE',  ( 0.0000000000000000000, 5.700000000000000200, -2.490000000000000200 ) ) ;
#118 = DIRECTION ( 'NONE',  ( 0.0000000000000000000, 0.0000000000000000000, -1.000000000000000000 ) ) ;
#119 = EDGE_LOOP ( 'NONE', ( #210, #68, #58, #29 ) ) ;
#120 = AXIS2_PLACEMENT_3D ( 'NONE', #86, #63, #143 ) ;
#121 = TOROIDAL_SURFACE ( 'NONE', #326, 1.408947368421053400, 1.991052631578946300 ) ;
#122 = ORIENTED_EDGE ( 'NONE', *, *, #104, .T. ) ;
#123 = AXIS2_PLACEMENT_3D ( 'NONE', #347, #352, #226 ) ;
#124 = CARTESIAN_POINT ( 'NONE',  ( -1.454268073987481600E-016, 4.336808689942017700E-016, 0.0000000000000000000 ) ) ;
#125 = EDGE_LOOP ( 'NONE', ( #51, #132, #62, #351 ) ) ;
#126 = ORIENTED_EDGE ( 'NONE', *, *, #264, .T. ) ;
#127 = ADVANCED_BREP_SHAPE_REPRESENTATION ( '0BS01-00622MIDG_09_50mm', ( #286, #123 ), #257 ) ;
#128 = CARTESIAN_POINT ( 'NONE',  ( 0.0000000000000000000, 5.700000000000000200, 0.0000000000000000000 ) ) ;
#129 = AXIS2_PLACEMENT_3D ( 'NONE', #259, #260, #266 ) ;
#130 =( NAMED_UNIT ( * ) PLANE_ANGLE_UNIT ( ) SI_UNIT ( $, .RADIAN. ) );
#131 = DIRECTION ( 'NONE',  ( -0.0000000000000000000, -1.000000000000000000, -0.0000000000000000000 ) ) ;
#132 = ORIENTED_EDGE ( 'NONE', *, *, #168, .T. ) ;
#133 = AXIS2_PLACEMENT_3D ( 'NONE', #334, #162, #72 ) ;
#134 = TOROIDAL_SURFACE ( 'NONE', #149, 3.000000000000000000, 2.236363636363637200 ) ;
#135 = ORIENTED_EDGE ( 'NONE', *, *, #287, .F. ) ;
#136 = CARTESIAN_POINT ( 'NONE',  ( 0.0000000000000000000, 15.19999999999999900, 0.0000000000000000000 ) ) ;
#137 = EDGE_LOOP ( 'NONE', ( #145, #152, #258, #245, #111 ) ) ;
#138 = VERTEX_POINT ( 'NONE', #117 ) ;
#139 = DIRECTION ( 'NONE',  ( 0.0000000000000000000, 0.0000000000000000000, -1.000000000000000000 ) ) ;
#140 = SURFACE_STYLE_FILL_AREA ( #98 ) ;
#141 = PRODUCT_DEFINITION ( 'UNKNOWN', '', #165, #39 ) ;
#142 = SPHERICAL_SURFACE ( 'NONE', #348, 2.374999999999999600 ) ;
#143 = DIRECTION ( 'NONE',  ( 0.0000000000000000000, 0.0000000000000000000, -1.000000000000000000 ) ) ;
#144 = FACE_OUTER_BOUND ( 'NONE', #137, .T. ) ;
#145 = ORIENTED_EDGE ( 'NONE', *, *, #55, .T. ) ;
#146 = CIRCLE ( 'NONE', #116, 1.991052631578946300 ) ;
#147 = EDGE_CURVE ( 'NONE', #52, #281, #163, .T. ) ;
#148 = DIRECTION ( 'NONE',  ( 0.0000000000000000000, 0.0000000000000000000, -1.000000000000000000 ) ) ;
#149 = AXIS2_PLACEMENT_3D ( 'NONE', #222, #247, #249 ) ;
#150 = CARTESIAN_POINT ( 'NONE',  ( 3.567516664552899300E-016, 5.700000000000000200, 2.490000000000000200 ) ) ;
#151 = PRODUCT ( '0BS01-00622MIDG_09_50mm', '0BS01-00622MIDG_09_50mm', '', ( #77 ) ) ;
#152 = ORIENTED_EDGE ( 'NONE', *, *, #25, .T. ) ;
#153 = CIRCLE ( 'NONE', #13, 2.490000000000000700 ) ;
#154 = CARTESIAN_POINT ( 'NONE',  ( 0.0000000000000000000, 16.52000000000000000, 0.0000000000000000000 ) ) ;
#155 = FACE_OUTER_BOUND ( 'NONE', #36, .T. ) ;
#156 = EDGE_CURVE ( 'NONE', #138, #52, #235, .T. ) ;
#157 = DIRECTION ( 'NONE',  ( -0.0000000000000000000, -1.000000000000000000, -0.0000000000000000000 ) ) ;
#158 = AXIS2_PLACEMENT_3D ( 'NONE', #15, #17, #21 ) ;
#159 = DIRECTION ( 'NONE',  ( 0.0000000000000000000, 0.0000000000000000000, -1.000000000000000000 ) ) ;
#160 = DIRECTION ( 'NONE',  ( 0.0000000000000000000, 0.0000000000000000000, -1.000000000000000000 ) ) ;
#161 = DIRECTION ( 'NONE',  ( -1.000000000000000000, 0.0000000000000000000, 0.0000000000000000000 ) ) ;
#162 = DIRECTION ( 'NONE',  ( -0.0000000000000000000, -1.000000000000000000, -0.0000000000000000000 ) ) ;
#163 = CIRCLE ( 'NONE', #202, 1.991052631578946300 ) ;
#164 = VERTEX_POINT ( 'NONE', #34 ) ;
#165 = PRODUCT_DEFINITION_FORMATION_WITH_SPECIFIED_SOURCE ( 'ANY', '', #151, .NOT_KNOWN. ) ;
#166 = FILL_AREA_STYLE_COLOUR ( '', #325 ) ;
#167 = CARTESIAN_POINT ( 'NONE',  ( 0.0000000000000000000, 5.700000000000000200, 0.0000000000000000000 ) ) ;
#168 = EDGE_CURVE ( 'NONE', #295, #164, #229, .T. ) ;
#169 = DIRECTION ( 'NONE',  ( -0.0000000000000000000, -1.000000000000000000, -0.0000000000000000000 ) ) ;
#170 = ORIENTED_EDGE ( 'NONE', *, *, #156, .F. ) ;
#171 = DIRECTION ( 'NONE',  ( 0.0000000000000000000, 0.0000000000000000000, -1.000000000000000000 ) ) ;
#172 = CARTESIAN_POINT ( 'NONE',  ( 2.025465997325047100, 1.134793366539249800, -2.480480450405920400E-016 ) ) ;
#173 = AXIS2_PLACEMENT_3D ( 'NONE', #344, #371, #160 ) ;
#174 = CIRCLE ( 'NONE', #56, 3.336196854532658600 ) ;
#175 = ORIENTED_EDGE ( 'NONE', *, *, #10, .T. ) ;
#176 = DIRECTION ( 'NONE',  ( -0.0000000000000000000, -1.000000000000000000, -0.0000000000000000000 ) ) ;
#177 = FACE_OUTER_BOUND ( 'NONE', #300, .T. ) ;
#178 = EDGE_CURVE ( 'NONE', #107, #46, #263, .T. ) ;
#179 = AXIS2_PLACEMENT_3D ( 'NONE', #35, #161, #20 ) ;
#180 = CIRCLE ( 'NONE', #195, 2.374999999999999600 ) ;
#181 = ORIENTED_EDGE ( 'NONE', *, *, #178, .F. ) ;
#182 = CIRCLE ( 'NONE', #82, 5.040000000000000900 ) ;
#183 = CARTESIAN_POINT ( 'NONE',  ( 3.049370529876909400E-016, 0.0000000000000000000, 2.490000000000000200 ) ) ;
#184 = PRODUCT_RELATED_PRODUCT_CATEGORY ( 'part', '', ( #151 ) ) ;
#185 = CARTESIAN_POINT ( 'NONE',  ( 0.0000000000000000000, 3.527990493605468000, 0.0000000000000000000 ) ) ;
#186 = FACE_OUTER_BOUND ( 'NONE', #318, .T. ) ;
#187 = CARTESIAN_POINT ( 'NONE',  ( 0.0000000000000000000, 15.19999999999999900, 0.0000000000000000000 ) ) ;
#188 = ORIENTED_EDGE ( 'NONE', *, *, #32, .F. ) ;
#189 = DIRECTION ( 'NONE',  ( -0.0000000000000000000, -1.000000000000000000, -0.0000000000000000000 ) ) ;
#190 = ADVANCED_FACE ( 'NONE', ( #240, #285 ), #94, .T. ) ;
#191 = DIRECTION ( 'NONE',  ( 0.0000000000000000000, 0.0000000000000000000, -1.000000000000000000 ) ) ;
#192 = FILL_AREA_STYLE ('',( #166 ) ) ;
#193 = ORIENTED_EDGE ( 'NONE', *, *, #233, .T. ) ;
#194 = SURFACE_SIDE_STYLE ('',( #293 ) ) ;
#195 = AXIS2_PLACEMENT_3D ( 'NONE', #283, #284, #288 ) ;
#196 = SURFACE_STYLE_USAGE ( .BOTH. , #194 ) ;
#197 = FACE_OUTER_BOUND ( 'NONE', #199, .T. ) ;
#198 = ORIENTED_EDGE ( 'NONE', *, *, #25, .F. ) ;
#199 = EDGE_LOOP ( 'NONE', ( #314, #306, #122, #214 ) ) ;
#200 = APPLICATION_CONTEXT ( 'automotive_design' ) ;
#201 = EDGE_CURVE ( 'NONE', #46, #281, #364, .T. ) ;
#202 = AXIS2_PLACEMENT_3D ( 'NONE', #40, #42, #43 ) ;
#203 =( LENGTH_UNIT ( ) NAMED_UNIT ( * ) SI_UNIT ( .MILLI., .METRE. ) );
#204 = UNCERTAINTY_MEASURE_WITH_UNIT (LENGTH_MEASURE( 1.000000000000000100E-005 ), #14, 'distance_accuracy_value', 'NONE');
#205 = CIRCLE ( 'NONE', #158, 2.025465997325047100 ) ;
#206 = CIRCLE ( 'NONE', #105, 2.025465997325047100 ) ;
#207 = CARTESIAN_POINT ( 'NONE',  ( 0.0000000000000000000, 3.527990493605468000, 0.0000000000000000000 ) ) ;
#208 = DIRECTION ( 'NONE',  ( 0.0000000000000000000, 0.0000000000000000000, -1.000000000000000000 ) ) ;
#209 = SHAPE_DEFINITION_REPRESENTATION ( #26, #127 ) ;
#210 = ORIENTED_EDGE ( 'NONE', *, *, #201, .T. ) ;
#211 =( NAMED_UNIT ( * ) PLANE_ANGLE_UNIT ( ) SI_UNIT ( $, .RADIAN. ) );
#212 =( NAMED_UNIT ( * ) SI_UNIT ( $, .STERADIAN. ) SOLID_ANGLE_UNIT ( ) );
#213 = CIRCLE ( 'NONE', #120, 5.040000000000000900 ) ;
#214 = ORIENTED_EDGE ( 'NONE', *, *, #71, .F. ) ;
#215 = CYLINDRICAL_SURFACE ( 'NONE', #133, 2.490000000000000200 ) ;
#216 = DIRECTION ( 'NONE',  ( -0.0000000000000000000, -1.000000000000000000, -0.0000000000000000000 ) ) ;
#217 = EDGE_LOOP ( 'NONE', ( #57, #225 ) ) ;
#218 = UNCERTAINTY_MEASURE_WITH_UNIT (LENGTH_MEASURE( 1.000000000000000100E-005 ), #203, 'distance_accuracy_value', 'NONE');
#219 = CIRCLE ( 'NONE', #179, 2.236363636363637200 ) ;
#220 = AXIS2_PLACEMENT_3D ( 'NONE', #50, #54, #61 ) ;
#221 = VERTEX_POINT ( 'NONE', #44 ) ;
#222 = CARTESIAN_POINT ( 'NONE',  ( 0.0000000000000000000, 14.28363636363636300, 0.0000000000000000000 ) ) ;
#223 = DIRECTION ( 'NONE',  ( -0.0000000000000000000, -1.000000000000000000, -0.0000000000000000000 ) ) ;
#224 = CARTESIAN_POINT ( 'NONE',  ( 0.0000000000000000000, 15.19999999999999900, 0.0000000000000000000 ) ) ;
#225 = ORIENTED_EDGE ( 'NONE', *, *, #71, .T. ) ;
#226 = DIRECTION ( 'NONE',  ( 1.000000000000000000, 0.0000000000000000000, 0.0000000000000000000 ) ) ;
#227 = CARTESIAN_POINT ( 'NONE',  ( 0.0000000000000000000, 16.52000000000000000, -3.000000000000000000 ) ) ;
#228 = FACE_OUTER_BOUND ( 'NONE', #47, .T. ) ;
#229 = CIRCLE ( 'NONE', #241, 2.236363636363637200 ) ;
#230 = CARTESIAN_POINT ( 'NONE',  ( 4.923080132572360300E-016, 16.52000000000000000, 3.000000000000000000 ) ) ;
#231 = ORIENTED_EDGE ( 'NONE', *, *, #264, .F. ) ;
#232 = CARTESIAN_POINT ( 'NONE',  ( 0.0000000000000000000, 4.027990493605469300, 0.0000000000000000000 ) ) ;
#233 = EDGE_CURVE ( 'NONE', #256, #138, #368, .T. ) ;
#234 = AXIS2_PLACEMENT_3D ( 'NONE', #232, #253, #294 ) ;
#235 = CIRCLE ( 'NONE', #220, 1.991052631578946300 ) ;
#236 = VERTEX_POINT ( 'NONE', #124 ) ;
#237 = CARTESIAN_POINT ( 'NONE',  ( 0.0000000000000000000, 16.52000000000000000, 0.0000000000000000000 ) ) ;
#238 = CARTESIAN_POINT ( 'NONE',  ( 0.0000000000000000000, 15.19999999999999900, -5.040000000000000900 ) ) ;
#239 = TOROIDAL_SURFACE ( 'NONE', #292, 3.000000000000000000, 2.236363636363637200 ) ;
#240 = FACE_OUTER_BOUND ( 'NONE', #217, .T. ) ;
#241 = AXIS2_PLACEMENT_3D ( 'NONE', #75, #79, #80 ) ;
#242 = DIRECTION ( 'NONE',  ( -0.0000000000000000000, -1.000000000000000000, -0.0000000000000000000 ) ) ;
#243 = DIRECTION ( 'NONE',  ( 0.0000000000000000000, 0.0000000000000000000, -1.000000000000000000 ) ) ;
#244 = TOROIDAL_SURFACE ( 'NONE', #311, 1.408947368421053400, 1.991052631578946300 ) ;
#245 = ORIENTED_EDGE ( 'NONE', *, *, #81, .F. ) ;
#246 = EDGE_CURVE ( 'NONE', #295, #296, #3, .T. ) ;
#247 = DIRECTION ( 'NONE',  ( -0.0000000000000000000, -1.000000000000000000, -0.0000000000000000000 ) ) ;
#248 = CARTESIAN_POINT ( 'NONE',  ( 1.725462884903929700E-016, 4.027990493605469300, 1.408947368421053400 ) ) ;
#249 = DIRECTION ( 'NONE',  ( 0.0000000000000000000, 0.0000000000000000000, -1.000000000000000000 ) ) ;
#250 = COLOUR_RGB ( '',0.7921568627450980000, 0.8196078431372548800, 0.9333333333333333500 ) ;
#251 = ORIENTED_EDGE ( 'NONE', *, *, #291, .F. ) ;
#252 = EDGE_CURVE ( 'NONE', #138, #256, #273, .T. ) ;
#253 = DIRECTION ( 'NONE',  ( -0.0000000000000000000, -1.000000000000000000, -0.0000000000000000000 ) ) ;
#254 = CARTESIAN_POINT ( 'NONE',  ( 3.000000000000000000, 16.52000000000000000, 0.0000000000000000000 ) ) ;
#255 = CARTESIAN_POINT ( 'NONE',  ( 0.0000000000000000000, 3.527990493605468000, -3.336196854532658600 ) ) ;
#256 = VERTEX_POINT ( 'NONE', #150 ) ;
#257 =( GEOMETRIC_REPRESENTATION_CONTEXT ( 3 ) GLOBAL_UNCERTAINTY_ASSIGNED_CONTEXT ( ( #349 ) ) GLOBAL_UNIT_ASSIGNED_CONTEXT ( ( #353, #356, #366 ) ) REPRESENTATION_CONTEXT ( 'NONE', 'WORKASPACE' ) );
#258 = ORIENTED_EDGE ( 'NONE', *, *, #93, .F. ) ;
#259 = CARTESIAN_POINT ( 'NONE',  ( 0.0000000000000000000, 2.375000000000000000, 0.0000000000000000000 ) ) ;
#260 = DIRECTION ( 'NONE',  ( -0.0000000000000000000, 0.0000000000000000000, 1.000000000000000000 ) ) ;
#261 = CARTESIAN_POINT ( 'NONE',  ( -2.025465997325047100, 1.134793366539249800, 0.0000000000000000000 ) ) ;
#262 = PRESENTATION_STYLE_ASSIGNMENT (( #9 ) ) ;
#263 = CIRCLE ( 'NONE', #265, 2.025465997325047100 ) ;
#264 = EDGE_CURVE ( 'NONE', #78, #221, #321, .T. ) ;
#265 = AXIS2_PLACEMENT_3D ( 'NONE', #96, #99, #100 ) ;
#266 = DIRECTION ( 'NONE',  ( 1.000000000000000000, 0.0000000000000000000, 0.0000000000000000000 ) ) ;
#267 = ORIENTED_EDGE ( 'NONE', *, *, #252, .T. ) ;
#268 = EDGE_LOOP ( 'NONE', ( #358, #110, #370, #101 ) ) ;
#269 = CARTESIAN_POINT ( 'NONE',  ( 4.085662799228888800E-016, 3.527990493605468000, 3.336196854532658600 ) ) ;
#270 = ORIENTED_EDGE ( 'NONE', *, *, #357, .T. ) ;
#271 = CARTESIAN_POINT ( 'NONE',  ( 1.725462884903929700E-016, 3.027990493605469300, 1.408947368421053400 ) ) ;
#272 = ORIENTED_EDGE ( 'NONE', *, *, #246, .F. ) ;
#273 = CIRCLE ( 'NONE', #359, 2.490000000000000200 ) ;
#274 = AXIS2_PLACEMENT_3D ( 'NONE', #254, #302, #304 ) ;
#275 = DIRECTION ( 'NONE',  ( 1.000000000000000000, 0.0000000000000000000, -1.224646799147353200E-016 ) ) ;
#276 = DIRECTION ( 'NONE',  ( -1.224646799147353200E-016, 0.0000000000000000000, -1.000000000000000000 ) ) ;
#277 = LINE ( 'NONE', #183, #355 ) ;
#278 = DIRECTION ( 'NONE',  ( -0.0000000000000000000, -1.000000000000000000, -0.0000000000000000000 ) ) ;
#279 = EDGE_LOOP ( 'NONE', ( #251, #272 ) ) ;
#280 = ORIENTED_EDGE ( 'NONE', *, *, #156, .T. ) ;
#281 = VERTEX_POINT ( 'NONE', #108 ) ;
#282 = DIRECTION ( 'NONE',  ( -1.000000000000000000, 0.0000000000000000000, 0.0000000000000000000 ) ) ;
#283 = CARTESIAN_POINT ( 'NONE',  ( 0.0000000000000000000, 2.375000000000000000, 0.0000000000000000000 ) ) ;
#284 = DIRECTION ( 'NONE',  ( -1.224646799147353200E-016, 0.0000000000000000000, -1.000000000000000000 ) ) ;
#285 = FACE_BOUND ( 'NONE', #289, .T. ) ;
#286 = MANIFOLD_SOLID_BREP ( 'Revolve1', #84 ) ;
#287 = EDGE_CURVE ( 'NONE', #78, #256, #277, .T. ) ;
#288 = DIRECTION ( 'NONE',  ( -1.000000000000000000, 0.0000000000000000000, 1.224646799147353200E-016 ) ) ;
#289 = EDGE_LOOP ( 'NONE', ( #188, #231 ) ) ;
#290 = DIRECTION ( 'NONE',  ( -1.000000000000000000, 0.0000000000000000000, 0.0000000000000000000 ) ) ;
#291 = EDGE_CURVE ( 'NONE', #296, #295, #338, .T. ) ;
#292 = AXIS2_PLACEMENT_3D ( 'NONE', #313, #307, #299 ) ;
#293 = SURFACE_STYLE_FILL_AREA ( #192 ) ;
#294 = DIRECTION ( 'NONE',  ( 0.0000000000000000000, 0.0000000000000000000, -1.000000000000000000 ) ) ;
#295 = VERTEX_POINT ( 'NONE', #230 ) ;
#296 = VERTEX_POINT ( 'NONE', #227 ) ;
#297 = AXIS2_PLACEMENT_3D ( 'NONE', #112, #115, #118 ) ;
#298 = PLANE ( 'NONE',  #274 ) ;
#299 = DIRECTION ( 'NONE',  ( 0.0000000000000000000, 0.0000000000000000000, -1.000000000000000000 ) ) ;
#300 = EDGE_LOOP ( 'NONE', ( #135, #126, #270, #37 ) ) ;
#301 = ADVANCED_FACE ( 'NONE', ( #197 ), #134, .T. ) ;
#302 = DIRECTION ( 'NONE',  ( 0.0000000000000000000, 1.000000000000000000, 0.0000000000000000000 ) ) ;
#303 = FACE_OUTER_BOUND ( 'NONE', #305, .T. ) ;
#304 = DIRECTION ( 'NONE',  ( 0.0000000000000000000, -0.0000000000000000000, 1.000000000000000000 ) ) ;
#305 = EDGE_LOOP ( 'NONE', ( #198, #113, #48, #66, #181 ) ) ;
#306 = ORIENTED_EDGE ( 'NONE', *, *, #246, .T. ) ;
#307 = DIRECTION ( 'NONE',  ( -0.0000000000000000000, -1.000000000000000000, -0.0000000000000000000 ) ) ;
#308 = ADVANCED_FACE ( 'NONE', ( #228 ), #362, .T. ) ;
#309 = DIRECTION ( 'NONE',  ( 0.0000000000000000000, 0.0000000000000000000, -1.000000000000000000 ) ) ;
#310 = DIRECTION ( 'NONE',  ( -0.0000000000000000000, -1.000000000000000000, -0.0000000000000000000 ) ) ;
#311 = AXIS2_PLACEMENT_3D ( 'NONE', #328, #310, #331 ) ;
#312 = LINE ( 'NONE', #316, #317 ) ;
#313 = CARTESIAN_POINT ( 'NONE',  ( 0.0000000000000000000, 14.28363636363636300, 0.0000000000000000000 ) ) ;
#314 = ORIENTED_EDGE ( 'NONE', *, *, #168, .F. ) ;
#315 = DIRECTION ( 'NONE',  ( -0.0000000000000000000, -1.000000000000000000, -0.0000000000000000000 ) ) ;
#316 = CARTESIAN_POINT ( 'NONE',  ( 0.0000000000000000000, 0.0000000000000000000, -2.490000000000000200 ) ) ;
#317 = VECTOR ( 'NONE', #315, 1000.000000000000000 ) ;
#318 = EDGE_LOOP ( 'NONE', ( #267, #175, #76, #170 ) ) ;
#319 = AXIS2_PLACEMENT_3D ( 'NONE', #30, #103, #106 ) ;
#320 = DIRECTION ( 'NONE',  ( -0.0000000000000000000, -1.000000000000000000, -0.0000000000000000000 ) ) ;
#321 = CIRCLE ( 'NONE', #6, 2.490000000000000700 ) ;
#322 = EDGE_CURVE ( 'NONE', #46, #236, #91, .T. ) ;
#323 = TOROIDAL_SURFACE ( 'NONE', #234, 1.408947368421053400, 1.991052631578946300 ) ;
#324 = EDGE_CURVE ( 'NONE', #23, #236, #180, .T. ) ;
#325 = COLOUR_RGB ( '',0.7921568627450980000, 0.8196078431372548800, 0.9333333333333333500 ) ;
#326 = AXIS2_PLACEMENT_3D ( 'NONE', #336, #327, #340 ) ;
#327 = DIRECTION ( 'NONE',  ( -0.0000000000000000000, -1.000000000000000000, -0.0000000000000000000 ) ) ;
#328 = CARTESIAN_POINT ( 'NONE',  ( 0.0000000000000000000, 3.027990493605469300, 0.0000000000000000000 ) ) ;
#329 = ADVANCED_FACE ( 'NONE', ( #186 ), #323, .T. ) ;
#330 = DIRECTION ( 'NONE',  ( 1.000000000000000000, 0.0000000000000000000, -1.224646799147353200E-016 ) ) ;
#331 = DIRECTION ( 'NONE',  ( 0.0000000000000000000, 0.0000000000000000000, -1.000000000000000000 ) ) ;
#332 = CARTESIAN_POINT ( 'NONE',  ( 0.0000000000000000000, 0.0000000000000000000, 0.0000000000000000000 ) ) ;
#333 = ADVANCED_FACE ( 'NONE', ( #337 ), #298, .T. ) ;
#334 = CARTESIAN_POINT ( 'NONE',  ( 0.0000000000000000000, 0.0000000000000000000, 0.0000000000000000000 ) ) ;
#335 = AXIS2_PLACEMENT_3D ( 'NONE', #128, #131, #148 ) ;
#336 = CARTESIAN_POINT ( 'NONE',  ( 0.0000000000000000000, 3.027990493605469300, 0.0000000000000000000 ) ) ;
#337 = FACE_OUTER_BOUND ( 'NONE', #279, .T. ) ;
#338 = CIRCLE ( 'NONE', #114, 3.000000000000000000 ) ;
#339 = STYLED_ITEM ( 'NONE', ( #262 ), #127 ) ;
#340 = DIRECTION ( 'NONE',  ( 0.0000000000000000000, 0.0000000000000000000, -1.000000000000000000 ) ) ;
#341 = DIRECTION ( 'NONE',  ( 0.0000000000000000000, 0.0000000000000000000, -1.000000000000000000 ) ) ;
#342 = AXIS2_PLACEMENT_3D ( 'NONE', #154, #157, #159 ) ;
#343 = ORIENTED_EDGE ( 'NONE', *, *, #324, .F. ) ;
#344 = CARTESIAN_POINT ( 'NONE',  ( 0.0000000000000000000, 4.027990493605469300, 0.0000000000000000000 ) ) ;
#345 = DIRECTION ( 'NONE',  ( -0.0000000000000000000, -1.000000000000000000, -0.0000000000000000000 ) ) ;
#346 = ADVANCED_FACE ( 'NONE', ( #45 ), #239, .T. ) ;
#347 = CARTESIAN_POINT ( 'NONE',  ( 0.0000000000000000000, 0.0000000000000000000, 0.0000000000000000000 ) ) ;
#348 = AXIS2_PLACEMENT_3D ( 'NONE', #367, #65, #290 ) ;
#349 = UNCERTAINTY_MEASURE_WITH_UNIT (LENGTH_MEASURE( 1.000000000000000100E-005 ), #353, 'distance_accuracy_value', 'NONE');
#350 = FACE_OUTER_BOUND ( 'NONE', #268, .T. ) ;
#351 = ORIENTED_EDGE ( 'NONE', *, *, #104, .F. ) ;
#352 = DIRECTION ( 'NONE',  ( 0.0000000000000000000, 0.0000000000000000000, 1.000000000000000000 ) ) ;
#353 =( LENGTH_UNIT ( ) NAMED_UNIT ( * ) SI_UNIT ( .MILLI., .METRE. ) );
#354 = AXIS2_PLACEMENT_3D ( 'NONE', #332, #345, #341 ) ;
#355 = VECTOR ( 'NONE', #223, 1000.000000000000000 ) ;
#356 =( NAMED_UNIT ( * ) PLANE_ANGLE_UNIT ( ) SI_UNIT ( $, .RADIAN. ) );
#357 = EDGE_CURVE ( 'NONE', #221, #138, #312, .T. ) ;
#358 = ORIENTED_EDGE ( 'NONE', *, *, #32, .T. ) ;
#359 = AXIS2_PLACEMENT_3D ( 'NONE', #167, #169, #171 ) ;
#360 = PRESENTATION_STYLE_ASSIGNMENT (( #196 ) ) ;
#361 = AXIS2_PLACEMENT_3D ( 'NONE', #248, #330, #7 ) ;
#362 = TOROIDAL_SURFACE ( 'NONE', #173, 1.408947368421053400, 1.991052631578946300 ) ;
#363 = CIRCLE ( 'NONE', #102, 3.336196854532658600 ) ;
#364 = CIRCLE ( 'NONE', #297, 2.025465997325047100 ) ;
#365 = ADVANCED_FACE ( 'NONE', ( #303 ), #244, .T. ) ;
#366 =( NAMED_UNIT ( * ) SI_UNIT ( $, .STERADIAN. ) SOLID_ANGLE_UNIT ( ) );
#367 = CARTESIAN_POINT ( 'NONE',  ( 0.0000000000000000000, 2.375000000000000000, 0.0000000000000000000 ) ) ;
#368 = CIRCLE ( 'NONE', #335, 2.490000000000000200 ) ;
#369 = ADVANCED_FACE ( 'NONE', ( #144 ), #121, .T. ) ;
#370 = ORIENTED_EDGE ( 'NONE', *, *, #252, .F. ) ;
#371 = DIRECTION ( 'NONE',  ( -0.0000000000000000000, -1.000000000000000000, -0.0000000000000000000 ) ) ;
#372 = ADVANCED_FACE ( 'NONE', ( #350 ), #12, .T. ) ;
ENDSEC;
END-ISO-10303-21;
