ISO-10303-21;
HEADER;
FILE_DESCRIPTION (( 'STEP AP214' ),
    '1' );
FILE_NAME ('0BS01-00622MAXG_12_70mm.STEP',
    '2016-04-29T12:15:16',
    ( '' ),
    ( '' ),
    'SwSTEP 2.0',
    'SolidWorks 2015',
    '' );
FILE_SCHEMA (( 'AUTOMOTIVE_DESIGN' ));
ENDSEC;

DATA;
#1 = DIRECTION ( 'NONE',  ( 0.0000000000000000000, 0.0000000000000000000, -1.000000000000000000 ) ) ;
#2 = FILL_AREA_STYLE ('',( #263 ) ) ;
#3 =( NAMED_UNIT ( * ) SI_UNIT ( $, .STERADIAN. ) SOLID_ANGLE_UNIT ( ) );
#4 = SURFACE_SIDE_STYLE ('',( #281 ) ) ;
#5 = AXIS2_PLACEMENT_3D ( 'NONE', #234, #237, #235 ) ;
#6 = APPLICATION_CONTEXT ( 'automotive_design' ) ;
#7 = SURFACE_STYLE_USAGE ( .BOTH. , #4 ) ;
#8 = FACE_OUTER_BOUND ( 'NONE', #326, .T. ) ;
#9 = ADVANCED_FACE ( 'NONE', ( #268 ), #53, .T. ) ;
#10 = FACE_BOUND ( 'NONE', #131, .T. ) ;
#11 = ADVANCED_FACE ( 'NONE', ( #224 ), #174, .T. ) ;
#12 =( LENGTH_UNIT ( ) NAMED_UNIT ( * ) SI_UNIT ( .MILLI., .METRE. ) );
#13 = TOROIDAL_SURFACE ( 'NONE', #119, 3.000000000000000000, 2.236363636363634600 ) ;
#14 = EDGE_CURVE ( 'NONE', #127, #291, #233, .T. ) ;
#15 = AXIS2_PLACEMENT_3D ( 'NONE', #62, #90, #58 ) ;
#16 = ADVANCED_FACE ( 'NONE', ( #146 ), #183, .T. ) ;
#17 =( NAMED_UNIT ( * ) PLANE_ANGLE_UNIT ( ) SI_UNIT ( $, .RADIAN. ) );
#18 = CIRCLE ( 'NONE', #91, 1.991052631578946300 ) ;
#19 =( NAMED_UNIT ( * ) SI_UNIT ( $, .STERADIAN. ) SOLID_ANGLE_UNIT ( ) );
#20 = EDGE_CURVE ( 'NONE', #153, #192, #245, .T. ) ;
#21 =( NAMED_UNIT ( * ) PLANE_ANGLE_UNIT ( ) SI_UNIT ( $, .RADIAN. ) );
#22 = CIRCLE ( 'NONE', #73, 1.991052631578946300 ) ;
#23 = EDGE_CURVE ( 'NONE', #225, #292, #241, .T. ) ;
#24 = EDGE_CURVE ( 'NONE', #192, #228, #239, .T. ) ;
#25 = AXIS2_PLACEMENT_3D ( 'NONE', #240, #243, #248 ) ;
#26 = FACE_OUTER_BOUND ( 'NONE', #187, .T. ) ;
#27 = CIRCLE ( 'NONE', #5, 1.853790199197542300 ) ;
#28 = DIRECTION ( 'NONE',  ( -1.000000000000000000, 0.0000000000000000000, 0.0000000000000000000 ) ) ;
#29 = CARTESIAN_POINT ( 'NONE',  ( 0.0000000000000000000, 0.8903832489968555000, 0.0000000000000000000 ) ) ;
#30 = EDGE_CURVE ( 'NONE', #175, #160, #221, .T. ) ;
#31 = CIRCLE ( 'NONE', #50, 3.621196854532658700 ) ;
#32 = EDGE_CURVE ( 'NONE', #225, #127, #200, .T. ) ;
#33 = AXIS2_PLACEMENT_3D ( 'NONE', #300, #59, #28 ) ;
#34 = APPLICATION_PROTOCOL_DEFINITION ( 'draft international standard', 'automotive_design', 1998, #6 ) ;
#35 = CARTESIAN_POINT ( 'NONE',  ( 0.0000000000000000000, 5.700000000000000200, 0.0000000000000000000 ) ) ;
#36 = CIRCLE ( 'NONE', #25, 3.000000000000000000 ) ;
#37 = CYLINDRICAL_SURFACE ( 'NONE', #340, 2.490000000000000200 ) ;
#38 = CIRCLE ( 'NONE', #366, 5.039999999999999100 ) ;
#39 = DIRECTION ( 'NONE',  ( -0.0000000000000000000, -1.000000000000000000, -0.0000000000000000000 ) ) ;
#40 = CARTESIAN_POINT ( 'NONE',  ( 4.923080132572359300E-016, 19.72000000000000200, 3.000000000000000000 ) ) ;
#41 = ADVANCED_FACE ( 'NONE', ( #213 ), #255, .T. ) ;
#42 = DIRECTION ( 'NONE',  ( 0.0000000000000000000, 0.0000000000000000000, -1.000000000000000000 ) ) ;
#43 = DIRECTION ( 'NONE',  ( -1.000000000000000000, 0.0000000000000000000, 1.224646799147353200E-016 ) ) ;
#44 = CARTESIAN_POINT ( 'NONE',  ( 0.0000000000000000000, 0.8903832489968555000, -1.853790199197542300 ) ) ;
#45 = CARTESIAN_POINT ( 'NONE',  ( 2.074487222660925400E-016, 3.875009372771005100, 1.693947368421053500 ) ) ;
#46 = CIRCLE ( 'NONE', #311, 2.236363636363634600 ) ;
#47 = DIRECTION ( 'NONE',  ( 1.000000000000000000, 0.0000000000000000000, -1.224646799147353200E-016 ) ) ;
#48 = EDGE_CURVE ( 'NONE', #291, #292, #266, .T. ) ;
#49 = CIRCLE ( 'NONE', #349, 1.991052631578946300 ) ;
#50 = AXIS2_PLACEMENT_3D ( 'NONE', #258, #261, #264 ) ;
#51 = DIRECTION ( 'NONE',  ( -1.224646799147353200E-016, 0.0000000000000000000, -1.000000000000000000 ) ) ;
#52 = FACE_OUTER_BOUND ( 'NONE', #309, .T. ) ;
#53 = TOROIDAL_SURFACE ( 'NONE', #299, 1.693947368421053500, 1.991052631578946300 ) ;
#54 = DIRECTION ( 'NONE',  ( -1.224646799147353200E-016, 0.0000000000000000000, -1.000000000000000000 ) ) ;
#55 = CARTESIAN_POINT ( 'NONE',  ( 0.0000000000000000000, 2.375000000000000000, 0.0000000000000000000 ) ) ;
#56 = AXIS2_PLACEMENT_3D ( 'NONE', #55, #51, #43 ) ;
#57 = CIRCLE ( 'NONE', #273, 2.489999999999999800 ) ;
#58 = DIRECTION ( 'NONE',  ( 0.0000000000000000000, 0.0000000000000000000, -1.000000000000000000 ) ) ;
#59 = DIRECTION ( 'NONE',  ( -0.0000000000000000000, -0.0000000000000000000, -1.000000000000000000 ) ) ;
#60 = EDGE_CURVE ( 'NONE', #247, #228, #249, .T. ) ;
#61 = AXIS2_PLACEMENT_3D ( 'NONE', #330, #369, #319 ) ;
#62 = CARTESIAN_POINT ( 'NONE',  ( 0.0000000000000000000, 5.700000000000000200, 0.0000000000000000000 ) ) ;
#63 = CIRCLE ( 'NONE', #289, 3.621196854532658700 ) ;
#64 = UNCERTAINTY_MEASURE_WITH_UNIT (LENGTH_MEASURE( 1.000000000000000100E-005 ), #350, 'distance_accuracy_value', 'NONE');
#65 = CARTESIAN_POINT ( 'NONE',  ( 0.0000000000000000000, 0.0000000000000000000, -2.490000000000000200 ) ) ;
#66 = CARTESIAN_POINT ( 'NONE',  ( 3.049370529876908900E-016, 18.39999999999999900, 2.489999999999999800 ) ) ;
#67 = CIRCLE ( 'NONE', #250, 3.000000000000000000 ) ;
#68 = CIRCLE ( 'NONE', #328, 2.236363636363634600 ) ;
#69 = CIRCLE ( 'NONE', #188, 1.853790199197542300 ) ;
#70 = CLOSED_SHELL ( 'NONE', ( #325, #360, #11, #9, #41, #364, #16, #344, #173, #306, #294, #346 ) ) ;
#71 = CARTESIAN_POINT ( 'NONE',  ( 0.0000000000000000000, 0.8903832489968555000, 0.0000000000000000000 ) ) ;
#72 = CARTESIAN_POINT ( 'NONE',  ( 6.172219867702660300E-016, 18.39999999999999900, 5.039999999999999100 ) ) ;
#73 = AXIS2_PLACEMENT_3D ( 'NONE', #353, #343, #332 ) ;
#74 = CARTESIAN_POINT ( 'NONE',  ( 0.0000000000000000000, 19.72000000000000200, 0.0000000000000000000 ) ) ;
#75 = DIRECTION ( 'NONE',  ( -0.0000000000000000000, -1.000000000000000000, -0.0000000000000000000 ) ) ;
#76 = EDGE_LOOP ( 'NONE', ( #277, #287, #357, #301 ) ) ;
#77 = DIRECTION ( 'NONE',  ( -0.0000000000000000000, -1.000000000000000000, -0.0000000000000000000 ) ) ;
#78 = DIRECTION ( 'NONE',  ( 0.0000000000000000000, 0.0000000000000000000, -1.000000000000000000 ) ) ;
#79 = AXIS2_PLACEMENT_3D ( 'NONE', #327, #355, #1 ) ;
#80 = CIRCLE ( 'NONE', #232, 1.991052631578946300 ) ;
#81 = ORIENTED_EDGE ( 'NONE', *, *, #272, .F. ) ;
#82 = TOROIDAL_SURFACE ( 'NONE', #226, 1.693947368421053500, 1.991052631578946300 ) ;
#83 = EDGE_CURVE ( 'NONE', #118, #247, #275, .T. ) ;
#84 = PRODUCT_DEFINITION ( 'UNKNOWN', '', #109, #337 ) ;
#85 = CARTESIAN_POINT ( 'NONE',  ( 3.352462685361944900E-016, 0.8903832489968555000, 1.853790199197542300 ) ) ;
#86 = ORIENTED_EDGE ( 'NONE', *, *, #215, .F. ) ;
#87 = EDGE_LOOP ( 'NONE', ( #145, #152, #166, #184 ) ) ;
#88 = MANIFOLD_SOLID_BREP ( 'Revolve1', #70 ) ;
#89 = EDGE_CURVE ( 'NONE', #247, #153, #69, .T. ) ;
#90 = DIRECTION ( 'NONE',  ( -0.0000000000000000000, -1.000000000000000000, -0.0000000000000000000 ) ) ;
#91 = AXIS2_PLACEMENT_3D ( 'NONE', #293, #295, #296 ) ;
#92 = SURFACE_STYLE_USAGE ( .BOTH. , #110 ) ;
#93 = SURFACE_STYLE_FILL_AREA ( #170 ) ;
#94 = CARTESIAN_POINT ( 'NONE',  ( 0.0000000000000000000, 18.39999999999999900, 0.0000000000000000000 ) ) ;
#95 = DIRECTION ( 'NONE',  ( -0.0000000000000000000, -1.000000000000000000, -0.0000000000000000000 ) ) ;
#96 = VERTEX_POINT ( 'NONE', #40 ) ;
#97 = AXIS2_PLACEMENT_3D ( 'NONE', #205, #257, #202 ) ;
#98 = DIRECTION ( 'NONE',  ( -0.0000000000000000000, -1.000000000000000000, -0.0000000000000000000 ) ) ;
#99 = EDGE_CURVE ( 'NONE', #292, #291, #290, .T. ) ;
#100 = STYLED_ITEM ( 'NONE', ( #304 ), #88 ) ;
#101 = DIRECTION ( 'NONE',  ( 0.0000000000000000000, 0.0000000000000000000, -1.000000000000000000 ) ) ;
#102 = CARTESIAN_POINT ( 'NONE',  ( 0.0000000000000000000, 0.0000000000000000000, 0.0000000000000000000 ) ) ;
#103 =( LENGTH_UNIT ( ) NAMED_UNIT ( * ) SI_UNIT ( .MILLI., .METRE. ) );
#104 = ORIENTED_EDGE ( 'NONE', *, *, #179, .F. ) ;
#105 = ORIENTED_EDGE ( 'NONE', *, *, #83, .F. ) ;
#106 = ORIENTED_EDGE ( 'NONE', *, *, #117, .F. ) ;
#107 = CARTESIAN_POINT ( 'NONE',  ( 0.0000000000000000000, 18.39999999999999900, 0.0000000000000000000 ) ) ;
#108 = EDGE_CURVE ( 'NONE', #291, #212, #80, .T. ) ;
#109 = PRODUCT_DEFINITION_FORMATION_WITH_SPECIFIED_SOURCE ( 'ANY', '', #157, .NOT_KNOWN. ) ;
#110 = SURFACE_SIDE_STYLE ('',( #93 ) ) ;
#111 = FACE_OUTER_BOUND ( 'NONE', #314, .T. ) ;
#112 = ORIENTED_EDGE ( 'NONE', *, *, #282, .F. ) ;
#113 = DIRECTION ( 'NONE',  ( 0.0000000000000000000, 0.0000000000000000000, -1.000000000000000000 ) ) ;
#114 = ORIENTED_EDGE ( 'NONE', *, *, #230, .F. ) ;
#115 = CARTESIAN_POINT ( 'NONE',  ( 0.0000000000000000000, 3.375009372771003800, 0.0000000000000000000 ) ) ;
#116 = DIRECTION ( 'NONE',  ( -0.0000000000000000000, -1.000000000000000000, -0.0000000000000000000 ) ) ;
#117 = EDGE_CURVE ( 'NONE', #216, #96, #67, .T. ) ;
#118 = VERTEX_POINT ( 'NONE', #44 ) ;
#119 = AXIS2_PLACEMENT_3D ( 'NONE', #236, #269, #270 ) ;
#120 = ORIENTED_EDGE ( 'NONE', *, *, #179, .T. ) ;
#121 = DIRECTION ( 'NONE',  ( 0.0000000000000000000, 0.0000000000000000000, -1.000000000000000000 ) ) ;
#122 = AXIS2_PLACEMENT_3D ( 'NONE', #210, #274, #347 ) ;
#123 = FACE_OUTER_BOUND ( 'NONE', #76, .T. ) ;
#124 = APPLICATION_CONTEXT ( 'automotive_design' ) ;
#125 = ORIENTED_EDGE ( 'NONE', *, *, #282, .T. ) ;
#126 = ORIENTED_EDGE ( 'NONE', *, *, #272, .T. ) ;
#127 = VERTEX_POINT ( 'NONE', #66 ) ;
#128 = EDGE_CURVE ( 'NONE', #127, #225, #57, .T. ) ;
#129 = PRESENTATION_LAYER_ASSIGNMENT (  '', '', ( #100 ) ) ;
#130 = DIRECTION ( 'NONE',  ( -0.0000000000000000000, -1.000000000000000000, -0.0000000000000000000 ) ) ;
#131 = EDGE_LOOP ( 'NONE', ( #134, #190 ) ) ;
#132 = PRODUCT_RELATED_PRODUCT_CATEGORY ( 'part', '', ( #157 ) ) ;
#133 = DIRECTION ( 'NONE',  ( -0.0000000000000000000, -1.000000000000000000, -0.0000000000000000000 ) ) ;
#134 = ORIENTED_EDGE ( 'NONE', *, *, #32, .F. ) ;
#135 = CARTESIAN_POINT ( 'NONE',  ( 0.0000000000000000000, 18.39999999999999900, -5.039999999999999100 ) ) ;
#136 = CARTESIAN_POINT ( 'NONE',  ( -1.853790199197542700, 0.8903832489968555000, 0.0000000000000000000 ) ) ;
#137 = ORIENTED_EDGE ( 'NONE', *, *, #297, .F. ) ;
#138 = ORIENTED_EDGE ( 'NONE', *, *, #108, .T. ) ;
#139 = DIRECTION ( 'NONE',  ( 0.0000000000000000000, 0.0000000000000000000, -1.000000000000000000 ) ) ;
#140 = CARTESIAN_POINT ( 'NONE',  ( 4.434687136985885300E-016, 3.375009372771003800, 3.621196854532659200 ) ) ;
#141 = ORIENTED_EDGE ( 'NONE', *, *, #89, .F. ) ;
#142 = PRODUCT_DEFINITION_SHAPE ( 'NONE', 'NONE',  #84 ) ;
#143 = COLOUR_RGB ( '',0.7921568627450980000, 0.8196078431372548800, 0.9333333333333333500 ) ;
#144 = MECHANICAL_DESIGN_GEOMETRIC_PRESENTATION_REPRESENTATION (  '', ( #100 ), #169 ) ;
#145 = ORIENTED_EDGE ( 'NONE', *, *, #256, .T. ) ;
#146 = FACE_OUTER_BOUND ( 'NONE', #333, .T. ) ;
#147 = ORIENTED_EDGE ( 'NONE', *, *, #208, .T. ) ;
#148 = CARTESIAN_POINT ( 'NONE',  ( 0.0000000000000000000, 17.48363636363636800, -3.000000000000000000 ) ) ;
#149 = EDGE_LOOP ( 'NONE', ( #370, #147, #298, #104 ) ) ;
#150 = ORIENTED_EDGE ( 'NONE', *, *, #20, .T. ) ;
#151 = ORIENTED_EDGE ( 'NONE', *, *, #230, .T. ) ;
#152 = ORIENTED_EDGE ( 'NONE', *, *, #83, .T. ) ;
#153 = VERTEX_POINT ( 'NONE', #85 ) ;
#154 = ORIENTED_EDGE ( 'NONE', *, *, #30, .T. ) ;
#155 = DIRECTION ( 'NONE',  ( -1.000000000000000000, 0.0000000000000000000, 0.0000000000000000000 ) ) ;
#156 = DIRECTION ( 'NONE',  ( 0.0000000000000000000, 0.0000000000000000000, 1.000000000000000000 ) ) ;
#157 = PRODUCT ( '0BS01-00622MAXG_12_70mm', '0BS01-00622MAXG_12_70mm', '', ( #348 ) ) ;
#158 = ORIENTED_EDGE ( 'NONE', *, *, #99, .T. ) ;
#159 = ORIENTED_EDGE ( 'NONE', *, *, #128, .T. ) ;
#160 = VERTEX_POINT ( 'NONE', #72 ) ;
#161 = EDGE_LOOP ( 'NONE', ( #158, #138, #112, #86 ) ) ;
#162 = DIRECTION ( 'NONE',  ( 0.0000000000000000000, 0.0000000000000000000, -1.000000000000000000 ) ) ;
#163 = CARTESIAN_POINT ( 'NONE',  ( 0.0000000000000000000, 18.39999999999999900, -2.489999999999999800 ) ) ;
#164 = CARTESIAN_POINT ( 'NONE',  ( 0.0000000000000000000, 18.39999999999999900, 0.0000000000000000000 ) ) ;
#165 = SHAPE_DEFINITION_REPRESENTATION ( #142, #323 ) ;
#166 = ORIENTED_EDGE ( 'NONE', *, *, #60, .T. ) ;
#167 = EDGE_CURVE ( 'NONE', #212, #305, #63, .T. ) ;
#168 = CARTESIAN_POINT ( 'NONE',  ( 0.0000000000000000000, 19.72000000000000200, -3.000000000000000000 ) ) ;
#169 =( GEOMETRIC_REPRESENTATION_CONTEXT ( 3 ) GLOBAL_UNCERTAINTY_ASSIGNED_CONTEXT ( ( #176 ) ) GLOBAL_UNIT_ASSIGNED_CONTEXT ( ( #12, #17, #19 ) ) REPRESENTATION_CONTEXT ( 'NONE', 'WORKASPACE' ) );
#170 = FILL_AREA_STYLE ('',( #356 ) ) ;
#171 = CARTESIAN_POINT ( 'NONE',  ( 3.673940397442059900E-016, 17.48363636363636800, 3.000000000000000000 ) ) ;
#172 = DIRECTION ( 'NONE',  ( 0.0000000000000000000, 0.0000000000000000000, -1.000000000000000000 ) ) ;
#173 = ADVANCED_FACE ( 'NONE', ( #52 ), #37, .T. ) ;
#174 = TOROIDAL_SURFACE ( 'NONE', #262, 1.693947368421053500, 1.991052631578946300 ) ;
#175 = VERTEX_POINT ( 'NONE', #135 ) ;
#176 = UNCERTAINTY_MEASURE_WITH_UNIT (LENGTH_MEASURE( 1.000000000000000100E-005 ), #12, 'distance_accuracy_value', 'NONE');
#177 = DIRECTION ( 'NONE',  ( 1.000000000000000000, 0.0000000000000000000, -1.224646799147353200E-016 ) ) ;
#178 = DIRECTION ( 'NONE',  ( -1.224646799147353200E-016, 0.0000000000000000000, -1.000000000000000000 ) ) ;
#179 = EDGE_CURVE ( 'NONE', #216, #175, #68, .T. ) ;
#180 = DIRECTION ( 'NONE',  ( -0.0000000000000000000, -1.000000000000000000, -0.0000000000000000000 ) ) ;
#181 = CARTESIAN_POINT ( 'NONE',  ( -1.454268073987481900E-016, 0.0000000000000000000, 0.0000000000000000000 ) ) ;
#182 = AXIS2_PLACEMENT_3D ( 'NONE', #284, #302, #307 ) ;
#183 = TOROIDAL_SURFACE ( 'NONE', #97, 1.693947368421053500, 1.991052631578946300 ) ;
#184 = ORIENTED_EDGE ( 'NONE', *, *, #24, .F. ) ;
#185 = CARTESIAN_POINT ( 'NONE',  ( 1.853790199197542700, 0.8903832489968555000, -2.270238233738005100E-016 ) ) ;
#186 = VECTOR ( 'NONE', #322, 1000.000000000000000 ) ;
#187 = EDGE_LOOP ( 'NONE', ( #106, #81 ) ) ;
#188 = AXIS2_PLACEMENT_3D ( 'NONE', #29, #180, #172 ) ;
#189 = CARTESIAN_POINT ( 'NONE',  ( 0.0000000000000000000, 3.875009372771005100, -1.693947368421053500 ) ) ;
#190 = ORIENTED_EDGE ( 'NONE', *, *, #128, .F. ) ;
#191 = VECTOR ( 'NONE', #251, 1000.000000000000000 ) ;
#192 = VERTEX_POINT ( 'NONE', #136 ) ;
#193 = CARTESIAN_POINT ( 'NONE',  ( 0.0000000000000000000, 2.875009372771005100, 0.0000000000000000000 ) ) ;
#194 = DIRECTION ( 'NONE',  ( -1.000000000000000000, 0.0000000000000000000, 0.0000000000000000000 ) ) ;
#195 = ORIENTED_EDGE ( 'NONE', *, *, #89, .T. ) ;
#196 = ORIENTED_EDGE ( 'NONE', *, *, #48, .T. ) ;
#197 = DIRECTION ( 'NONE',  ( 0.0000000000000000000, 0.0000000000000000000, 1.000000000000000000 ) ) ;
#198 = CARTESIAN_POINT ( 'NONE',  ( 0.0000000000000000000, 2.375000000000000000, 0.0000000000000000000 ) ) ;
#199 = DIRECTION ( 'NONE',  ( 0.0000000000000000000, 0.0000000000000000000, -1.000000000000000000 ) ) ;
#200 = CIRCLE ( 'NONE', #368, 2.489999999999999800 ) ;
#201 = ORIENTED_EDGE ( 'NONE', *, *, #108, .F. ) ;
#202 = DIRECTION ( 'NONE',  ( 0.0000000000000000000, 0.0000000000000000000, -1.000000000000000000 ) ) ;
#203 = ORIENTED_EDGE ( 'NONE', *, *, #297, .T. ) ;
#204 = AXIS2_PLACEMENT_3D ( 'NONE', #312, #308, #351 ) ;
#205 = CARTESIAN_POINT ( 'NONE',  ( 0.0000000000000000000, 2.875009372771005100, 0.0000000000000000000 ) ) ;
#206 = ORIENTED_EDGE ( 'NONE', *, *, #208, .F. ) ;
#207 = ORIENTED_EDGE ( 'NONE', *, *, #48, .F. ) ;
#208 = EDGE_CURVE ( 'NONE', #96, #160, #46, .T. ) ;
#209 = AXIS2_PLACEMENT_3D ( 'NONE', #35, #39, #42 ) ;
#210 = CARTESIAN_POINT ( 'NONE',  ( 0.0000000000000000000, 2.375000000000000000, 0.0000000000000000000 ) ) ;
#211 = PRESENTATION_STYLE_ASSIGNMENT (( #92 ) ) ;
#212 = VERTEX_POINT ( 'NONE', #140 ) ;
#213 = FACE_OUTER_BOUND ( 'NONE', #87, .T. ) ;
#214 = ORIENTED_EDGE ( 'NONE', *, *, #23, .T. ) ;
#215 = EDGE_CURVE ( 'NONE', #292, #305, #49, .T. ) ;
#216 = VERTEX_POINT ( 'NONE', #168 ) ;
#217 = ORIENTED_EDGE ( 'NONE', *, *, #14, .F. ) ;
#218 = CARTESIAN_POINT ( 'NONE',  ( 0.0000000000000000000, 18.39999999999999900, 0.0000000000000000000 ) ) ;
#219 = DIRECTION ( 'NONE',  ( -0.0000000000000000000, -1.000000000000000000, -0.0000000000000000000 ) ) ;
#220 = TOROIDAL_SURFACE ( 'NONE', #204, 3.000000000000000000, 2.236363636363634600 ) ;
#221 = CIRCLE ( 'NONE', #354, 5.039999999999999100 ) ;
#222 = DIRECTION ( 'NONE',  ( 0.0000000000000000000, 0.0000000000000000000, -1.000000000000000000 ) ) ;
#223 = EDGE_LOOP ( 'NONE', ( #201, #196, #242, #229 ) ) ;
#224 = FACE_OUTER_BOUND ( 'NONE', #161, .T. ) ;
#225 = VERTEX_POINT ( 'NONE', #163 ) ;
#226 = AXIS2_PLACEMENT_3D ( 'NONE', #316, #315, #313 ) ;
#227 = ORIENTED_EDGE ( 'NONE', *, *, #60, .F. ) ;
#228 = VERTEX_POINT ( 'NONE', #181 ) ;
#229 = ORIENTED_EDGE ( 'NONE', *, *, #167, .F. ) ;
#230 = EDGE_CURVE ( 'NONE', #160, #175, #38, .T. ) ;
#231 = ORIENTED_EDGE ( 'NONE', *, *, #167, .T. ) ;
#232 = AXIS2_PLACEMENT_3D ( 'NONE', #45, #47, #54 ) ;
#233 = LINE ( 'NONE', #238, #186 ) ;
#234 = CARTESIAN_POINT ( 'NONE',  ( 0.0000000000000000000, 0.8903832489968555000, 0.0000000000000000000 ) ) ;
#235 = DIRECTION ( 'NONE',  ( 0.0000000000000000000, 0.0000000000000000000, -1.000000000000000000 ) ) ;
#236 = CARTESIAN_POINT ( 'NONE',  ( 0.0000000000000000000, 17.48363636363636800, 0.0000000000000000000 ) ) ;
#237 = DIRECTION ( 'NONE',  ( -0.0000000000000000000, -1.000000000000000000, -0.0000000000000000000 ) ) ;
#238 = CARTESIAN_POINT ( 'NONE',  ( 3.049370529876909400E-016, 0.0000000000000000000, 2.490000000000000200 ) ) ;
#239 = CIRCLE ( 'NONE', #122, 2.375000000000000000 ) ;
#240 = CARTESIAN_POINT ( 'NONE',  ( 0.0000000000000000000, 19.72000000000000200, 0.0000000000000000000 ) ) ;
#241 = LINE ( 'NONE', #65, #191 ) ;
#242 = ORIENTED_EDGE ( 'NONE', *, *, #215, .T. ) ;
#243 = DIRECTION ( 'NONE',  ( -0.0000000000000000000, -1.000000000000000000, -0.0000000000000000000 ) ) ;
#244 = AXIS2_PLACEMENT_3D ( 'NONE', #198, #342, #352 ) ;
#245 = CIRCLE ( 'NONE', #362, 1.853790199197542300 ) ;
#246 = ORIENTED_EDGE ( 'NONE', *, *, #288, .T. ) ;
#247 = VERTEX_POINT ( 'NONE', #185 ) ;
#248 = DIRECTION ( 'NONE',  ( 0.0000000000000000000, 0.0000000000000000000, -1.000000000000000000 ) ) ;
#249 = CIRCLE ( 'NONE', #56, 2.375000000000000000 ) ;
#250 = AXIS2_PLACEMENT_3D ( 'NONE', #74, #75, #78 ) ;
#251 = DIRECTION ( 'NONE',  ( -0.0000000000000000000, -1.000000000000000000, -0.0000000000000000000 ) ) ;
#252 = CARTESIAN_POINT ( 'NONE',  ( 3.742028833431396800E-016, 5.700000000000000200, 2.490000000000000200 ) ) ;
#253 = EDGE_LOOP ( 'NONE', ( #154, #151 ) ) ;
#254 = DIRECTION ( 'NONE',  ( -0.0000000000000000000, -1.000000000000000000, -0.0000000000000000000 ) ) ;
#255 = SPHERICAL_SURFACE ( 'NONE', #33, 2.375000000000000000 ) ;
#256 = EDGE_CURVE ( 'NONE', #192, #118, #27, .T. ) ;
#257 = DIRECTION ( 'NONE',  ( -0.0000000000000000000, -1.000000000000000000, -0.0000000000000000000 ) ) ;
#258 = CARTESIAN_POINT ( 'NONE',  ( 0.0000000000000000000, 3.375009372771003800, 0.0000000000000000000 ) ) ;
#259 = CYLINDRICAL_SURFACE ( 'NONE', #303, 2.490000000000000200 ) ;
#260 = EDGE_LOOP ( 'NONE', ( #125, #246, #141, #105, #137 ) ) ;
#261 = DIRECTION ( 'NONE',  ( -0.0000000000000000000, -1.000000000000000000, -0.0000000000000000000 ) ) ;
#262 = AXIS2_PLACEMENT_3D ( 'NONE', #367, #254, #320 ) ;
#263 = FILL_AREA_STYLE_COLOUR ( '', #280 ) ;
#264 = DIRECTION ( 'NONE',  ( 0.0000000000000000000, 0.0000000000000000000, -1.000000000000000000 ) ) ;
#265 = CARTESIAN_POINT ( 'NONE',  ( 0.0000000000000000000, 5.700000000000000200, -2.490000000000000200 ) ) ;
#266 = CIRCLE ( 'NONE', #15, 2.490000000000000200 ) ;
#267 = AXIS2_PLACEMENT_3D ( 'NONE', #321, #331, #335 ) ;
#268 = FACE_OUTER_BOUND ( 'NONE', #260, .T. ) ;
#269 = DIRECTION ( 'NONE',  ( -0.0000000000000000000, -1.000000000000000000, -0.0000000000000000000 ) ) ;
#270 = DIRECTION ( 'NONE',  ( 0.0000000000000000000, 0.0000000000000000000, -1.000000000000000000 ) ) ;
#271 = UNCERTAINTY_MEASURE_WITH_UNIT (LENGTH_MEASURE( 1.000000000000000100E-005 ), #103, 'distance_accuracy_value', 'NONE');
#272 = EDGE_CURVE ( 'NONE', #96, #216, #36, .T. ) ;
#273 = AXIS2_PLACEMENT_3D ( 'NONE', #94, #98, #101 ) ;
#274 = DIRECTION ( 'NONE',  ( -0.0000000000000000000, 0.0000000000000000000, 1.000000000000000000 ) ) ;
#275 = CIRCLE ( 'NONE', #79, 1.853790199197542300 ) ;
#276 = ORIENTED_EDGE ( 'NONE', *, *, #24, .T. ) ;
#277 = ORIENTED_EDGE ( 'NONE', *, *, #32, .T. ) ;
#278 = CARTESIAN_POINT ( 'NONE',  ( 0.0000000000000000000, 3.375009372771003800, -3.621196854532659200 ) ) ;
#279 = FACE_OUTER_BOUND ( 'NONE', #223, .T. ) ;
#280 = COLOUR_RGB ( '',0.7921568627450980000, 0.8196078431372548800, 0.9333333333333333500 ) ;
#281 = SURFACE_STYLE_FILL_AREA ( #2 ) ;
#282 = EDGE_CURVE ( 'NONE', #305, #212, #31, .T. ) ;
#283 =( GEOMETRIC_REPRESENTATION_CONTEXT ( 3 ) GLOBAL_UNCERTAINTY_ASSIGNED_CONTEXT ( ( #64 ) ) GLOBAL_UNIT_ASSIGNED_CONTEXT ( ( #350, #358, #361 ) ) REPRESENTATION_CONTEXT ( 'NONE', 'WORKASPACE' ) );
#284 = CARTESIAN_POINT ( 'NONE',  ( 2.489999999999999800, 18.39999999999999900, 0.0000000000000000000 ) ) ;
#285 = DIRECTION ( 'NONE',  ( 0.0000000000000000000, 0.0000000000000000000, -1.000000000000000000 ) ) ;
#286 = PLANE ( 'NONE',  #182 ) ;
#287 = ORIENTED_EDGE ( 'NONE', *, *, #14, .T. ) ;
#288 = EDGE_CURVE ( 'NONE', #212, #153, #22, .T. ) ;
#289 = AXIS2_PLACEMENT_3D ( 'NONE', #115, #116, #121 ) ;
#290 = CIRCLE ( 'NONE', #209, 2.490000000000000200 ) ;
#291 = VERTEX_POINT ( 'NONE', #252 ) ;
#292 = VERTEX_POINT ( 'NONE', #265 ) ;
#293 = CARTESIAN_POINT ( 'NONE',  ( 0.0000000000000000000, 2.875009372771005100, -1.693947368421053500 ) ) ;
#294 = ADVANCED_FACE ( 'NONE', ( #8 ), #13, .T. ) ;
#295 = DIRECTION ( 'NONE',  ( -1.000000000000000000, 0.0000000000000000000, 0.0000000000000000000 ) ) ;
#296 = DIRECTION ( 'NONE',  ( 0.0000000000000000000, 0.0000000000000000000, 1.000000000000000000 ) ) ;
#297 = EDGE_CURVE ( 'NONE', #305, #118, #18, .T. ) ;
#298 = ORIENTED_EDGE ( 'NONE', *, *, #30, .F. ) ;
#299 = AXIS2_PLACEMENT_3D ( 'NONE', #193, #341, #162 ) ;
#300 = CARTESIAN_POINT ( 'NONE',  ( 0.0000000000000000000, 2.375000000000000000, 0.0000000000000000000 ) ) ;
#301 = ORIENTED_EDGE ( 'NONE', *, *, #23, .F. ) ;
#302 = DIRECTION ( 'NONE',  ( 0.0000000000000000000, -1.000000000000000000, -0.0000000000000000000 ) ) ;
#303 = AXIS2_PLACEMENT_3D ( 'NONE', #338, #339, #336 ) ;
#304 = PRESENTATION_STYLE_ASSIGNMENT (( #7 ) ) ;
#305 = VERTEX_POINT ( 'NONE', #278 ) ;
#306 = ADVANCED_FACE ( 'NONE', ( #317, #10 ), #286, .T. ) ;
#307 = DIRECTION ( 'NONE',  ( 0.0000000000000000000, 0.0000000000000000000, -1.000000000000000000 ) ) ;
#308 = DIRECTION ( 'NONE',  ( -0.0000000000000000000, -1.000000000000000000, -0.0000000000000000000 ) ) ;
#309 = EDGE_LOOP ( 'NONE', ( #217, #159, #214, #207 ) ) ;
#310 = FACE_OUTER_BOUND ( 'NONE', #149, .T. ) ;
#311 = AXIS2_PLACEMENT_3D ( 'NONE', #171, #177, #178 ) ;
#312 = CARTESIAN_POINT ( 'NONE',  ( 0.0000000000000000000, 17.48363636363636800, 0.0000000000000000000 ) ) ;
#313 = DIRECTION ( 'NONE',  ( 0.0000000000000000000, 0.0000000000000000000, -1.000000000000000000 ) ) ;
#314 = EDGE_LOOP ( 'NONE', ( #227, #195, #150, #276 ) ) ;
#315 = DIRECTION ( 'NONE',  ( -0.0000000000000000000, -1.000000000000000000, -0.0000000000000000000 ) ) ;
#316 = CARTESIAN_POINT ( 'NONE',  ( 0.0000000000000000000, 3.875009372771005100, 0.0000000000000000000 ) ) ;
#317 = FACE_OUTER_BOUND ( 'NONE', #253, .T. ) ;
#318 = ORIENTED_EDGE ( 'NONE', *, *, #20, .F. ) ;
#319 = DIRECTION ( 'NONE',  ( 1.000000000000000000, 0.0000000000000000000, 0.0000000000000000000 ) ) ;
#320 = DIRECTION ( 'NONE',  ( 0.0000000000000000000, 0.0000000000000000000, -1.000000000000000000 ) ) ;
#321 = CARTESIAN_POINT ( 'NONE',  ( 3.000000000000000000, 19.72000000000000200, 0.0000000000000000000 ) ) ;
#322 = DIRECTION ( 'NONE',  ( -0.0000000000000000000, -1.000000000000000000, -0.0000000000000000000 ) ) ;
#323 = ADVANCED_BREP_SHAPE_REPRESENTATION ( '0BS01-00622MAXG_12_70mm', ( #88, #61 ), #283 ) ;
#324 = PLANE ( 'NONE',  #267 ) ;
#325 = ADVANCED_FACE ( 'NONE', ( #310 ), #220, .T. ) ;
#326 = EDGE_LOOP ( 'NONE', ( #206, #126, #120, #114 ) ) ;
#327 = CARTESIAN_POINT ( 'NONE',  ( 0.0000000000000000000, 0.8903832489968555000, 0.0000000000000000000 ) ) ;
#328 = AXIS2_PLACEMENT_3D ( 'NONE', #148, #155, #156 ) ;
#329 = ORIENTED_EDGE ( 'NONE', *, *, #256, .F. ) ;
#330 = CARTESIAN_POINT ( 'NONE',  ( 0.0000000000000000000, 0.0000000000000000000, 0.0000000000000000000 ) ) ;
#331 = DIRECTION ( 'NONE',  ( 0.0000000000000000000, 1.000000000000000000, 0.0000000000000000000 ) ) ;
#332 = DIRECTION ( 'NONE',  ( -1.224646799147353200E-016, 0.0000000000000000000, -1.000000000000000000 ) ) ;
#333 = EDGE_LOOP ( 'NONE', ( #365, #231, #203, #329, #318 ) ) ;
#334 = STYLED_ITEM ( 'NONE', ( #211 ), #323 ) ;
#335 = DIRECTION ( 'NONE',  ( 0.0000000000000000000, -0.0000000000000000000, 1.000000000000000000 ) ) ;
#336 = DIRECTION ( 'NONE',  ( 0.0000000000000000000, 0.0000000000000000000, -1.000000000000000000 ) ) ;
#337 = PRODUCT_DEFINITION_CONTEXT ( 'detailed design', #6, 'design' ) ;
#338 = CARTESIAN_POINT ( 'NONE',  ( 0.0000000000000000000, 0.0000000000000000000, 0.0000000000000000000 ) ) ;
#339 = DIRECTION ( 'NONE',  ( -0.0000000000000000000, -1.000000000000000000, -0.0000000000000000000 ) ) ;
#340 = AXIS2_PLACEMENT_3D ( 'NONE', #102, #130, #113 ) ;
#341 = DIRECTION ( 'NONE',  ( -0.0000000000000000000, -1.000000000000000000, -0.0000000000000000000 ) ) ;
#342 = DIRECTION ( 'NONE',  ( -0.0000000000000000000, -0.0000000000000000000, -1.000000000000000000 ) ) ;
#343 = DIRECTION ( 'NONE',  ( 1.000000000000000000, 0.0000000000000000000, -1.224646799147353200E-016 ) ) ;
#344 = ADVANCED_FACE ( 'NONE', ( #279 ), #82, .T. ) ;
#345 = PRESENTATION_LAYER_ASSIGNMENT (  '', '', ( #334 ) ) ;
#346 = ADVANCED_FACE ( 'NONE', ( #26 ), #324, .T. ) ;
#347 = DIRECTION ( 'NONE',  ( 1.000000000000000000, 0.0000000000000000000, 0.0000000000000000000 ) ) ;
#348 = PRODUCT_CONTEXT ( 'NONE', #124, 'mechanical' ) ;
#349 = AXIS2_PLACEMENT_3D ( 'NONE', #189, #194, #197 ) ;
#350 =( LENGTH_UNIT ( ) NAMED_UNIT ( * ) SI_UNIT ( .MILLI., .METRE. ) );
#351 = DIRECTION ( 'NONE',  ( 0.0000000000000000000, 0.0000000000000000000, -1.000000000000000000 ) ) ;
#352 = DIRECTION ( 'NONE',  ( -1.000000000000000000, 0.0000000000000000000, 0.0000000000000000000 ) ) ;
#353 = CARTESIAN_POINT ( 'NONE',  ( 2.074487222660925400E-016, 2.875009372771005100, 1.693947368421053500 ) ) ;
#354 = AXIS2_PLACEMENT_3D ( 'NONE', #107, #133, #199 ) ;
#355 = DIRECTION ( 'NONE',  ( -0.0000000000000000000, -1.000000000000000000, -0.0000000000000000000 ) ) ;
#356 = FILL_AREA_STYLE_COLOUR ( '', #143 ) ;
#357 = ORIENTED_EDGE ( 'NONE', *, *, #99, .F. ) ;
#358 =( NAMED_UNIT ( * ) PLANE_ANGLE_UNIT ( ) SI_UNIT ( $, .RADIAN. ) );
#359 = MECHANICAL_DESIGN_GEOMETRIC_PRESENTATION_REPRESENTATION (  '', ( #334 ), #371 ) ;
#360 = ADVANCED_FACE ( 'NONE', ( #123 ), #259, .T. ) ;
#361 =( NAMED_UNIT ( * ) SI_UNIT ( $, .STERADIAN. ) SOLID_ANGLE_UNIT ( ) );
#362 = AXIS2_PLACEMENT_3D ( 'NONE', #71, #77, #285 ) ;
#363 = SPHERICAL_SURFACE ( 'NONE', #244, 2.375000000000000000 ) ;
#364 = ADVANCED_FACE ( 'NONE', ( #111 ), #363, .T. ) ;
#365 = ORIENTED_EDGE ( 'NONE', *, *, #288, .F. ) ;
#366 = AXIS2_PLACEMENT_3D ( 'NONE', #218, #219, #222 ) ;
#367 = CARTESIAN_POINT ( 'NONE',  ( 0.0000000000000000000, 3.875009372771005100, 0.0000000000000000000 ) ) ;
#368 = AXIS2_PLACEMENT_3D ( 'NONE', #164, #95, #139 ) ;
#369 = DIRECTION ( 'NONE',  ( 0.0000000000000000000, 0.0000000000000000000, 1.000000000000000000 ) ) ;
#370 = ORIENTED_EDGE ( 'NONE', *, *, #117, .T. ) ;
#371 =( GEOMETRIC_REPRESENTATION_CONTEXT ( 3 ) GLOBAL_UNCERTAINTY_ASSIGNED_CONTEXT ( ( #271 ) ) GLOBAL_UNIT_ASSIGNED_CONTEXT ( ( #103, #21, #3 ) ) REPRESENTATION_CONTEXT ( 'NONE', 'WORKASPACE' ) );
#372 = APPLICATION_PROTOCOL_DEFINITION ( 'draft international standard', 'automotive_design', 1998, #124 ) ;
ENDSEC;
END-ISO-10303-21;
