ISO-10303-21;
HEADER;
FILE_DESCRIPTION (( 'STEP AP214' ),
    '1' );
FILE_NAME ('0BS01-00622.STEP',
    '2016-04-05T11:29:17',
    ( '' ),
    ( '' ),
    'SwSTEP 2.0',
    'SolidWorks 2015',
    '' );
FILE_SCHEMA (( 'AUTOMOTIVE_DESIGN' ));
ENDSEC;

DATA;
#1 = AXIS2_PLACEMENT_3D ( 'NONE', #25, #27, #19 ) ;
#2 = SURFACE_STYLE_FILL_AREA ( #287 ) ;
#3 = CARTESIAN_POINT ( 'NONE',  ( 2.908536147974963700E-016, 0.0000000000000000000, 2.375000000000000000 ) ) ;
#4 = CARTESIAN_POINT ( 'NONE',  ( 2.296212748401285000E-016, 0.0000000000000000000, -1.374999999999996700 ) ) ;
#5 = ORIENTED_EDGE ( 'NONE', *, *, #324, .F. ) ;
#6 = ORIENTED_EDGE ( 'NONE', *, *, #217, .F. ) ;
#7 = VERTEX_POINT ( 'NONE', #97 ) ;
#8 = ORIENTED_EDGE ( 'NONE', *, *, #384, .F. ) ;
#9 = DIRECTION ( 'NONE',  ( 0.0000000000000000000, 0.0000000000000000000, -1.000000000000000000 ) ) ;
#10 = AXIS2_PLACEMENT_3D ( 'NONE', #191, #125, #98 ) ;
#11 = VERTEX_POINT ( 'NONE', #222 ) ;
#12 = ORIENTED_EDGE ( 'NONE', *, *, #234, .T. ) ;
#13 = VECTOR ( 'NONE', #146, 1000.000000000000000 ) ;
#14 = AXIS2_PLACEMENT_3D ( 'NONE', #320, #301, #325 ) ;
#15 = FILL_AREA_STYLE_COLOUR ( '', #57 ) ;
#16 = AXIS2_PLACEMENT_3D ( 'NONE', #327, #339, #343 ) ;
#17 = DIRECTION ( 'NONE',  ( 0.0000000000000000000, 0.0000000000000000000, -1.000000000000000000 ) ) ;
#18 = AXIS2_PLACEMENT_3D ( 'NONE', #303, #307, #308 ) ;
#19 = DIRECTION ( 'NONE',  ( 0.0000000000000000000, 0.0000000000000000000, -1.000000000000000000 ) ) ;
#20 = CARTESIAN_POINT ( 'NONE',  ( 0.0000000000000000000, 53.36999999999999700, 0.0000000000000000000 ) ) ;
#21 = DIRECTION ( 'NONE',  ( -0.0000000000000000000, -1.000000000000000000, -0.0000000000000000000 ) ) ;
#22 = EDGE_LOOP ( 'NONE', ( #195, #279, #81, #205 ) ) ;
#23 = EDGE_LOOP ( 'NONE', ( #214, #173, #164, #136 ) ) ;
#24 = DIRECTION ( 'NONE',  ( 0.0000000000000000000, 0.0000000000000000000, -1.000000000000000000 ) ) ;
#25 = CARTESIAN_POINT ( 'NONE',  ( 0.0000000000000000000, 53.36999999999999700, 0.0000000000000000000 ) ) ;
#26 = PLANE ( 'NONE',  #161 ) ;
#27 = DIRECTION ( 'NONE',  ( -0.0000000000000000000, -1.000000000000000000, -0.0000000000000000000 ) ) ;
#28 = PRODUCT_DEFINITION_CONTEXT ( 'detailed design', #295, 'design' ) ;
#29 = DIRECTION ( 'NONE',  ( 0.0000000000000000000, 1.000000000000000000, 0.0000000000000000000 ) ) ;
#30 = CARTESIAN_POINT ( 'NONE',  ( 0.8499999999999999800, 53.36999999999999700, 0.0000000000000000000 ) ) ;
#31 = DIRECTION ( 'NONE',  ( 0.0000000000000000000, -0.0000000000000000000, 1.000000000000000000 ) ) ;
#32 = DIRECTION ( 'NONE',  ( -0.0000000000000000000, -1.000000000000000000, -0.0000000000000000000 ) ) ;
#33 = DIRECTION ( 'NONE',  ( -0.0000000000000000000, -1.000000000000000000, -0.0000000000000000000 ) ) ;
#34 = AXIS2_PLACEMENT_3D ( 'NONE', #269, #270, #293 ) ;
#35 = FILL_AREA_STYLE ('',( #50 ) ) ;
#36 = CARTESIAN_POINT ( 'NONE',  ( 0.0000000000000000000, 0.0000000000000000000, 0.0000000000000000000 ) ) ;
#37 = ORIENTED_EDGE ( 'NONE', *, *, #349, .T. ) ;
#38 = VECTOR ( 'NONE', #85, 1000.000000000000000 ) ;
#39 = EDGE_CURVE ( 'NONE', #388, #271, #314, .T. ) ;
#40 = LINE ( 'NONE', #168, #38 ) ;
#41 = CIRCLE ( 'NONE', #267, 1.524999999999999900 ) ;
#42 = DIRECTION ( 'NONE',  ( -0.0000000000000000000, -1.000000000000000000, -0.0000000000000000000 ) ) ;
#43 = ORIENTED_EDGE ( 'NONE', *, *, #268, .T. ) ;
#44 = EDGE_CURVE ( 'NONE', #7, #241, #381, .T. ) ;
#45 = ADVANCED_FACE ( 'NONE', ( #318 ), #26, .T. ) ;
#46 = CIRCLE ( 'NONE', #277, 2.816376830485884500 ) ;
#47 = CARTESIAN_POINT ( 'NONE',  ( 0.0000000000000000000, 0.0000000000000000000, 1.374999999999996700 ) ) ;
#48 = CYLINDRICAL_SURFACE ( 'NONE', #283, 2.375000000000000000 ) ;
#49 = AXIS2_PLACEMENT_3D ( 'NONE', #334, #184, #192 ) ;
#50 = FILL_AREA_STYLE_COLOUR ( '', #319 ) ;
#51 = CARTESIAN_POINT ( 'NONE',  ( 1.867586368699713600E-016, 21.62000000000000100, 1.524999999999999900 ) ) ;
#52 = AXIS2_PLACEMENT_3D ( 'NONE', #256, #258, #263 ) ;
#53 = FACE_OUTER_BOUND ( 'NONE', #219, .T. ) ;
#54 = CARTESIAN_POINT ( 'NONE',  ( 0.0000000000000000000, 21.62000000000000100, -2.816376830485884500 ) ) ;
#55 = CONICAL_SURFACE ( 'NONE', #341, 1.374999999999996700, 0.7853981633974498300 ) ;
#56 = FACE_OUTER_BOUND ( 'NONE', #306, .T. ) ;
#57 = COLOUR_RGB ( '',0.7921568627450980000, 0.8196078431372548800, 0.9333333333333333500 ) ;
#58 = CIRCLE ( 'NONE', #311, 5.040000000000000000 ) ;
#59 = CONICAL_SURFACE ( 'NONE', #370, 1.374999999999996700, 0.7853981633974498300 ) ;
#60 = SURFACE_SIDE_STYLE ('',( #322 ) ) ;
#61 = SURFACE_STYLE_USAGE ( .BOTH. , #60 ) ;
#62 =( LENGTH_UNIT ( ) NAMED_UNIT ( * ) SI_UNIT ( .MILLI., .METRE. ) );
#63 = CYLINDRICAL_SURFACE ( 'NONE', #285, 2.375000000000000000 ) ;
#64 = FACE_OUTER_BOUND ( 'NONE', #22, .T. ) ;
#65 = DIRECTION ( 'NONE',  ( -0.0000000000000000000, -1.000000000000000000, -0.0000000000000000000 ) ) ;
#66 =( NAMED_UNIT ( * ) PLANE_ANGLE_UNIT ( ) SI_UNIT ( $, .RADIAN. ) );
#67 = UNCERTAINTY_MEASURE_WITH_UNIT (LENGTH_MEASURE( 1.000000000000000100E-005 ), #86, 'distance_accuracy_value', 'NONE');
#68 = TOROIDAL_SURFACE ( 'NONE', #302, 2.816376830485884500, 2.370000000000000600 ) ;
#69 = FACE_OUTER_BOUND ( 'NONE', #23, .T. ) ;
#70 = CONICAL_SURFACE ( 'NONE', #401, 1.524999999999999900, 0.3926990816987172000 ) ;
#71 = CIRCLE ( 'NONE', #393, 2.370000000000000600 ) ;
#72 = FACE_OUTER_BOUND ( 'NONE', #296, .T. ) ;
#73 = ORIENTED_EDGE ( 'NONE', *, *, #268, .F. ) ;
#74 = FACE_BOUND ( 'NONE', #225, .T. ) ;
#75 = FACE_OUTER_BOUND ( 'NONE', #122, .T. ) ;
#76 = AXIS2_PLACEMENT_3D ( 'NONE', #174, #178, #182 ) ;
#77 = FACE_OUTER_BOUND ( 'NONE', #226, .T. ) ;
#78 = ADVANCED_BREP_SHAPE_REPRESENTATION ( '0BS01-00622', ( #183, #94 ), #253 ) ;
#79 =( NAMED_UNIT ( * ) SI_UNIT ( $, .STERADIAN. ) SOLID_ANGLE_UNIT ( ) );
#80 = CARTESIAN_POINT ( 'NONE',  ( 0.0000000000000000000, 51.74040584539812900, 0.0000000000000000000 ) ) ;
#81 = ORIENTED_EDGE ( 'NONE', *, *, #210, .F. ) ;
#82 = FACE_BOUND ( 'NONE', #310, .T. ) ;
#83 = FACE_OUTER_BOUND ( 'NONE', #312, .T. ) ;
#84 = AXIS2_PLACEMENT_3D ( 'NONE', #115, #106, #126 ) ;
#85 = DIRECTION ( 'NONE',  ( 0.0000000000000000000, -0.9238795325112894000, -0.3826834323650833400 ) ) ;
#86 =( LENGTH_UNIT ( ) NAMED_UNIT ( * ) SI_UNIT ( .MILLI., .METRE. ) );
#87 = CIRCLE ( 'NONE', #317, 2.816376830485884500 ) ;
#88 = FACE_OUTER_BOUND ( 'NONE', #239, .T. ) ;
#89 = ORIENTED_EDGE ( 'NONE', *, *, #351, .T. ) ;
#90 = TOROIDAL_SURFACE ( 'NONE', #154, 2.816376830485884500, 2.370000000000000600 ) ;
#91 = AXIS2_PLACEMENT_3D ( 'NONE', #147, #150, #152 ) ;
#92 = CARTESIAN_POINT ( 'NONE',  ( 0.0000000000000000000, 21.62000000000000100, 0.0000000000000000000 ) ) ;
#93 = DIRECTION ( 'NONE',  ( 0.0000000000000000000, 0.0000000000000000000, -1.000000000000000000 ) ) ;
#94 = AXIS2_PLACEMENT_3D ( 'NONE', #209, #250, #254 ) ;
#95 = DIRECTION ( 'NONE',  ( 0.0000000000000000000, 0.7071067811865464600, 0.7071067811865486800 ) ) ;
#96 = CIRCLE ( 'NONE', #1, 0.8499999999999999800 ) ;
#97 = CARTESIAN_POINT ( 'NONE',  ( 2.908536147974963700E-016, 20.07000000000000000, 2.375000000000000000 ) ) ;
#98 = DIRECTION ( 'NONE',  ( 0.0000000000000000000, 0.0000000000000000000, -1.000000000000000000 ) ) ;
#99 = DIRECTION ( 'NONE',  ( -1.224646799147353200E-016, 0.0000000000000000000, -1.000000000000000000 ) ) ;
#100 = VECTOR ( 'NONE', #382, 1000.000000000000000 ) ;
#101 = DIRECTION ( 'NONE',  ( 0.0000000000000000000, 0.0000000000000000000, -1.000000000000000000 ) ) ;
#102 = FACE_OUTER_BOUND ( 'NONE', #304, .T. ) ;
#103 = LINE ( 'NONE', #354, #100 ) ;
#104 = CONICAL_SURFACE ( 'NONE', #14, 1.524999999999999900, 0.3926990816987172000 ) ;
#105 = AXIS2_PLACEMENT_3D ( 'NONE', #155, #157, #166 ) ;
#106 = DIRECTION ( 'NONE',  ( -0.0000000000000000000, -1.000000000000000000, -0.0000000000000000000 ) ) ;
#107 = PRODUCT_DEFINITION_SHAPE ( 'NONE', 'NONE',  #262 ) ;
#108 = AXIS2_PLACEMENT_3D ( 'NONE', #127, #129, #130 ) ;
#109 = ADVANCED_FACE ( 'NONE', ( #321 ), #331, .T. ) ;
#110 = CIRCLE ( 'NONE', #10, 1.374999999999996700 ) ;
#111 = LINE ( 'NONE', #352, #165 ) ;
#112 = LINE ( 'NONE', #47, #344 ) ;
#113 = APPLICATION_PROTOCOL_DEFINITION ( 'draft international standard', 'automotive_design', 1998, #140 ) ;
#114 = CARTESIAN_POINT ( 'NONE',  ( 0.0000000000000000000, 20.07000000000000000, 0.0000000000000000000 ) ) ;
#115 = CARTESIAN_POINT ( 'NONE',  ( 0.0000000000000000000, 0.0000000000000000000, 0.0000000000000000000 ) ) ;
#116 = PRODUCT ( '0BS01-00622', '0BS01-00622', '', ( #286 ) ) ;
#117 = CIRCLE ( 'NONE', #18, 1.524999999999999900 ) ;
#118 = ORIENTED_EDGE ( 'NONE', *, *, #234, .F. ) ;
#119 = CARTESIAN_POINT ( 'NONE',  ( 0.0000000000000000000, 20.07000000000000000, 0.0000000000000000000 ) ) ;
#120 = AXIS2_PLACEMENT_3D ( 'NONE', #119, #121, #145 ) ;
#121 = DIRECTION ( 'NONE',  ( -0.0000000000000000000, -1.000000000000000000, -0.0000000000000000000 ) ) ;
#122 = EDGE_LOOP ( 'NONE', ( #134, #289 ) ) ;
#123 = UNCERTAINTY_MEASURE_WITH_UNIT (LENGTH_MEASURE( 1.000000000000000100E-005 ), #62, 'distance_accuracy_value', 'NONE');
#124 =( GEOMETRIC_REPRESENTATION_CONTEXT ( 3 ) GLOBAL_UNCERTAINTY_ASSIGNED_CONTEXT ( ( #123 ) ) GLOBAL_UNIT_ASSIGNED_CONTEXT ( ( #62, #66, #79 ) ) REPRESENTATION_CONTEXT ( 'NONE', 'WORKASPACE' ) );
#125 = DIRECTION ( 'NONE',  ( -0.0000000000000000000, -1.000000000000000000, -0.0000000000000000000 ) ) ;
#126 = DIRECTION ( 'NONE',  ( 0.0000000000000000000, 0.0000000000000000000, -1.000000000000000000 ) ) ;
#127 = CARTESIAN_POINT ( 'NONE',  ( 0.0000000000000000000, 51.74040584539812900, 0.0000000000000000000 ) ) ;
#128 = PRESENTATION_STYLE_ASSIGNMENT (( #176 ) ) ;
#129 = DIRECTION ( 'NONE',  ( -0.0000000000000000000, -1.000000000000000000, -0.0000000000000000000 ) ) ;
#130 = DIRECTION ( 'NONE',  ( 0.0000000000000000000, 0.0000000000000000000, -1.000000000000000000 ) ) ;
#131 = PLANE ( 'NONE',  #49 ) ;
#132 = ORIENTED_EDGE ( 'NONE', *, *, #44, .F. ) ;
#133 = CARTESIAN_POINT ( 'NONE',  ( 4.810643369174983800E-016, 21.62000000000000100, 2.816376830485884500 ) ) ;
#134 = ORIENTED_EDGE ( 'NONE', *, *, #193, .T. ) ;
#135 = CIRCLE ( 'NONE', #105, 2.375000000000000000 ) ;
#136 = ORIENTED_EDGE ( 'NONE', *, *, #187, .F. ) ;
#137 = EDGE_LOOP ( 'NONE', ( #260, #5 ) ) ;
#138 = CIRCLE ( 'NONE', #34, 2.375000000000000000 ) ;
#139 = CARTESIAN_POINT ( 'NONE',  ( 1.867586368699713600E-016, 51.74040584539812900, 1.524999999999999900 ) ) ;
#140 = APPLICATION_CONTEXT ( 'automotive_design' ) ;
#141 = LINE ( 'NONE', #142, #13 ) ;
#142 = CARTESIAN_POINT ( 'NONE',  ( 0.0000000000000000000, 0.0000000000000000000, -1.524999999999999900 ) ) ;
#143 = CARTESIAN_POINT ( 'NONE',  ( 0.0000000000000000000, 21.62000000000000100, -1.524999999999999900 ) ) ;
#144 = CLOSED_SHELL ( 'NONE', ( #356, #201, #347, #376, #374, #240, #363, #378, #359, #379, #364, #109, #278, #45 ) ) ;
#145 = DIRECTION ( 'NONE',  ( 0.0000000000000000000, 0.0000000000000000000, -1.000000000000000000 ) ) ;
#146 = DIRECTION ( 'NONE',  ( -0.0000000000000000000, -1.000000000000000000, -0.0000000000000000000 ) ) ;
#147 = CARTESIAN_POINT ( 'NONE',  ( 0.0000000000000000000, 21.62000000000000100, 0.0000000000000000000 ) ) ;
#148 = CIRCLE ( 'NONE', #16, 2.375000000000000000 ) ;
#149 = MECHANICAL_DESIGN_GEOMETRIC_PRESENTATION_REPRESENTATION (  '', ( #159 ), #124 ) ;
#150 = DIRECTION ( 'NONE',  ( -0.0000000000000000000, -1.000000000000000000, -0.0000000000000000000 ) ) ;
#151 = AXIS2_PLACEMENT_3D ( 'NONE', #36, #32, #9 ) ;
#152 = DIRECTION ( 'NONE',  ( 0.0000000000000000000, 0.0000000000000000000, -1.000000000000000000 ) ) ;
#153 = DIRECTION ( 'NONE',  ( -0.0000000000000000000, -1.000000000000000000, -0.0000000000000000000 ) ) ;
#154 = AXIS2_PLACEMENT_3D ( 'NONE', #367, #402, #93 ) ;
#155 = CARTESIAN_POINT ( 'NONE',  ( 0.0000000000000000000, 1.000000000000000200, 0.0000000000000000000 ) ) ;
#156 = CIRCLE ( 'NONE', #76, 2.370000000000000600 ) ;
#157 = DIRECTION ( 'NONE',  ( -0.0000000000000000000, -1.000000000000000000, -0.0000000000000000000 ) ) ;
#158 = ORIENTED_EDGE ( 'NONE', *, *, #199, .T. ) ;
#159 = STYLED_ITEM ( 'NONE', ( #323 ), #183 ) ;
#160 = DIRECTION ( 'NONE',  ( 0.0000000000000000000, 0.0000000000000000000, -1.000000000000000000 ) ) ;
#161 = AXIS2_PLACEMENT_3D ( 'NONE', #30, #29, #31 ) ;
#162 = ORIENTED_EDGE ( 'NONE', *, *, #298, .T. ) ;
#163 = PRESENTATION_LAYER_ASSIGNMENT (  '', '', ( #159 ) ) ;
#164 = ORIENTED_EDGE ( 'NONE', *, *, #210, .T. ) ;
#165 = VECTOR ( 'NONE', #309, 1000.000000000000000 ) ;
#166 = DIRECTION ( 'NONE',  ( 0.0000000000000000000, 0.0000000000000000000, -1.000000000000000000 ) ) ;
#167 = ORIENTED_EDGE ( 'NONE', *, *, #203, .F. ) ;
#168 = CARTESIAN_POINT ( 'NONE',  ( 0.0000000000000000000, 51.74040584539812900, -1.524999999999999900 ) ) ;
#169 = AXIS2_PLACEMENT_3D ( 'NONE', #333, #33, #218 ) ;
#170 = SURFACE_SIDE_STYLE ('',( #2 ) ) ;
#171 = AXIS2_PLACEMENT_3D ( 'NONE', #20, #21, #24 ) ;
#172 = CARTESIAN_POINT ( 'NONE',  ( 0.0000000000000000000, 1.000000000000000200, 2.375000000000000000 ) ) ;
#173 = ORIENTED_EDGE ( 'NONE', *, *, #300, .T. ) ;
#174 = CARTESIAN_POINT ( 'NONE',  ( 0.0000000000000000000, 19.25000000000000000, -2.816376830485884500 ) ) ;
#175 = DIRECTION ( 'NONE',  ( 0.0000000000000000000, 0.0000000000000000000, -1.000000000000000000 ) ) ;
#176 = SURFACE_STYLE_USAGE ( .BOTH. , #170 ) ;
#177 =( GEOMETRIC_REPRESENTATION_CONTEXT ( 3 ) GLOBAL_UNCERTAINTY_ASSIGNED_CONTEXT ( ( #350 ) ) GLOBAL_UNIT_ASSIGNED_CONTEXT ( ( #207, #212, #213 ) ) REPRESENTATION_CONTEXT ( 'NONE', 'WORKASPACE' ) );
#178 = DIRECTION ( 'NONE',  ( -1.000000000000000000, 0.0000000000000000000, 0.0000000000000000000 ) ) ;
#179 = CARTESIAN_POINT ( 'NONE',  ( 0.0000000000000000000, 20.07000000000000000, -2.375000000000000000 ) ) ;
#180 = ORIENTED_EDGE ( 'NONE', *, *, #300, .F. ) ;
#181 = ORIENTED_EDGE ( 'NONE', *, *, #246, .T. ) ;
#182 = DIRECTION ( 'NONE',  ( 0.0000000000000000000, 0.0000000000000000000, 1.000000000000000000 ) ) ;
#183 = MANIFOLD_SOLID_BREP ( 'Revolve1', #144 ) ;
#184 = DIRECTION ( 'NONE',  ( 0.0000000000000000000, -1.000000000000000000, -0.0000000000000000000 ) ) ;
#185 = PLANE ( 'NONE',  #365 ) ;
#186 = SHAPE_DEFINITION_REPRESENTATION ( #107, #78 ) ;
#187 = EDGE_CURVE ( 'NONE', #220, #241, #112, .T. ) ;
#188 = CARTESIAN_POINT ( 'NONE',  ( 0.0000000000000000000, 51.74040584539812900, 0.0000000000000000000 ) ) ;
#189 = VERTEX_POINT ( 'NONE', #54 ) ;
#190 = MECHANICAL_DESIGN_GEOMETRIC_PRESENTATION_REPRESENTATION (  '', ( #211 ), #177 ) ;
#191 = CARTESIAN_POINT ( 'NONE',  ( 0.0000000000000000000, 0.0000000000000000000, 0.0000000000000000000 ) ) ;
#192 = DIRECTION ( 'NONE',  ( 0.0000000000000000000, 0.0000000000000000000, -1.000000000000000000 ) ) ;
#193 = EDGE_CURVE ( 'NONE', #245, #294, #348, .T. ) ;
#194 = EDGE_LOOP ( 'NONE', ( #251, #229, #257, #261 ) ) ;
#195 = ORIENTED_EDGE ( 'NONE', *, *, #248, .T. ) ;
#196 = VERTEX_POINT ( 'NONE', #51 ) ;
#197 = ORIENTED_EDGE ( 'NONE', *, *, #187, .T. ) ;
#198 = ORIENTED_EDGE ( 'NONE', *, *, #284, .F. ) ;
#199 = EDGE_CURVE ( 'NONE', #11, #208, #332, .T. ) ;
#200 = PRESENTATION_LAYER_ASSIGNMENT (  '', '', ( #211 ) ) ;
#201 = ADVANCED_FACE ( 'NONE', ( #102 ), #338, .T. ) ;
#202 = VERTEX_POINT ( 'NONE', #133 ) ;
#203 = EDGE_CURVE ( 'NONE', #394, #196, #362, .T. ) ;
#204 = DIRECTION ( 'NONE',  ( 0.0000000000000000000, 0.0000000000000000000, -1.000000000000000000 ) ) ;
#205 = ORIENTED_EDGE ( 'NONE', *, *, #265, .F. ) ;
#206 = ORIENTED_EDGE ( 'NONE', *, *, #248, .F. ) ;
#207 =( LENGTH_UNIT ( ) NAMED_UNIT ( * ) SI_UNIT ( .MILLI., .METRE. ) );
#208 = VERTEX_POINT ( 'NONE', #139 ) ;
#209 = CARTESIAN_POINT ( 'NONE',  ( 0.0000000000000000000, 0.0000000000000000000, 0.0000000000000000000 ) ) ;
#210 = EDGE_CURVE ( 'NONE', #280, #241, #135, .T. ) ;
#211 = STYLED_ITEM ( 'NONE', ( #128 ), #78 ) ;
#212 =( NAMED_UNIT ( * ) PLANE_ANGLE_UNIT ( ) SI_UNIT ( $, .RADIAN. ) );
#213 =( NAMED_UNIT ( * ) SI_UNIT ( $, .STERADIAN. ) SOLID_ANGLE_UNIT ( ) );
#214 = ORIENTED_EDGE ( 'NONE', *, *, #246, .F. ) ;
#215 = ORIENTED_EDGE ( 'NONE', *, *, #351, .F. ) ;
#216 = DIRECTION ( 'NONE',  ( 0.0000000000000000000, 0.0000000000000000000, -1.000000000000000000 ) ) ;
#217 = EDGE_CURVE ( 'NONE', #11, #394, #141, .T. ) ;
#218 = DIRECTION ( 'NONE',  ( 0.0000000000000000000, 0.0000000000000000000, -1.000000000000000000 ) ) ;
#219 = EDGE_LOOP ( 'NONE', ( #132, #89, #346, #73 ) ) ;
#220 = VERTEX_POINT ( 'NONE', #372 ) ;
#221 = ORIENTED_EDGE ( 'NONE', *, *, #357, .F. ) ;
#222 = CARTESIAN_POINT ( 'NONE',  ( 0.0000000000000000000, 51.74040584539812900, -1.524999999999999900 ) ) ;
#223 = DIRECTION ( 'NONE',  ( 0.0000000000000000000, -1.000000000000000000, -0.0000000000000000000 ) ) ;
#224 = ORIENTED_EDGE ( 'NONE', *, *, #199, .F. ) ;
#225 = EDGE_LOOP ( 'NONE', ( #206, #215 ) ) ;
#226 = EDGE_LOOP ( 'NONE', ( #235, #237 ) ) ;
#227 = ORIENTED_EDGE ( 'NONE', *, *, #385, .T. ) ;
#228 = CARTESIAN_POINT ( 'NONE',  ( 0.0000000000000000000, 20.07000000000000000, -5.040000000000000000 ) ) ;
#229 = ORIENTED_EDGE ( 'NONE', *, *, #324, .T. ) ;
#230 = CARTESIAN_POINT ( 'NONE',  ( 0.0000000000000000000, 0.0000000000000000000, -2.375000000000000000 ) ) ;
#231 = DIRECTION ( 'NONE',  ( 0.0000000000000000000, 0.0000000000000000000, 1.000000000000000000 ) ) ;
#232 = ORIENTED_EDGE ( 'NONE', *, *, #357, .T. ) ;
#233 = ORIENTED_EDGE ( 'NONE', *, *, #203, .T. ) ;
#234 = EDGE_CURVE ( 'NONE', #189, #245, #156, .T. ) ;
#235 = ORIENTED_EDGE ( 'NONE', *, *, #349, .F. ) ;
#236 = ORIENTED_EDGE ( 'NONE', *, *, #298, .F. ) ;
#237 = ORIENTED_EDGE ( 'NONE', *, *, #385, .F. ) ;
#238 = ORIENTED_EDGE ( 'NONE', *, *, #255, .T. ) ;
#239 = EDGE_LOOP ( 'NONE', ( #37, #232, #275, #118 ) ) ;
#240 = ADVANCED_FACE ( 'NONE', ( #335 ), #131, .T. ) ;
#241 = VERTEX_POINT ( 'NONE', #172 ) ;
#242 = DIRECTION ( 'NONE',  ( -0.0000000000000000000, -1.000000000000000000, -0.0000000000000000000 ) ) ;
#243 = ORIENTED_EDGE ( 'NONE', *, *, #217, .T. ) ;
#244 = ORIENTED_EDGE ( 'NONE', *, *, #255, .F. ) ;
#245 = VERTEX_POINT ( 'NONE', #228 ) ;
#246 = EDGE_CURVE ( 'NONE', #336, #220, #380, .T. ) ;
#247 =( NAMED_UNIT ( * ) SI_UNIT ( $, .STERADIAN. ) SOLID_ANGLE_UNIT ( ) );
#248 = EDGE_CURVE ( 'NONE', #377, #7, #138, .T. ) ;
#249 = DIRECTION ( 'NONE',  ( 0.0000000000000000000, 0.0000000000000000000, -1.000000000000000000 ) ) ;
#250 = DIRECTION ( 'NONE',  ( 0.0000000000000000000, 0.0000000000000000000, 1.000000000000000000 ) ) ;
#251 = ORIENTED_EDGE ( 'NONE', *, *, #281, .F. ) ;
#252 = ORIENTED_EDGE ( 'NONE', *, *, #284, .T. ) ;
#253 =( GEOMETRIC_REPRESENTATION_CONTEXT ( 3 ) GLOBAL_UNCERTAINTY_ASSIGNED_CONTEXT ( ( #67 ) ) GLOBAL_UNIT_ASSIGNED_CONTEXT ( ( #86, #291, #247 ) ) REPRESENTATION_CONTEXT ( 'NONE', 'WORKASPACE' ) );
#254 = DIRECTION ( 'NONE',  ( 1.000000000000000000, 0.0000000000000000000, 0.0000000000000000000 ) ) ;
#255 = EDGE_CURVE ( 'NONE', #196, #394, #117, .T. ) ;
#256 = CARTESIAN_POINT ( 'NONE',  ( 0.0000000000000000000, 0.0000000000000000000, 0.0000000000000000000 ) ) ;
#257 = ORIENTED_EDGE ( 'NONE', *, *, #389, .T. ) ;
#258 = DIRECTION ( 'NONE',  ( -0.0000000000000000000, -1.000000000000000000, -0.0000000000000000000 ) ) ;
#259 = ORIENTED_EDGE ( 'NONE', *, *, #39, .T. ) ;
#260 = ORIENTED_EDGE ( 'NONE', *, *, #39, .F. ) ;
#261 = ORIENTED_EDGE ( 'NONE', *, *, #392, .F. ) ;
#262 = PRODUCT_DEFINITION ( 'UNKNOWN', '', #390, #28 ) ;
#263 = DIRECTION ( 'NONE',  ( 0.0000000000000000000, 0.0000000000000000000, -1.000000000000000000 ) ) ;
#264 = DIRECTION ( 'NONE',  ( 0.0000000000000000000, 1.000000000000000000, 0.0000000000000000000 ) ) ;
#265 = EDGE_CURVE ( 'NONE', #377, #280, #398, .T. ) ;
#266 = DIRECTION ( 'NONE',  ( -0.0000000000000000000, -1.000000000000000000, -0.0000000000000000000 ) ) ;
#267 = AXIS2_PLACEMENT_3D ( 'NONE', #80, #375, #216 ) ;
#268 = EDGE_CURVE ( 'NONE', #241, #280, #148, .T. ) ;
#269 = CARTESIAN_POINT ( 'NONE',  ( 0.0000000000000000000, 20.07000000000000000, 0.0000000000000000000 ) ) ;
#270 = DIRECTION ( 'NONE',  ( -0.0000000000000000000, -1.000000000000000000, -0.0000000000000000000 ) ) ;
#271 = VERTEX_POINT ( 'NONE', #313 ) ;
#272 = EDGE_LOOP ( 'NONE', ( #252, #181 ) ) ;
#273 = CIRCLE ( 'NONE', #169, 2.375000000000000000 ) ;
#274 = CARTESIAN_POINT ( 'NONE',  ( 1.524999999999999900, 21.62000000000000100, 0.0000000000000000000 ) ) ;
#275 = ORIENTED_EDGE ( 'NONE', *, *, #193, .F. ) ;
#276 = DIRECTION ( 'NONE',  ( 0.0000000000000000000, 1.000000000000000000, 0.0000000000000000000 ) ) ;
#277 = AXIS2_PLACEMENT_3D ( 'NONE', #373, #397, #175 ) ;
#278 = ADVANCED_FACE ( 'NONE', ( #345 ), #104, .T. ) ;
#279 = ORIENTED_EDGE ( 'NONE', *, *, #44, .T. ) ;
#280 = VERTEX_POINT ( 'NONE', #358 ) ;
#281 = EDGE_CURVE ( 'NONE', #271, #208, #111, .T. ) ;
#282 = ORIENTED_EDGE ( 'NONE', *, *, #392, .T. ) ;
#283 = AXIS2_PLACEMENT_3D ( 'NONE', #355, #326, #329 ) ;
#284 = EDGE_CURVE ( 'NONE', #220, #336, #110, .T. ) ;
#285 = AXIS2_PLACEMENT_3D ( 'NONE', #368, #396, #204 ) ;
#286 = PRODUCT_CONTEXT ( 'NONE', #140, 'mechanical' ) ;
#287 = FILL_AREA_STYLE ('',( #15 ) ) ;
#288 = ORIENTED_EDGE ( 'NONE', *, *, #281, .T. ) ;
#289 = ORIENTED_EDGE ( 'NONE', *, *, #384, .T. ) ;
#290 = EDGE_LOOP ( 'NONE', ( #236, #282, #243, #244 ) ) ;
#291 =( NAMED_UNIT ( * ) PLANE_ANGLE_UNIT ( ) SI_UNIT ( $, .RADIAN. ) );
#292 = PLANE ( 'NONE',  #328 ) ;
#293 = DIRECTION ( 'NONE',  ( 0.0000000000000000000, 0.0000000000000000000, -1.000000000000000000 ) ) ;
#294 = VERTEX_POINT ( 'NONE', #360 ) ;
#295 = APPLICATION_CONTEXT ( 'automotive_design' ) ;
#296 = EDGE_LOOP ( 'NONE', ( #180, #198, #197, #43 ) ) ;
#297 = ORIENTED_EDGE ( 'NONE', *, *, #389, .F. ) ;
#298 = EDGE_CURVE ( 'NONE', #208, #196, #103, .T. ) ;
#299 = DIRECTION ( 'NONE',  ( 0.0000000000000000000, 0.0000000000000000000, 1.000000000000000000 ) ) ;
#300 = EDGE_CURVE ( 'NONE', #336, #280, #340, .T. ) ;
#301 = DIRECTION ( 'NONE',  ( -0.0000000000000000000, -1.000000000000000000, -0.0000000000000000000 ) ) ;
#302 = AXIS2_PLACEMENT_3D ( 'NONE', #371, #330, #391 ) ;
#303 = CARTESIAN_POINT ( 'NONE',  ( 0.0000000000000000000, 21.62000000000000100, 0.0000000000000000000 ) ) ;
#304 = EDGE_LOOP ( 'NONE', ( #158, #162, #167, #6 ) ) ;
#305 = CARTESIAN_POINT ( 'NONE',  ( 0.0000000000000000000, 0.0000000000000000000, 0.0000000000000000000 ) ) ;
#306 = EDGE_LOOP ( 'NONE', ( #221, #227, #12, #8 ) ) ;
#307 = DIRECTION ( 'NONE',  ( -0.0000000000000000000, -1.000000000000000000, -0.0000000000000000000 ) ) ;
#308 = DIRECTION ( 'NONE',  ( 0.0000000000000000000, 0.0000000000000000000, -1.000000000000000000 ) ) ;
#309 = DIRECTION ( 'NONE',  ( 4.686520405326219700E-017, -0.9238795325112894000, 0.3826834323650833400 ) ) ;
#310 = EDGE_LOOP ( 'NONE', ( #233, #238 ) ) ;
#311 = AXIS2_PLACEMENT_3D ( 'NONE', #114, #42, #17 ) ;
#312 = EDGE_LOOP ( 'NONE', ( #259, #288, #224, #297 ) ) ;
#313 = CARTESIAN_POINT ( 'NONE',  ( 1.454268073987482100E-016, 53.36999999999999700, 0.8500000000000000900 ) ) ;
#314 = CIRCLE ( 'NONE', #171, 0.8499999999999999800 ) ;
#315 = DIRECTION ( 'NONE',  ( 0.0000000000000000000, -0.0000000000000000000, 1.000000000000000000 ) ) ;
#316 = VECTOR ( 'NONE', #242, 1000.000000000000000 ) ;
#317 = AXIS2_PLACEMENT_3D ( 'NONE', #92, #153, #160 ) ;
#318 = FACE_OUTER_BOUND ( 'NONE', #137, .T. ) ;
#319 = COLOUR_RGB ( '',0.7921568627450980000, 0.8196078431372548800, 0.9333333333333333500 ) ;
#320 = CARTESIAN_POINT ( 'NONE',  ( 0.0000000000000000000, 51.74040584539812900, 0.0000000000000000000 ) ) ;
#321 = FACE_OUTER_BOUND ( 'NONE', #290, .T. ) ;
#322 = SURFACE_STYLE_FILL_AREA ( #35 ) ;
#323 = PRESENTATION_STYLE_ASSIGNMENT (( #61 ) ) ;
#324 = EDGE_CURVE ( 'NONE', #271, #388, #96, .T. ) ;
#325 = DIRECTION ( 'NONE',  ( 0.0000000000000000000, 0.0000000000000000000, -1.000000000000000000 ) ) ;
#326 = DIRECTION ( 'NONE',  ( -0.0000000000000000000, -1.000000000000000000, -0.0000000000000000000 ) ) ;
#327 = CARTESIAN_POINT ( 'NONE',  ( 0.0000000000000000000, 1.000000000000000200, 0.0000000000000000000 ) ) ;
#328 = AXIS2_PLACEMENT_3D ( 'NONE', #274, #264, #315 ) ;
#329 = DIRECTION ( 'NONE',  ( 0.0000000000000000000, 0.0000000000000000000, -1.000000000000000000 ) ) ;
#330 = DIRECTION ( 'NONE',  ( -0.0000000000000000000, -1.000000000000000000, -0.0000000000000000000 ) ) ;
#331 = CYLINDRICAL_SURFACE ( 'NONE', #151, 1.524999999999999900 ) ;
#332 = CIRCLE ( 'NONE', #108, 1.524999999999999900 ) ;
#333 = CARTESIAN_POINT ( 'NONE',  ( 0.0000000000000000000, 20.07000000000000000, 0.0000000000000000000 ) ) ;
#334 = CARTESIAN_POINT ( 'NONE',  ( 1.374999999999996700, 0.0000000000000000000, 0.0000000000000000000 ) ) ;
#335 = FACE_OUTER_BOUND ( 'NONE', #272, .T. ) ;
#336 = VERTEX_POINT ( 'NONE', #4 ) ;
#337 = CARTESIAN_POINT ( 'NONE',  ( 0.0000000000000000000, 0.0000000000000000000, 0.0000000000000000000 ) ) ;
#338 = CYLINDRICAL_SURFACE ( 'NONE', #84, 1.524999999999999900 ) ;
#339 = DIRECTION ( 'NONE',  ( -0.0000000000000000000, -1.000000000000000000, -0.0000000000000000000 ) ) ;
#340 = LINE ( 'NONE', #383, #386 ) ;
#341 = AXIS2_PLACEMENT_3D ( 'NONE', #337, #276, #299 ) ;
#342 = CARTESIAN_POINT ( 'NONE',  ( 2.375000000000000000, 20.07000000000000000, 0.0000000000000000000 ) ) ;
#343 = DIRECTION ( 'NONE',  ( 0.0000000000000000000, 0.0000000000000000000, -1.000000000000000000 ) ) ;
#344 = VECTOR ( 'NONE', #95, 1000.000000000000000 ) ;
#345 = FACE_OUTER_BOUND ( 'NONE', #194, .T. ) ;
#346 = ORIENTED_EDGE ( 'NONE', *, *, #265, .T. ) ;
#347 = ADVANCED_FACE ( 'NONE', ( #88 ), #90, .T. ) ;
#348 = CIRCLE ( 'NONE', #120, 5.040000000000000000 ) ;
#349 = EDGE_CURVE ( 'NONE', #189, #202, #87, .T. ) ;
#350 = UNCERTAINTY_MEASURE_WITH_UNIT (LENGTH_MEASURE( 1.000000000000000100E-005 ), #207, 'distance_accuracy_value', 'NONE');
#351 = EDGE_CURVE ( 'NONE', #7, #377, #273, .T. ) ;
#352 = CARTESIAN_POINT ( 'NONE',  ( 1.867586368699713600E-016, 51.74040584539812900, 1.524999999999999900 ) ) ;
#353 = APPLICATION_PROTOCOL_DEFINITION ( 'draft international standard', 'automotive_design', 1998, #295 ) ;
#354 = CARTESIAN_POINT ( 'NONE',  ( 1.867586368699713600E-016, 0.0000000000000000000, 1.524999999999999900 ) ) ;
#355 = CARTESIAN_POINT ( 'NONE',  ( 0.0000000000000000000, 0.0000000000000000000, 0.0000000000000000000 ) ) ;
#356 = ADVANCED_FACE ( 'NONE', ( #83 ), #70, .T. ) ;
#357 = EDGE_CURVE ( 'NONE', #202, #294, #71, .T. ) ;
#358 = CARTESIAN_POINT ( 'NONE',  ( 2.908536147974964200E-016, 1.000000000000000200, -2.375000000000000000 ) ) ;
#359 = ADVANCED_FACE ( 'NONE', ( #75, #74 ), #185, .T. ) ;
#360 = CARTESIAN_POINT ( 'NONE',  ( 6.172219867702660300E-016, 20.07000000000000000, 5.040000000000000000 ) ) ;
#361 = VECTOR ( 'NONE', #266, 1000.000000000000000 ) ;
#362 = CIRCLE ( 'NONE', #91, 1.524999999999999900 ) ;
#363 = ADVANCED_FACE ( 'NONE', ( #72 ), #59, .T. ) ;
#364 = ADVANCED_FACE ( 'NONE', ( #82, #77 ), #292, .T. ) ;
#365 = AXIS2_PLACEMENT_3D ( 'NONE', #342, #223, #249 ) ;
#366 = CARTESIAN_POINT ( 'NONE',  ( 3.449066870647306300E-016, 19.25000000000000000, 2.816376830485884500 ) ) ;
#367 = CARTESIAN_POINT ( 'NONE',  ( 0.0000000000000000000, 19.25000000000000000, 0.0000000000000000000 ) ) ;
#368 = CARTESIAN_POINT ( 'NONE',  ( 0.0000000000000000000, 0.0000000000000000000, 0.0000000000000000000 ) ) ;
#369 = DIRECTION ( 'NONE',  ( 0.0000000000000000000, 1.000000000000000000, 0.0000000000000000000 ) ) ;
#370 = AXIS2_PLACEMENT_3D ( 'NONE', #305, #369, #231 ) ;
#371 = CARTESIAN_POINT ( 'NONE',  ( 0.0000000000000000000, 19.25000000000000000, 0.0000000000000000000 ) ) ;
#372 = CARTESIAN_POINT ( 'NONE',  ( 0.0000000000000000000, 0.0000000000000000000, 1.374999999999996700 ) ) ;
#373 = CARTESIAN_POINT ( 'NONE',  ( 0.0000000000000000000, 21.62000000000000100, 0.0000000000000000000 ) ) ;
#374 = ADVANCED_FACE ( 'NONE', ( #69 ), #55, .T. ) ;
#375 = DIRECTION ( 'NONE',  ( -0.0000000000000000000, -1.000000000000000000, -0.0000000000000000000 ) ) ;
#376 = ADVANCED_FACE ( 'NONE', ( #64 ), #63, .T. ) ;
#377 = VERTEX_POINT ( 'NONE', #179 ) ;
#378 = ADVANCED_FACE ( 'NONE', ( #53 ), #48, .T. ) ;
#379 = ADVANCED_FACE ( 'NONE', ( #56 ), #68, .T. ) ;
#380 = CIRCLE ( 'NONE', #52, 1.374999999999996700 ) ;
#381 = LINE ( 'NONE', #3, #316 ) ;
#382 = DIRECTION ( 'NONE',  ( -0.0000000000000000000, -1.000000000000000000, -0.0000000000000000000 ) ) ;
#383 = CARTESIAN_POINT ( 'NONE',  ( 1.683889348827606800E-016, 0.0000000000000000000, -1.374999999999996700 ) ) ;
#384 = EDGE_CURVE ( 'NONE', #294, #245, #58, .T. ) ;
#385 = EDGE_CURVE ( 'NONE', #202, #189, #46, .T. ) ;
#386 = VECTOR ( 'NONE', #400, 1000.000000000000000 ) ;
#387 = PRODUCT_RELATED_PRODUCT_CATEGORY ( 'part', '', ( #116 ) ) ;
#388 = VERTEX_POINT ( 'NONE', #395 ) ;
#389 = EDGE_CURVE ( 'NONE', #388, #11, #40, .T. ) ;
#390 = PRODUCT_DEFINITION_FORMATION_WITH_SPECIFIED_SOURCE ( 'ANY', '', #116, .NOT_KNOWN. ) ;
#391 = DIRECTION ( 'NONE',  ( 0.0000000000000000000, 0.0000000000000000000, -1.000000000000000000 ) ) ;
#392 = EDGE_CURVE ( 'NONE', #208, #11, #41, .T. ) ;
#393 = AXIS2_PLACEMENT_3D ( 'NONE', #366, #399, #99 ) ;
#394 = VERTEX_POINT ( 'NONE', #143 ) ;
#395 = CARTESIAN_POINT ( 'NONE',  ( 0.0000000000000000000, 53.36999999999999700, -0.8499999999999999800 ) ) ;
#396 = DIRECTION ( 'NONE',  ( -0.0000000000000000000, -1.000000000000000000, -0.0000000000000000000 ) ) ;
#397 = DIRECTION ( 'NONE',  ( -0.0000000000000000000, -1.000000000000000000, -0.0000000000000000000 ) ) ;
#398 = LINE ( 'NONE', #230, #361 ) ;
#399 = DIRECTION ( 'NONE',  ( 1.000000000000000000, 0.0000000000000000000, -1.224646799147353200E-016 ) ) ;
#400 = DIRECTION ( 'NONE',  ( 8.659560562354947600E-017, 0.7071067811865464600, -0.7071067811865486800 ) ) ;
#401 = AXIS2_PLACEMENT_3D ( 'NONE', #188, #65, #101 ) ;
#402 = DIRECTION ( 'NONE',  ( -0.0000000000000000000, -1.000000000000000000, -0.0000000000000000000 ) ) ;
ENDSEC;
END-ISO-10303-21;
