ISO-10303-21;
HEADER;
FILE_DESCRIPTION (( 'STEP AP214' ),
    '1' );
FILE_NAME ('0BS01-00618MING_01_50mm.STEP',
    '2016-04-29T12:14:35',
    ( '' ),
    ( '' ),
    'SwSTEP 2.0',
    'SolidWorks 2015',
    '' );
FILE_SCHEMA (( 'AUTOMOTIVE_DESIGN' ));
ENDSEC;

DATA;
#1 = DIRECTION ( 'NONE',  ( -0.0000000000000000000, -1.000000000000000000, -0.0000000000000000000 ) ) ;
#2 = DIRECTION ( 'NONE',  ( 0.0000000000000000000, 0.0000000000000000000, -1.000000000000000000 ) ) ;
#3 = ADVANCED_FACE ( 'NONE', ( #298 ), #70, .T. ) ;
#4 = COLOUR_RGB ( '',0.7921568627450980000, 0.8196078431372548800, 0.9333333333333333500 ) ;
#5 = CARTESIAN_POINT ( 'NONE',  ( 0.0000000000000000000, 4.027990493605469300, 0.0000000000000000000 ) ) ;
#6 = ADVANCED_FACE ( 'NONE', ( #306 ), #313, .T. ) ;
#7 = EDGE_CURVE ( 'NONE', #15, #51, #301, .T. ) ;
#8 = DIRECTION ( 'NONE',  ( -1.224646799147353200E-016, 0.0000000000000000000, -1.000000000000000000 ) ) ;
#9 = MECHANICAL_DESIGN_GEOMETRIC_PRESENTATION_REPRESENTATION (  '', ( #328 ), #30 ) ;
#10 =( NAMED_UNIT ( * ) PLANE_ANGLE_UNIT ( ) SI_UNIT ( $, .RADIAN. ) );
#11 = ORIENTED_EDGE ( 'NONE', *, *, #125, .F. ) ;
#12 = EDGE_LOOP ( 'NONE', ( #221, #128, #220, #58 ) ) ;
#13 = DIRECTION ( 'NONE',  ( -1.224646799147353200E-016, 0.0000000000000000000, -1.000000000000000000 ) ) ;
#14 = CARTESIAN_POINT ( 'NONE',  ( 0.0000000000000000000, 1.134793366539249800, 0.0000000000000000000 ) ) ;
#15 = VERTEX_POINT ( 'NONE', #156 ) ;
#16 = EDGE_CURVE ( 'NONE', #281, #218, #308, .T. ) ;
#17 = AXIS2_PLACEMENT_3D ( 'NONE', #344, #342, #339 ) ;
#18 = DIRECTION ( 'NONE',  ( -0.0000000000000000000, -1.000000000000000000, -0.0000000000000000000 ) ) ;
#19 = VERTEX_POINT ( 'NONE', #97 ) ;
#20 = DIRECTION ( 'NONE',  ( 0.0000000000000000000, 0.0000000000000000000, -1.000000000000000000 ) ) ;
#21 = EDGE_CURVE ( 'NONE', #111, #31, #66, .T. ) ;
#22 = AXIS2_PLACEMENT_3D ( 'NONE', #324, #171, #127 ) ;
#23 = DIRECTION ( 'NONE',  ( -0.0000000000000000000, -1.000000000000000000, -0.0000000000000000000 ) ) ;
#24 = DIRECTION ( 'NONE',  ( 0.0000000000000000000, 0.0000000000000000000, -1.000000000000000000 ) ) ;
#25 = EDGE_LOOP ( 'NONE', ( #169, #163, #159, #161 ) ) ;
#26 = ADVANCED_FACE ( 'NONE', ( #323 ), #318, .T. ) ;
#27 = AXIS2_PLACEMENT_3D ( 'NONE', #204, #228, #173 ) ;
#28 = EDGE_CURVE ( 'NONE', #31, #208, #90, .T. ) ;
#29 = CARTESIAN_POINT ( 'NONE',  ( 3.049370529876909400E-016, 0.0000000000000000000, 2.490000000000000200 ) ) ;
#30 =( GEOMETRIC_REPRESENTATION_CONTEXT ( 3 ) GLOBAL_UNCERTAINTY_ASSIGNED_CONTEXT ( ( #190 ) ) GLOBAL_UNIT_ASSIGNED_CONTEXT ( ( #226, #237, #238 ) ) REPRESENTATION_CONTEXT ( 'NONE', 'WORKASPACE' ) );
#31 = VERTEX_POINT ( 'NONE', #290 ) ;
#32 =( NAMED_UNIT ( * ) SI_UNIT ( $, .STERADIAN. ) SOLID_ANGLE_UNIT ( ) );
#33 = VERTEX_POINT ( 'NONE', #275 ) ;
#34 = CARTESIAN_POINT ( 'NONE',  ( 0.0000000000000000000, 4.027990493605469300, 0.0000000000000000000 ) ) ;
#35 = EDGE_CURVE ( 'NONE', #15, #244, #107, .T. ) ;
#36 = CARTESIAN_POINT ( 'NONE',  ( 0.0000000000000000000, 1.134793366539249800, 0.0000000000000000000 ) ) ;
#37 = ORIENTED_EDGE ( 'NONE', *, *, #142, .T. ) ;
#38 = AXIS2_PLACEMENT_3D ( 'NONE', #334, #351, #205 ) ;
#39 = CARTESIAN_POINT ( 'NONE',  ( 0.0000000000000000000, 7.200000000000000200, 0.0000000000000000000 ) ) ;
#40 = CLOSED_SHELL ( 'NONE', ( #314, #279, #133, #3, #6, #372, #253, #336, #283, #370, #26, #353 ) ) ;
#41 = EDGE_LOOP ( 'NONE', ( #85, #98, #94, #202 ) ) ;
#42 = ORIENTED_EDGE ( 'NONE', *, *, #346, .F. ) ;
#43 = DIRECTION ( 'NONE',  ( -0.0000000000000000000, -1.000000000000000000, -0.0000000000000000000 ) ) ;
#44 = CARTESIAN_POINT ( 'NONE',  ( 0.0000000000000000000, 5.700000000000000200, 0.0000000000000000000 ) ) ;
#45 = EDGE_CURVE ( 'NONE', #111, #19, #303, .T. ) ;
#46 = PRODUCT_DEFINITION ( 'UNKNOWN', '', #65, #262 ) ;
#47 = ADVANCED_BREP_SHAPE_REPRESENTATION ( '0BS01-00618MING_01_50mm', ( #302, #22 ), #276 ) ;
#48 = DIRECTION ( 'NONE',  ( 0.0000000000000000000, 0.0000000000000000000, -1.000000000000000000 ) ) ;
#49 = DIRECTION ( 'NONE',  ( 0.0000000000000000000, 0.0000000000000000000, -1.000000000000000000 ) ) ;
#50 = CARTESIAN_POINT ( 'NONE',  ( 6.172219867702661300E-016, 7.200000000000000200, 5.040000000000000900 ) ) ;
#51 = VERTEX_POINT ( 'NONE', #120 ) ;
#52 = DIRECTION ( 'NONE',  ( -0.0000000000000000000, -1.000000000000000000, -0.0000000000000000000 ) ) ;
#53 = ORIENTED_EDGE ( 'NONE', *, *, #16, .F. ) ;
#54 = SHAPE_DEFINITION_REPRESENTATION ( #337, #47 ) ;
#55 = AXIS2_PLACEMENT_3D ( 'NONE', #251, #254, #258 ) ;
#56 = UNCERTAINTY_MEASURE_WITH_UNIT (LENGTH_MEASURE( 1.000000000000000100E-005 ), #330, 'distance_accuracy_value', 'NONE');
#57 = CARTESIAN_POINT ( 'NONE',  ( 0.0000000000000000000, 8.519999999999999600, 0.0000000000000000000 ) ) ;
#58 = ORIENTED_EDGE ( 'NONE', *, *, #246, .F. ) ;
#59 = SPHERICAL_SURFACE ( 'NONE', #256, 2.374999999999999600 ) ;
#60 = DIRECTION ( 'NONE',  ( -0.0000000000000000000, -1.000000000000000000, -0.0000000000000000000 ) ) ;
#61 = AXIS2_PLACEMENT_3D ( 'NONE', #286, #1, #2 ) ;
#62 = VERTEX_POINT ( 'NONE', #280 ) ;
#63 = DIRECTION ( 'NONE',  ( -0.0000000000000000000, -1.000000000000000000, -0.0000000000000000000 ) ) ;
#64 = EDGE_CURVE ( 'NONE', #19, #208, #350, .T. ) ;
#65 = PRODUCT_DEFINITION_FORMATION_WITH_SPECIFIED_SOURCE ( 'ANY', '', #348, .NOT_KNOWN. ) ;
#66 = CIRCLE ( 'NONE', #252, 3.000000000000000000 ) ;
#67 = AXIS2_PLACEMENT_3D ( 'NONE', #207, #278, #24 ) ;
#68 = DIRECTION ( 'NONE',  ( 0.0000000000000000000, 0.0000000000000000000, -1.000000000000000000 ) ) ;
#69 = CARTESIAN_POINT ( 'NONE',  ( 3.283071624817404100E-016, 1.134793366539249800, 2.025465997325047100 ) ) ;
#70 = TOROIDAL_SURFACE ( 'NONE', #362, 1.408947368421053400, 1.991052631578946300 ) ;
#71 = ORIENTED_EDGE ( 'NONE', *, *, #35, .F. ) ;
#72 = ORIENTED_EDGE ( 'NONE', *, *, #246, .T. ) ;
#73 = FACE_BOUND ( 'NONE', #227, .T. ) ;
#74 = CARTESIAN_POINT ( 'NONE',  ( 0.0000000000000000000, 3.027990493605469300, 0.0000000000000000000 ) ) ;
#75 = CARTESIAN_POINT ( 'NONE',  ( -1.454268073987481600E-016, 4.336808689942017700E-016, 0.0000000000000000000 ) ) ;
#76 = EDGE_CURVE ( 'NONE', #281, #51, #341, .T. ) ;
#77 = AXIS2_PLACEMENT_3D ( 'NONE', #212, #216, #247 ) ;
#78 = CARTESIAN_POINT ( 'NONE',  ( 0.0000000000000000000, 7.200000000000000200, 0.0000000000000000000 ) ) ;
#79 = DIRECTION ( 'NONE',  ( 0.0000000000000000000, 0.0000000000000000000, -1.000000000000000000 ) ) ;
#80 = SURFACE_STYLE_FILL_AREA ( #358 ) ;
#81 = DIRECTION ( 'NONE',  ( -0.0000000000000000000, -1.000000000000000000, -0.0000000000000000000 ) ) ;
#82 = DIRECTION ( 'NONE',  ( 0.0000000000000000000, 0.0000000000000000000, -1.000000000000000000 ) ) ;
#83 = EDGE_CURVE ( 'NONE', #208, #19, #267, .T. ) ;
#84 = AXIS2_PLACEMENT_3D ( 'NONE', #14, #18, #20 ) ;
#85 = ORIENTED_EDGE ( 'NONE', *, *, #28, .F. ) ;
#86 = CIRCLE ( 'NONE', #157, 1.991052631578946300 ) ;
#87 = CARTESIAN_POINT ( 'NONE',  ( 3.049370529876909900E-016, 7.200000000000000200, 2.490000000000000700 ) ) ;
#88 = DIRECTION ( 'NONE',  ( -0.0000000000000000000, -1.000000000000000000, -0.0000000000000000000 ) ) ;
#89 = ORIENTED_EDGE ( 'NONE', *, *, #129, .F. ) ;
#90 = CIRCLE ( 'NONE', #355, 2.236363636363637200 ) ;
#91 = PRODUCT_RELATED_PRODUCT_CATEGORY ( 'part', '', ( #348 ) ) ;
#92 = DIRECTION ( 'NONE',  ( 0.0000000000000000000, 0.0000000000000000000, -1.000000000000000000 ) ) ;
#93 = CARTESIAN_POINT ( 'NONE',  ( 3.567516664552899300E-016, 5.700000000000000200, 2.490000000000000200 ) ) ;
#94 = ORIENTED_EDGE ( 'NONE', *, *, #45, .T. ) ;
#95 = FACE_OUTER_BOUND ( 'NONE', #182, .T. ) ;
#96 = AXIS2_PLACEMENT_3D ( 'NONE', #291, #292, #293 ) ;
#97 = CARTESIAN_POINT ( 'NONE',  ( 0.0000000000000000000, 7.200000000000000200, -5.040000000000000900 ) ) ;
#98 = ORIENTED_EDGE ( 'NONE', *, *, #346, .T. ) ;
#99 = AXIS2_PLACEMENT_3D ( 'NONE', #170, #52, #79 ) ;
#100 = CARTESIAN_POINT ( 'NONE',  ( 0.0000000000000000000, 1.134793366539249800, 0.0000000000000000000 ) ) ;
#101 = EDGE_CURVE ( 'NONE', #33, #281, #345, .T. ) ;
#102 = AXIS2_PLACEMENT_3D ( 'NONE', #36, #167, #164 ) ;
#103 = DIRECTION ( 'NONE',  ( -0.0000000000000000000, -1.000000000000000000, -0.0000000000000000000 ) ) ;
#104 = DIRECTION ( 'NONE',  ( 0.0000000000000000000, 0.0000000000000000000, -1.000000000000000000 ) ) ;
#105 = CARTESIAN_POINT ( 'NONE',  ( 0.0000000000000000000, 1.134793366539249800, -2.025465997325047100 ) ) ;
#106 = ORIENTED_EDGE ( 'NONE', *, *, #274, .F. ) ;
#107 = CIRCLE ( 'NONE', #368, 1.991052631578946300 ) ;
#108 = FACE_OUTER_BOUND ( 'NONE', #153, .T. ) ;
#109 = EDGE_CURVE ( 'NONE', #244, #62, #363, .T. ) ;
#110 = CARTESIAN_POINT ( 'NONE',  ( 0.0000000000000000000, 3.027990493605469300, -1.408947368421053400 ) ) ;
#111 = VERTEX_POINT ( 'NONE', #371 ) ;
#112 = DIRECTION ( 'NONE',  ( -1.000000000000000000, 0.0000000000000000000, 0.0000000000000000000 ) ) ;
#113 = CIRCLE ( 'NONE', #96, 3.000000000000000000 ) ;
#114 = DIRECTION ( 'NONE',  ( -0.0000000000000000000, -1.000000000000000000, -0.0000000000000000000 ) ) ;
#115 = DIRECTION ( 'NONE',  ( 0.0000000000000000000, 0.0000000000000000000, 1.000000000000000000 ) ) ;
#116 = CARTESIAN_POINT ( 'NONE',  ( 0.0000000000000000000, 3.027990493605469300, 0.0000000000000000000 ) ) ;
#117 = EDGE_CURVE ( 'NONE', #266, #244, #268, .T. ) ;
#118 = AXIS2_PLACEMENT_3D ( 'NONE', #34, #322, #260 ) ;
#119 = CIRCLE ( 'NONE', #180, 2.025465997325047100 ) ;
#120 = CARTESIAN_POINT ( 'NONE',  ( 0.0000000000000000000, 3.527990493605468000, -3.336196854532658600 ) ) ;
#121 = AXIS2_PLACEMENT_3D ( 'NONE', #366, #364, #361 ) ;
#122 = ORIENTED_EDGE ( 'NONE', *, *, #76, .F. ) ;
#123 = CIRCLE ( 'NONE', #196, 1.991052631578946300 ) ;
#124 = TOROIDAL_SURFACE ( 'NONE', #118, 1.408947368421053400, 1.991052631578946300 ) ;
#125 = EDGE_CURVE ( 'NONE', #189, #218, #304, .T. ) ;
#126 = AXIS2_PLACEMENT_3D ( 'NONE', #39, #43, #48 ) ;
#127 = DIRECTION ( 'NONE',  ( 1.000000000000000000, 0.0000000000000000000, 0.0000000000000000000 ) ) ;
#128 = ORIENTED_EDGE ( 'NONE', *, *, #232, .T. ) ;
#129 = EDGE_CURVE ( 'NONE', #189, #33, #319, .T. ) ;
#130 = FACE_OUTER_BOUND ( 'NONE', #257, .T. ) ;
#131 = DIRECTION ( 'NONE',  ( 0.0000000000000000000, 0.0000000000000000000, -1.000000000000000000 ) ) ;
#132 = CARTESIAN_POINT ( 'NONE',  ( 0.0000000000000000000, 1.134793366539249800, 0.0000000000000000000 ) ) ;
#133 = ADVANCED_FACE ( 'NONE', ( #327 ), #273, .T. ) ;
#134 = CARTESIAN_POINT ( 'NONE',  ( 3.673940397442059900E-016, 6.283636363636362400, 3.000000000000000000 ) ) ;
#135 = EDGE_LOOP ( 'NONE', ( #11, #146, #149, #144 ) ) ;
#136 = ORIENTED_EDGE ( 'NONE', *, *, #217, .F. ) ;
#137 = DIRECTION ( 'NONE',  ( -0.0000000000000000000, -1.000000000000000000, -0.0000000000000000000 ) ) ;
#138 = APPLICATION_CONTEXT ( 'automotive_design' ) ;
#139 = DIRECTION ( 'NONE',  ( 0.0000000000000000000, 0.0000000000000000000, -1.000000000000000000 ) ) ;
#140 = ORIENTED_EDGE ( 'NONE', *, *, #64, .T. ) ;
#141 = CARTESIAN_POINT ( 'NONE',  ( 2.025465997325047100, 1.134793366539249800, -2.480480450405920400E-016 ) ) ;
#142 = EDGE_CURVE ( 'NONE', #33, #189, #299, .T. ) ;
#143 = AXIS2_PLACEMENT_3D ( 'NONE', #78, #81, #82 ) ;
#144 = ORIENTED_EDGE ( 'NONE', *, *, #320, .F. ) ;
#145 = ORIENTED_EDGE ( 'NONE', *, *, #83, .T. ) ;
#146 = ORIENTED_EDGE ( 'NONE', *, *, #129, .T. ) ;
#147 = DIRECTION ( 'NONE',  ( -0.0000000000000000000, -1.000000000000000000, -0.0000000000000000000 ) ) ;
#148 = PRESENTATION_STYLE_ASSIGNMENT (( #360 ) ) ;
#149 = ORIENTED_EDGE ( 'NONE', *, *, #101, .T. ) ;
#150 = CIRCLE ( 'NONE', #55, 2.490000000000000200 ) ;
#151 = CARTESIAN_POINT ( 'NONE',  ( 0.0000000000000000000, 2.375000000000000000, 0.0000000000000000000 ) ) ;
#152 = FACE_OUTER_BOUND ( 'NONE', #25, .T. ) ;
#153 = EDGE_LOOP ( 'NONE', ( #140, #145 ) ) ;
#154 = VERTEX_POINT ( 'NONE', #75 ) ;
#155 = TOROIDAL_SURFACE ( 'NONE', #77, 3.000000000000000000, 2.236363636363637200 ) ;
#156 = CARTESIAN_POINT ( 'NONE',  ( 4.085662799228888800E-016, 3.527990493605468000, 3.336196854532658600 ) ) ;
#157 = AXIS2_PLACEMENT_3D ( 'NONE', #311, #312, #315 ) ;
#158 = DIRECTION ( 'NONE',  ( -0.0000000000000000000, 0.0000000000000000000, 1.000000000000000000 ) ) ;
#159 = ORIENTED_EDGE ( 'NONE', *, *, #76, .T. ) ;
#160 = DIRECTION ( 'NONE',  ( 1.000000000000000000, 0.0000000000000000000, 0.0000000000000000000 ) ) ;
#161 = ORIENTED_EDGE ( 'NONE', *, *, #7, .F. ) ;
#162 = DIRECTION ( 'NONE',  ( 0.0000000000000000000, 0.0000000000000000000, -1.000000000000000000 ) ) ;
#163 = ORIENTED_EDGE ( 'NONE', *, *, #320, .T. ) ;
#164 = DIRECTION ( 'NONE',  ( 0.0000000000000000000, 0.0000000000000000000, -1.000000000000000000 ) ) ;
#165 = AXIS2_PLACEMENT_3D ( 'NONE', #5, #114, #49 ) ;
#166 = DIRECTION ( 'NONE',  ( 0.0000000000000000000, 0.0000000000000000000, -1.000000000000000000 ) ) ;
#167 = DIRECTION ( 'NONE',  ( -0.0000000000000000000, -1.000000000000000000, -0.0000000000000000000 ) ) ;
#168 = ORIENTED_EDGE ( 'NONE', *, *, #117, .F. ) ;
#169 = ORIENTED_EDGE ( 'NONE', *, *, #369, .F. ) ;
#170 = CARTESIAN_POINT ( 'NONE',  ( 0.0000000000000000000, 6.283636363636362400, 0.0000000000000000000 ) ) ;
#171 = DIRECTION ( 'NONE',  ( 0.0000000000000000000, 0.0000000000000000000, 1.000000000000000000 ) ) ;
#172 = DIRECTION ( 'NONE',  ( -0.0000000000000000000, -1.000000000000000000, -0.0000000000000000000 ) ) ;
#173 = DIRECTION ( 'NONE',  ( -1.000000000000000000, 0.0000000000000000000, 0.0000000000000000000 ) ) ;
#174 = AXIS2_PLACEMENT_3D ( 'NONE', #354, #295, #297 ) ;
#175 = ORIENTED_EDGE ( 'NONE', *, *, #200, .F. ) ;
#176 = ORIENTED_EDGE ( 'NONE', *, *, #109, .F. ) ;
#177 = CARTESIAN_POINT ( 'NONE',  ( 0.0000000000000000000, 2.375000000000000000, 0.0000000000000000000 ) ) ;
#178 = DIRECTION ( 'NONE',  ( -1.224646799147353200E-016, 0.0000000000000000000, -1.000000000000000000 ) ) ;
#179 = ORIENTED_EDGE ( 'NONE', *, *, #7, .T. ) ;
#180 = AXIS2_PLACEMENT_3D ( 'NONE', #100, #103, #104 ) ;
#181 = DIRECTION ( 'NONE',  ( -1.000000000000000000, 0.0000000000000000000, 1.224646799147353200E-016 ) ) ;
#182 = EDGE_LOOP ( 'NONE', ( #206, #197, #198, #72 ) ) ;
#183 = ORIENTED_EDGE ( 'NONE', *, *, #232, .F. ) ;
#184 = FACE_OUTER_BOUND ( 'NONE', #294, .T. ) ;
#185 = CARTESIAN_POINT ( 'NONE',  ( 0.0000000000000000000, 0.0000000000000000000, 0.0000000000000000000 ) ) ;
#186 = ORIENTED_EDGE ( 'NONE', *, *, #217, .T. ) ;
#187 = CARTESIAN_POINT ( 'NONE',  ( 0.0000000000000000000, 3.527990493605468000, 0.0000000000000000000 ) ) ;
#188 = DIRECTION ( 'NONE',  ( -0.0000000000000000000, -1.000000000000000000, -0.0000000000000000000 ) ) ;
#189 = VERTEX_POINT ( 'NONE', #87 ) ;
#190 = UNCERTAINTY_MEASURE_WITH_UNIT (LENGTH_MEASURE( 1.000000000000000100E-005 ), #226, 'distance_accuracy_value', 'NONE');
#191 = DIRECTION ( 'NONE',  ( 0.0000000000000000000, 0.0000000000000000000, -1.000000000000000000 ) ) ;
#192 = DIRECTION ( 'NONE',  ( -0.0000000000000000000, -1.000000000000000000, -0.0000000000000000000 ) ) ;
#193 = CYLINDRICAL_SURFACE ( 'NONE', #365, 2.490000000000000200 ) ;
#194 = FACE_OUTER_BOUND ( 'NONE', #135, .T. ) ;
#195 = CARTESIAN_POINT ( 'NONE',  ( 0.0000000000000000000, 5.700000000000000200, -2.490000000000000200 ) ) ;
#196 = AXIS2_PLACEMENT_3D ( 'NONE', #110, #112, #115 ) ;
#197 = ORIENTED_EDGE ( 'NONE', *, *, #117, .T. ) ;
#198 = ORIENTED_EDGE ( 'NONE', *, *, #109, .T. ) ;
#199 = CYLINDRICAL_SURFACE ( 'NONE', #349, 2.490000000000000200 ) ;
#200 = EDGE_CURVE ( 'NONE', #62, #229, #119, .T. ) ;
#201 = DIRECTION ( 'NONE',  ( -0.0000000000000000000, -1.000000000000000000, -0.0000000000000000000 ) ) ;
#202 = ORIENTED_EDGE ( 'NONE', *, *, #83, .F. ) ;
#203 = COLOUR_RGB ( '',0.7921568627450980000, 0.8196078431372548800, 0.9333333333333333500 ) ;
#204 = CARTESIAN_POINT ( 'NONE',  ( 0.0000000000000000000, 2.375000000000000000, 0.0000000000000000000 ) ) ;
#205 = DIRECTION ( 'NONE',  ( 0.0000000000000000000, 0.0000000000000000000, 1.000000000000000000 ) ) ;
#206 = ORIENTED_EDGE ( 'NONE', *, *, #263, .F. ) ;
#207 = CARTESIAN_POINT ( 'NONE',  ( 0.0000000000000000000, 3.527990493605468000, 0.0000000000000000000 ) ) ;
#208 = VERTEX_POINT ( 'NONE', #50 ) ;
#209 = EDGE_LOOP ( 'NONE', ( #37, #271, #53, #248 ) ) ;
#210 = SURFACE_STYLE_FILL_AREA ( #223 ) ;
#211 = STYLED_ITEM ( 'NONE', ( #148 ), #47 ) ;
#212 = CARTESIAN_POINT ( 'NONE',  ( 0.0000000000000000000, 6.283636363636362400, 0.0000000000000000000 ) ) ;
#213 = FACE_OUTER_BOUND ( 'NONE', #288, .T. ) ;
#214 = FACE_OUTER_BOUND ( 'NONE', #209, .T. ) ;
#215 = CARTESIAN_POINT ( 'NONE',  ( 1.725462884903929700E-016, 3.027990493605469300, 1.408947368421053400 ) ) ;
#216 = DIRECTION ( 'NONE',  ( -0.0000000000000000000, -1.000000000000000000, -0.0000000000000000000 ) ) ;
#217 = EDGE_CURVE ( 'NONE', #51, #229, #123, .T. ) ;
#218 = VERTEX_POINT ( 'NONE', #93 ) ;
#219 = AXIS2_PLACEMENT_3D ( 'NONE', #132, #137, #139 ) ;
#220 = ORIENTED_EDGE ( 'NONE', *, *, #263, .T. ) ;
#221 = ORIENTED_EDGE ( 'NONE', *, *, #200, .T. ) ;
#222 = FILL_AREA_STYLE_COLOUR ( '', #203 ) ;
#223 = FILL_AREA_STYLE ('',( #222 ) ) ;
#224 = SURFACE_SIDE_STYLE ('',( #210 ) ) ;
#225 = SURFACE_STYLE_USAGE ( .BOTH. , #224 ) ;
#226 =( LENGTH_UNIT ( ) NAMED_UNIT ( * ) SI_UNIT ( .MILLI., .METRE. ) );
#227 = EDGE_LOOP ( 'NONE', ( #239, #89 ) ) ;
#228 = DIRECTION ( 'NONE',  ( -0.0000000000000000000, -0.0000000000000000000, -1.000000000000000000 ) ) ;
#229 = VERTEX_POINT ( 'NONE', #105 ) ;
#230 = CIRCLE ( 'NONE', #309, 3.336196854532658600 ) ;
#231 = DIRECTION ( 'NONE',  ( 1.000000000000000000, 0.0000000000000000000, -1.224646799147353200E-016 ) ) ;
#232 = EDGE_CURVE ( 'NONE', #229, #266, #250, .T. ) ;
#233 = AXIS2_PLACEMENT_3D ( 'NONE', #307, #316, #317 ) ;
#234 = ORIENTED_EDGE ( 'NONE', *, *, #274, .T. ) ;
#235 = ORIENTED_EDGE ( 'NONE', *, *, #35, .T. ) ;
#236 = CIRCLE ( 'NONE', #264, 2.374999999999999600 ) ;
#237 =( NAMED_UNIT ( * ) PLANE_ANGLE_UNIT ( ) SI_UNIT ( $, .RADIAN. ) );
#238 =( NAMED_UNIT ( * ) SI_UNIT ( $, .STERADIAN. ) SOLID_ANGLE_UNIT ( ) );
#239 = ORIENTED_EDGE ( 'NONE', *, *, #142, .F. ) ;
#240 = TOROIDAL_SURFACE ( 'NONE', #285, 1.408947368421053400, 1.991052631578946300 ) ;
#241 = CIRCLE ( 'NONE', #242, 2.374999999999999600 ) ;
#242 = AXIS2_PLACEMENT_3D ( 'NONE', #151, #158, #160 ) ;
#243 = CARTESIAN_POINT ( 'NONE',  ( 0.0000000000000000000, 0.0000000000000000000, 0.0000000000000000000 ) ) ;
#244 = VERTEX_POINT ( 'NONE', #69 ) ;
#245 = EDGE_LOOP ( 'NONE', ( #234, #235, #168, #183, #136 ) ) ;
#246 = EDGE_CURVE ( 'NONE', #62, #154, #241, .T. ) ;
#247 = DIRECTION ( 'NONE',  ( 0.0000000000000000000, 0.0000000000000000000, -1.000000000000000000 ) ) ;
#248 = ORIENTED_EDGE ( 'NONE', *, *, #101, .F. ) ;
#249 = VECTOR ( 'NONE', #23, 1000.000000000000000 ) ;
#250 = CIRCLE ( 'NONE', #219, 2.025465997325047100 ) ;
#251 = CARTESIAN_POINT ( 'NONE',  ( 0.0000000000000000000, 5.700000000000000200, 0.0000000000000000000 ) ) ;
#252 = AXIS2_PLACEMENT_3D ( 'NONE', #57, #60, #68 ) ;
#253 = ADVANCED_FACE ( 'NONE', ( #184 ), #240, .T. ) ;
#254 = DIRECTION ( 'NONE',  ( -0.0000000000000000000, -1.000000000000000000, -0.0000000000000000000 ) ) ;
#255 = ORIENTED_EDGE ( 'NONE', *, *, #16, .T. ) ;
#256 = AXIS2_PLACEMENT_3D ( 'NONE', #305, #284, #325 ) ;
#257 = EDGE_LOOP ( 'NONE', ( #367, #42 ) ) ;
#258 = DIRECTION ( 'NONE',  ( 0.0000000000000000000, 0.0000000000000000000, -1.000000000000000000 ) ) ;
#259 = PRESENTATION_STYLE_ASSIGNMENT (( #225 ) ) ;
#260 = DIRECTION ( 'NONE',  ( 0.0000000000000000000, 0.0000000000000000000, -1.000000000000000000 ) ) ;
#261 = APPLICATION_PROTOCOL_DEFINITION ( 'draft international standard', 'automotive_design', 1998, #138 ) ;
#262 = PRODUCT_DEFINITION_CONTEXT ( 'detailed design', #138, 'design' ) ;
#263 = EDGE_CURVE ( 'NONE', #266, #154, #236, .T. ) ;
#264 = AXIS2_PLACEMENT_3D ( 'NONE', #177, #178, #181 ) ;
#265 = EDGE_LOOP ( 'NONE', ( #255, #326, #106, #122 ) ) ;
#266 = VERTEX_POINT ( 'NONE', #141 ) ;
#267 = CIRCLE ( 'NONE', #61, 5.040000000000000900 ) ;
#268 = CIRCLE ( 'NONE', #102, 2.025465997325047100 ) ;
#269 = ORIENTED_EDGE ( 'NONE', *, *, #45, .F. ) ;
#270 = PLANE ( 'NONE',  #174 ) ;
#271 = ORIENTED_EDGE ( 'NONE', *, *, #125, .T. ) ;
#272 = ORIENTED_EDGE ( 'NONE', *, *, #64, .F. ) ;
#273 = TOROIDAL_SURFACE ( 'NONE', #165, 1.408947368421053400, 1.991052631578946300 ) ;
#274 = EDGE_CURVE ( 'NONE', #51, #15, #230, .T. ) ;
#275 = CARTESIAN_POINT ( 'NONE',  ( 0.0000000000000000000, 7.200000000000000200, -2.490000000000000700 ) ) ;
#276 =( GEOMETRIC_REPRESENTATION_CONTEXT ( 3 ) GLOBAL_UNCERTAINTY_ASSIGNED_CONTEXT ( ( #56 ) ) GLOBAL_UNIT_ASSIGNED_CONTEXT ( ( #330, #333, #310 ) ) REPRESENTATION_CONTEXT ( 'NONE', 'WORKASPACE' ) );
#277 = DIRECTION ( 'NONE',  ( 1.000000000000000000, 0.0000000000000000000, -1.224646799147353200E-016 ) ) ;
#278 = DIRECTION ( 'NONE',  ( -0.0000000000000000000, -1.000000000000000000, -0.0000000000000000000 ) ) ;
#279 = ADVANCED_FACE ( 'NONE', ( #214 ), #199, .T. ) ;
#280 = CARTESIAN_POINT ( 'NONE',  ( -2.025465997325047100, 1.134793366539249800, 0.0000000000000000000 ) ) ;
#281 = VERTEX_POINT ( 'NONE', #195 ) ;
#282 = VECTOR ( 'NONE', #88, 1000.000000000000000 ) ;
#283 = ADVANCED_FACE ( 'NONE', ( #194 ), #193, .T. ) ;
#284 = DIRECTION ( 'NONE',  ( -0.0000000000000000000, -0.0000000000000000000, -1.000000000000000000 ) ) ;
#285 = AXIS2_PLACEMENT_3D ( 'NONE', #116, #147, #162 ) ;
#286 = CARTESIAN_POINT ( 'NONE',  ( 0.0000000000000000000, 7.200000000000000200, 0.0000000000000000000 ) ) ;
#287 = ORIENTED_EDGE ( 'NONE', *, *, #28, .T. ) ;
#288 = EDGE_LOOP ( 'NONE', ( #289, #287, #272, #269 ) ) ;
#289 = ORIENTED_EDGE ( 'NONE', *, *, #21, .T. ) ;
#290 = CARTESIAN_POINT ( 'NONE',  ( 4.923080132572360300E-016, 8.519999999999999600, 3.000000000000000000 ) ) ;
#291 = CARTESIAN_POINT ( 'NONE',  ( 0.0000000000000000000, 8.519999999999999600, 0.0000000000000000000 ) ) ;
#292 = DIRECTION ( 'NONE',  ( -0.0000000000000000000, -1.000000000000000000, -0.0000000000000000000 ) ) ;
#293 = DIRECTION ( 'NONE',  ( 0.0000000000000000000, 0.0000000000000000000, -1.000000000000000000 ) ) ;
#294 = EDGE_LOOP ( 'NONE', ( #71, #179, #186, #175, #176 ) ) ;
#295 = DIRECTION ( 'NONE',  ( 0.0000000000000000000, 1.000000000000000000, 0.0000000000000000000 ) ) ;
#296 = AXIS2_PLACEMENT_3D ( 'NONE', #44, #63, #92 ) ;
#297 = DIRECTION ( 'NONE',  ( 0.0000000000000000000, -0.0000000000000000000, 1.000000000000000000 ) ) ;
#298 = FACE_OUTER_BOUND ( 'NONE', #245, .T. ) ;
#299 = CIRCLE ( 'NONE', #143, 2.490000000000000700 ) ;
#300 = PLANE ( 'NONE',  #233 ) ;
#301 = CIRCLE ( 'NONE', #67, 3.336196854532658600 ) ;
#302 = MANIFOLD_SOLID_BREP ( 'Revolve1', #40 ) ;
#303 = CIRCLE ( 'NONE', #121, 2.236363636363637200 ) ;
#304 = LINE ( 'NONE', #29, #249 ) ;
#305 = CARTESIAN_POINT ( 'NONE',  ( 0.0000000000000000000, 2.375000000000000000, 0.0000000000000000000 ) ) ;
#306 = FACE_OUTER_BOUND ( 'NONE', #12, .T. ) ;
#307 = CARTESIAN_POINT ( 'NONE',  ( 2.490000000000000700, 7.200000000000000200, 0.0000000000000000000 ) ) ;
#308 = CIRCLE ( 'NONE', #296, 2.490000000000000200 ) ;
#309 = AXIS2_PLACEMENT_3D ( 'NONE', #187, #188, #191 ) ;
#310 =( NAMED_UNIT ( * ) SI_UNIT ( $, .STERADIAN. ) SOLID_ANGLE_UNIT ( ) );
#311 = CARTESIAN_POINT ( 'NONE',  ( 1.725462884903929700E-016, 4.027990493605469300, 1.408947368421053400 ) ) ;
#312 = DIRECTION ( 'NONE',  ( 1.000000000000000000, 0.0000000000000000000, -1.224646799147353200E-016 ) ) ;
#313 = SPHERICAL_SURFACE ( 'NONE', #27, 2.374999999999999600 ) ;
#314 = ADVANCED_FACE ( 'NONE', ( #213 ), #155, .T. ) ;
#315 = DIRECTION ( 'NONE',  ( -1.224646799147353200E-016, 0.0000000000000000000, -1.000000000000000000 ) ) ;
#316 = DIRECTION ( 'NONE',  ( 0.0000000000000000000, -1.000000000000000000, -0.0000000000000000000 ) ) ;
#317 = DIRECTION ( 'NONE',  ( 0.0000000000000000000, 0.0000000000000000000, -1.000000000000000000 ) ) ;
#318 = TOROIDAL_SURFACE ( 'NONE', #99, 3.000000000000000000, 2.236363636363637200 ) ;
#319 = CIRCLE ( 'NONE', #126, 2.490000000000000700 ) ;
#320 = EDGE_CURVE ( 'NONE', #218, #281, #150, .T. ) ;
#321 = PRESENTATION_LAYER_ASSIGNMENT (  '', '', ( #211 ) ) ;
#322 = DIRECTION ( 'NONE',  ( -0.0000000000000000000, -1.000000000000000000, -0.0000000000000000000 ) ) ;
#323 = FACE_OUTER_BOUND ( 'NONE', #41, .T. ) ;
#324 = CARTESIAN_POINT ( 'NONE',  ( 0.0000000000000000000, 0.0000000000000000000, 0.0000000000000000000 ) ) ;
#325 = DIRECTION ( 'NONE',  ( -1.000000000000000000, 0.0000000000000000000, 0.0000000000000000000 ) ) ;
#326 = ORIENTED_EDGE ( 'NONE', *, *, #369, .T. ) ;
#327 = FACE_OUTER_BOUND ( 'NONE', #265, .T. ) ;
#328 = STYLED_ITEM ( 'NONE', ( #259 ), #302 ) ;
#329 = DIRECTION ( 'NONE',  ( 0.0000000000000000000, 0.0000000000000000000, -1.000000000000000000 ) ) ;
#330 =( LENGTH_UNIT ( ) NAMED_UNIT ( * ) SI_UNIT ( .MILLI., .METRE. ) );
#331 = PRODUCT_CONTEXT ( 'NONE', #356, 'mechanical' ) ;
#332 = MECHANICAL_DESIGN_GEOMETRIC_PRESENTATION_REPRESENTATION (  '', ( #211 ), #347 ) ;
#333 =( NAMED_UNIT ( * ) PLANE_ANGLE_UNIT ( ) SI_UNIT ( $, .RADIAN. ) );
#334 = CARTESIAN_POINT ( 'NONE',  ( 0.0000000000000000000, 4.027990493605469300, -1.408947368421053400 ) ) ;
#335 = UNCERTAINTY_MEASURE_WITH_UNIT (LENGTH_MEASURE( 1.000000000000000100E-005 ), #343, 'distance_accuracy_value', 'NONE');
#336 = ADVANCED_FACE ( 'NONE', ( #152 ), #124, .T. ) ;
#337 = PRODUCT_DEFINITION_SHAPE ( 'NONE', 'NONE',  #46 ) ;
#338 = CARTESIAN_POINT ( 'NONE',  ( 0.0000000000000000000, 0.0000000000000000000, -2.490000000000000200 ) ) ;
#339 = DIRECTION ( 'NONE',  ( 0.0000000000000000000, 0.0000000000000000000, -1.000000000000000000 ) ) ;
#340 = PRESENTATION_LAYER_ASSIGNMENT (  '', '', ( #328 ) ) ;
#341 = CIRCLE ( 'NONE', #38, 1.991052631578946300 ) ;
#342 = DIRECTION ( 'NONE',  ( -0.0000000000000000000, -1.000000000000000000, -0.0000000000000000000 ) ) ;
#343 =( LENGTH_UNIT ( ) NAMED_UNIT ( * ) SI_UNIT ( .MILLI., .METRE. ) );
#344 = CARTESIAN_POINT ( 'NONE',  ( 0.0000000000000000000, 7.200000000000000200, 0.0000000000000000000 ) ) ;
#345 = LINE ( 'NONE', #338, #282 ) ;
#346 = EDGE_CURVE ( 'NONE', #31, #111, #113, .T. ) ;
#347 =( GEOMETRIC_REPRESENTATION_CONTEXT ( 3 ) GLOBAL_UNCERTAINTY_ASSIGNED_CONTEXT ( ( #335 ) ) GLOBAL_UNIT_ASSIGNED_CONTEXT ( ( #343, #10, #32 ) ) REPRESENTATION_CONTEXT ( 'NONE', 'WORKASPACE' ) );
#348 = PRODUCT ( '0BS01-00618MING_01_50mm', '0BS01-00618MING_01_50mm', '', ( #331 ) ) ;
#349 = AXIS2_PLACEMENT_3D ( 'NONE', #185, #172, #166 ) ;
#350 = CIRCLE ( 'NONE', #17, 5.040000000000000900 ) ;
#351 = DIRECTION ( 'NONE',  ( -1.000000000000000000, 0.0000000000000000000, 0.0000000000000000000 ) ) ;
#352 = APPLICATION_PROTOCOL_DEFINITION ( 'draft international standard', 'automotive_design', 1998, #356 ) ;
#353 = ADVANCED_FACE ( 'NONE', ( #130 ), #270, .T. ) ;
#354 = CARTESIAN_POINT ( 'NONE',  ( 3.000000000000000000, 8.519999999999999600, 0.0000000000000000000 ) ) ;
#355 = AXIS2_PLACEMENT_3D ( 'NONE', #134, #277, #8 ) ;
#356 = APPLICATION_CONTEXT ( 'automotive_design' ) ;
#357 = FILL_AREA_STYLE_COLOUR ( '', #4 ) ;
#358 = FILL_AREA_STYLE ('',( #357 ) ) ;
#359 = SURFACE_SIDE_STYLE ('',( #80 ) ) ;
#360 = SURFACE_STYLE_USAGE ( .BOTH. , #359 ) ;
#361 = DIRECTION ( 'NONE',  ( 0.0000000000000000000, 0.0000000000000000000, 1.000000000000000000 ) ) ;
#362 = AXIS2_PLACEMENT_3D ( 'NONE', #74, #192, #329 ) ;
#363 = CIRCLE ( 'NONE', #84, 2.025465997325047100 ) ;
#364 = DIRECTION ( 'NONE',  ( -1.000000000000000000, 0.0000000000000000000, 0.0000000000000000000 ) ) ;
#365 = AXIS2_PLACEMENT_3D ( 'NONE', #243, #201, #131 ) ;
#366 = CARTESIAN_POINT ( 'NONE',  ( 0.0000000000000000000, 6.283636363636362400, -3.000000000000000000 ) ) ;
#367 = ORIENTED_EDGE ( 'NONE', *, *, #21, .F. ) ;
#368 = AXIS2_PLACEMENT_3D ( 'NONE', #215, #231, #13 ) ;
#369 = EDGE_CURVE ( 'NONE', #218, #15, #86, .T. ) ;
#370 = ADVANCED_FACE ( 'NONE', ( #108, #73 ), #300, .T. ) ;
#371 = CARTESIAN_POINT ( 'NONE',  ( 0.0000000000000000000, 8.519999999999999600, -3.000000000000000000 ) ) ;
#372 = ADVANCED_FACE ( 'NONE', ( #95 ), #59, .T. ) ;
ENDSEC;
END-ISO-10303-21;
