ISO-10303-21;
HEADER;
FILE_DESCRIPTION (( 'STEP AP214' ),
    '1' );
FILE_NAME ('0BS01-00618MIDG_05_25mm.STEP',
    '2016-04-29T12:14:07',
    ( '' ),
    ( '' ),
    'SwSTEP 2.0',
    'SolidWorks 2015',
    '' );
FILE_SCHEMA (( 'AUTOMOTIVE_DESIGN' ));
ENDSEC;

DATA;
#1 = DIRECTION ( 'NONE',  ( -0.0000000000000000000, -1.000000000000000000, -0.0000000000000000000 ) ) ;
#2 = DIRECTION ( 'NONE',  ( -0.0000000000000000000, -1.000000000000000000, -0.0000000000000000000 ) ) ;
#3 = DIRECTION ( 'NONE',  ( 0.0000000000000000000, 0.0000000000000000000, -1.000000000000000000 ) ) ;
#4 = COLOUR_RGB ( '',0.7921568627450980000, 0.8196078431372548800, 0.9333333333333333500 ) ;
#5 = CARTESIAN_POINT ( 'NONE',  ( 3.049370529876909400E-016, 0.0000000000000000000, 2.490000000000000200 ) ) ;
#6 = DIRECTION ( 'NONE',  ( 0.0000000000000000000, 0.0000000000000000000, -1.000000000000000000 ) ) ;
#7 = DIRECTION ( 'NONE',  ( -0.0000000000000000000, -1.000000000000000000, -0.0000000000000000000 ) ) ;
#8 = DIRECTION ( 'NONE',  ( -1.224646799147353200E-016, 0.0000000000000000000, -1.000000000000000000 ) ) ;
#9 = DIRECTION ( 'NONE',  ( -0.0000000000000000000, -1.000000000000000000, -0.0000000000000000000 ) ) ;
#10 = CARTESIAN_POINT ( 'NONE',  ( 0.0000000000000000000, 1.134793366539249800, -2.025465997325047100 ) ) ;
#11 = UNCERTAINTY_MEASURE_WITH_UNIT (LENGTH_MEASURE( 1.000000000000000100E-005 ), #288, 'distance_accuracy_value', 'NONE');
#12 = AXIS2_PLACEMENT_3D ( 'NONE', #152, #149, #153 ) ;
#13 = CARTESIAN_POINT ( 'NONE',  ( 0.0000000000000000000, 1.134793366539249800, 0.0000000000000000000 ) ) ;
#14 = ADVANCED_FACE ( 'NONE', ( #198 ), #48, .T. ) ;
#15 = AXIS2_PLACEMENT_3D ( 'NONE', #126, #105, #97 ) ;
#16 = CARTESIAN_POINT ( 'NONE',  ( 0.0000000000000000000, 5.700000000000000200, 0.0000000000000000000 ) ) ;
#17 = ADVANCED_FACE ( 'NONE', ( #226 ), #236, .T. ) ;
#18 = ADVANCED_FACE ( 'NONE', ( #212 ), #223, .T. ) ;
#19 = CARTESIAN_POINT ( 'NONE',  ( 0.0000000000000000000, 3.027990493605469300, -1.408947368421053400 ) ) ;
#20 = EDGE_CURVE ( 'NONE', #279, #168, #201, .T. ) ;
#21 = DIRECTION ( 'NONE',  ( -0.0000000000000000000, -1.000000000000000000, -0.0000000000000000000 ) ) ;
#22 =( LENGTH_UNIT ( ) NAMED_UNIT ( * ) SI_UNIT ( .MILLI., .METRE. ) );
#23 = DIRECTION ( 'NONE',  ( 0.0000000000000000000, 0.0000000000000000000, -1.000000000000000000 ) ) ;
#24 = AXIS2_PLACEMENT_3D ( 'NONE', #250, #307, #316 ) ;
#25 = AXIS2_PLACEMENT_3D ( 'NONE', #16, #72, #60 ) ;
#26 = EDGE_CURVE ( 'NONE', #363, #75, #232, .T. ) ;
#27 = DIRECTION ( 'NONE',  ( 0.0000000000000000000, 0.0000000000000000000, -1.000000000000000000 ) ) ;
#28 = SURFACE_STYLE_FILL_AREA ( #275 ) ;
#29 = EDGE_CURVE ( 'NONE', #100, #168, #255, .T. ) ;
#30 = DIRECTION ( 'NONE',  ( 0.0000000000000000000, 0.0000000000000000000, -1.000000000000000000 ) ) ;
#31 = CARTESIAN_POINT ( 'NONE',  ( 0.0000000000000000000, 10.95000000000000100, -5.039999999999999100 ) ) ;
#32 = AXIS2_PLACEMENT_3D ( 'NONE', #19, #214, #216 ) ;
#33 = DIRECTION ( 'NONE',  ( 0.0000000000000000000, 0.0000000000000000000, -1.000000000000000000 ) ) ;
#34 = UNCERTAINTY_MEASURE_WITH_UNIT (LENGTH_MEASURE( 1.000000000000000100E-005 ), #22, 'distance_accuracy_value', 'NONE');
#35 = CARTESIAN_POINT ( 'NONE',  ( 0.0000000000000000000, 10.95000000000000100, 0.0000000000000000000 ) ) ;
#36 = DIRECTION ( 'NONE',  ( -0.0000000000000000000, -1.000000000000000000, -0.0000000000000000000 ) ) ;
#37 = ORIENTED_EDGE ( 'NONE', *, *, #54, .T. ) ;
#38 = DIRECTION ( 'NONE',  ( 0.0000000000000000000, 0.0000000000000000000, -1.000000000000000000 ) ) ;
#39 = EDGE_LOOP ( 'NONE', ( #224, #249, #263, #353 ) ) ;
#40 = EDGE_CURVE ( 'NONE', #363, #178, #260, .T. ) ;
#41 = CARTESIAN_POINT ( 'NONE',  ( 0.0000000000000000000, 0.0000000000000000000, 0.0000000000000000000 ) ) ;
#42 = CARTESIAN_POINT ( 'NONE',  ( 0.0000000000000000000, 1.134793366539249800, 0.0000000000000000000 ) ) ;
#43 = PRODUCT_DEFINITION ( 'UNKNOWN', '', #63, #84 ) ;
#44 = DIRECTION ( 'NONE',  ( -0.0000000000000000000, -1.000000000000000000, -0.0000000000000000000 ) ) ;
#45 = CIRCLE ( 'NONE', #209, 5.039999999999999100 ) ;
#46 = DIRECTION ( 'NONE',  ( 0.0000000000000000000, 0.0000000000000000000, -1.000000000000000000 ) ) ;
#47 = EDGE_CURVE ( 'NONE', #279, #95, #270, .T. ) ;
#48 = TOROIDAL_SURFACE ( 'NONE', #59, 3.000000000000000000, 2.236363636363635900 ) ;
#49 = DIRECTION ( 'NONE',  ( -0.0000000000000000000, -1.000000000000000000, -0.0000000000000000000 ) ) ;
#50 = CARTESIAN_POINT ( 'NONE',  ( 0.0000000000000000000, 10.95000000000000100, 0.0000000000000000000 ) ) ;
#51 = CIRCLE ( 'NONE', #334, 3.000000000000000000 ) ;
#52 = EDGE_LOOP ( 'NONE', ( #160, #159, #134, #364 ) ) ;
#53 = DIRECTION ( 'NONE',  ( -0.0000000000000000000, -1.000000000000000000, -0.0000000000000000000 ) ) ;
#54 = EDGE_CURVE ( 'NONE', #326, #256, #264, .T. ) ;
#55 = ORIENTED_EDGE ( 'NONE', *, *, #26, .F. ) ;
#56 = EDGE_CURVE ( 'NONE', #98, #178, #285, .T. ) ;
#57 = VERTEX_POINT ( 'NONE', #74 ) ;
#58 = ORIENTED_EDGE ( 'NONE', *, *, #111, .T. ) ;
#59 = AXIS2_PLACEMENT_3D ( 'NONE', #241, #346, #141 ) ;
#60 = DIRECTION ( 'NONE',  ( 0.0000000000000000000, 0.0000000000000000000, -1.000000000000000000 ) ) ;
#61 = DIRECTION ( 'NONE',  ( 0.0000000000000000000, 0.0000000000000000000, -1.000000000000000000 ) ) ;
#62 = CARTESIAN_POINT ( 'NONE',  ( 1.725462884903929700E-016, 4.027990493605469300, 1.408947368421053400 ) ) ;
#63 = PRODUCT_DEFINITION_FORMATION_WITH_SPECIFIED_SOURCE ( 'ANY', '', #371, .NOT_KNOWN. ) ;
#64 = ORIENTED_EDGE ( 'NONE', *, *, #367, .F. ) ;
#65 = DIRECTION ( 'NONE',  ( -0.0000000000000000000, 0.0000000000000000000, 1.000000000000000000 ) ) ;
#66 = EDGE_CURVE ( 'NONE', #178, #98, #297, .T. ) ;
#67 = DIRECTION ( 'NONE',  ( 1.000000000000000000, 0.0000000000000000000, -1.224646799147353200E-016 ) ) ;
#68 = DIRECTION ( 'NONE',  ( -1.224646799147353200E-016, 0.0000000000000000000, -1.000000000000000000 ) ) ;
#69 = ADVANCED_FACE ( 'NONE', ( #310 ), #315, .T. ) ;
#70 = ORIENTED_EDGE ( 'NONE', *, *, #29, .T. ) ;
#71 = AXIS2_PLACEMENT_3D ( 'NONE', #158, #177, #181 ) ;
#72 = DIRECTION ( 'NONE',  ( -0.0000000000000000000, -1.000000000000000000, -0.0000000000000000000 ) ) ;
#73 = PRESENTATION_STYLE_ASSIGNMENT (( #281 ) ) ;
#74 = CARTESIAN_POINT ( 'NONE',  ( 2.025465997325047100, 1.134793366539249800, -2.480480450405920400E-016 ) ) ;
#75 = VERTEX_POINT ( 'NONE', #284 ) ;
#76 = CARTESIAN_POINT ( 'NONE',  ( 3.673940397442059900E-016, 10.03363636363636700, 3.000000000000000000 ) ) ;
#77 = DIRECTION ( 'NONE',  ( 0.0000000000000000000, 0.0000000000000000000, -1.000000000000000000 ) ) ;
#78 = EDGE_CURVE ( 'NONE', #244, #81, #300, .T. ) ;
#79 = VECTOR ( 'NONE', #312, 1000.000000000000000 ) ;
#80 = DIRECTION ( 'NONE',  ( -0.0000000000000000000, -1.000000000000000000, -0.0000000000000000000 ) ) ;
#81 = VERTEX_POINT ( 'NONE', #295 ) ;
#82 = PRODUCT_RELATED_PRODUCT_CATEGORY ( 'part', '', ( #371 ) ) ;
#83 = DIRECTION ( 'NONE',  ( -0.0000000000000000000, -1.000000000000000000, -0.0000000000000000000 ) ) ;
#84 = PRODUCT_DEFINITION_CONTEXT ( 'detailed design', #329, 'design' ) ;
#85 = AXIS2_PLACEMENT_3D ( 'NONE', #273, #182, #258 ) ;
#86 = AXIS2_PLACEMENT_3D ( 'NONE', #356, #355, #351 ) ;
#87 = EDGE_CURVE ( 'NONE', #57, #95, #323, .T. ) ;
#88 = CARTESIAN_POINT ( 'NONE',  ( 4.923080132572359300E-016, 12.27000000000000100, 3.000000000000000000 ) ) ;
#89 = AXIS2_PLACEMENT_3D ( 'NONE', #194, #174, #118 ) ;
#90 = DIRECTION ( 'NONE',  ( -0.0000000000000000000, -1.000000000000000000, -0.0000000000000000000 ) ) ;
#91 = DIRECTION ( 'NONE',  ( 1.000000000000000000, 0.0000000000000000000, -1.224646799147353200E-016 ) ) ;
#92 = CARTESIAN_POINT ( 'NONE',  ( 3.283071624817404100E-016, 1.134793366539249800, 2.025465997325047100 ) ) ;
#93 = DIRECTION ( 'NONE',  ( -1.224646799147353200E-016, 0.0000000000000000000, -1.000000000000000000 ) ) ;
#94 = CARTESIAN_POINT ( 'NONE',  ( 1.725462884903929700E-016, 3.027990493605469300, 1.408947368421053400 ) ) ;
#95 = VERTEX_POINT ( 'NONE', #119 ) ;
#96 = ADVANCED_FACE ( 'NONE', ( #339 ), #335, .T. ) ;
#97 = DIRECTION ( 'NONE',  ( 0.0000000000000000000, 0.0000000000000000000, -1.000000000000000000 ) ) ;
#98 = VERTEX_POINT ( 'NONE', #357 ) ;
#99 = CARTESIAN_POINT ( 'NONE',  ( 0.0000000000000000000, 3.527990493605468000, 0.0000000000000000000 ) ) ;
#100 = VERTEX_POINT ( 'NONE', #337 ) ;
#101 = DIRECTION ( 'NONE',  ( -0.0000000000000000000, -1.000000000000000000, -0.0000000000000000000 ) ) ;
#102 = DIRECTION ( 'NONE',  ( 0.0000000000000000000, 0.0000000000000000000, -1.000000000000000000 ) ) ;
#103 = APPLICATION_PROTOCOL_DEFINITION ( 'draft international standard', 'automotive_design', 1998, #329 ) ;
#104 = EDGE_CURVE ( 'NONE', #57, #256, #172, .T. ) ;
#105 = DIRECTION ( 'NONE',  ( -0.0000000000000000000, -1.000000000000000000, -0.0000000000000000000 ) ) ;
#106 = AXIS2_PLACEMENT_3D ( 'NONE', #322, #317, #313 ) ;
#107 = CARTESIAN_POINT ( 'NONE',  ( 0.0000000000000000000, 10.95000000000000100, 0.0000000000000000000 ) ) ;
#108 = ORIENTED_EDGE ( 'NONE', *, *, #277, .T. ) ;
#109 = AXIS2_PLACEMENT_3D ( 'NONE', #197, #190, #163 ) ;
#110 = EDGE_CURVE ( 'NONE', #202, #81, #332, .T. ) ;
#111 = EDGE_CURVE ( 'NONE', #292, #202, #352, .T. ) ;
#112 = EDGE_CURVE ( 'NONE', #326, #100, #365, .T. ) ;
#113 = AXIS2_PLACEMENT_3D ( 'NONE', #350, #360, #348 ) ;
#114 = ORIENTED_EDGE ( 'NONE', *, *, #180, .F. ) ;
#115 = CARTESIAN_POINT ( 'NONE',  ( 0.0000000000000000000, 4.027990493605469300, -1.408947368421053400 ) ) ;
#116 = DIRECTION ( 'NONE',  ( -1.000000000000000000, 0.0000000000000000000, 0.0000000000000000000 ) ) ;
#117 = DIRECTION ( 'NONE',  ( 0.0000000000000000000, 0.0000000000000000000, 1.000000000000000000 ) ) ;
#118 = DIRECTION ( 'NONE',  ( -1.000000000000000000, 0.0000000000000000000, 0.0000000000000000000 ) ) ;
#119 = CARTESIAN_POINT ( 'NONE',  ( -1.454268073987481600E-016, 4.336808689942017700E-016, 0.0000000000000000000 ) ) ;
#120 = PRESENTATION_STYLE_ASSIGNMENT (( #219 ) ) ;
#121 = CARTESIAN_POINT ( 'NONE',  ( -2.025465997325047100, 1.134793366539249800, 0.0000000000000000000 ) ) ;
#122 = STYLED_ITEM ( 'NONE', ( #120 ), #345 ) ;
#123 = SURFACE_STYLE_FILL_AREA ( #210 ) ;
#124 = FACE_OUTER_BOUND ( 'NONE', #354, .T. ) ;
#125 = CIRCLE ( 'NONE', #347, 3.000000000000000000 ) ;
#126 = CARTESIAN_POINT ( 'NONE',  ( 0.0000000000000000000, 0.0000000000000000000, 0.0000000000000000000 ) ) ;
#127 = CARTESIAN_POINT ( 'NONE',  ( 0.0000000000000000000, 12.27000000000000100, 0.0000000000000000000 ) ) ;
#128 = DIRECTION ( 'NONE',  ( -0.0000000000000000000, -1.000000000000000000, -0.0000000000000000000 ) ) ;
#129 = EDGE_CURVE ( 'NONE', #256, #279, #328, .T. ) ;
#130 = AXIS2_PLACEMENT_3D ( 'NONE', #107, #83, #77 ) ;
#131 = FACE_BOUND ( 'NONE', #228, .T. ) ;
#132 = ORIENTED_EDGE ( 'NONE', *, *, #66, .F. ) ;
#133 = DIRECTION ( 'NONE',  ( 0.0000000000000000000, 0.0000000000000000000, -1.000000000000000000 ) ) ;
#134 = ORIENTED_EDGE ( 'NONE', *, *, #237, .T. ) ;
#135 = AXIS2_PLACEMENT_3D ( 'NONE', #358, #90, #61 ) ;
#136 = TOROIDAL_SURFACE ( 'NONE', #109, 1.408947368421053400, 1.991052631578946300 ) ;
#137 = FACE_OUTER_BOUND ( 'NONE', #183, .T. ) ;
#138 = ORIENTED_EDGE ( 'NONE', *, *, #47, .F. ) ;
#139 = CARTESIAN_POINT ( 'NONE',  ( 0.0000000000000000000, 3.027990493605469300, 0.0000000000000000000 ) ) ;
#140 = SPHERICAL_SURFACE ( 'NONE', #85, 2.374999999999999600 ) ;
#141 = DIRECTION ( 'NONE',  ( 0.0000000000000000000, 0.0000000000000000000, -1.000000000000000000 ) ) ;
#142 = LINE ( 'NONE', #327, #79 ) ;
#143 = ORIENTED_EDGE ( 'NONE', *, *, #324, .T. ) ;
#144 = ORIENTED_EDGE ( 'NONE', *, *, #40, .F. ) ;
#145 = DIRECTION ( 'NONE',  ( 0.0000000000000000000, 0.0000000000000000000, -1.000000000000000000 ) ) ;
#146 = PRESENTATION_LAYER_ASSIGNMENT (  '', '', ( #122 ) ) ;
#147 = COLOUR_RGB ( '',0.7921568627450980000, 0.8196078431372548800, 0.9333333333333333500 ) ;
#148 = ORIENTED_EDGE ( 'NONE', *, *, #26, .T. ) ;
#149 = DIRECTION ( 'NONE',  ( -0.0000000000000000000, -1.000000000000000000, -0.0000000000000000000 ) ) ;
#150 = CARTESIAN_POINT ( 'NONE',  ( 0.0000000000000000000, 12.27000000000000100, -3.000000000000000000 ) ) ;
#151 = DIRECTION ( 'NONE',  ( 1.000000000000000000, 0.0000000000000000000, 0.0000000000000000000 ) ) ;
#152 = CARTESIAN_POINT ( 'NONE',  ( 0.0000000000000000000, 10.03363636363636700, 0.0000000000000000000 ) ) ;
#153 = DIRECTION ( 'NONE',  ( 0.0000000000000000000, 0.0000000000000000000, -1.000000000000000000 ) ) ;
#154 = FACE_OUTER_BOUND ( 'NONE', #199, .T. ) ;
#155 = FACE_OUTER_BOUND ( 'NONE', #303, .T. ) ;
#156 = AXIS2_PLACEMENT_3D ( 'NONE', #311, #308, #305 ) ;
#157 = AXIS2_PLACEMENT_3D ( 'NONE', #50, #1, #3 ) ;
#158 = CARTESIAN_POINT ( 'NONE',  ( 3.000000000000000000, 12.27000000000000100, 0.0000000000000000000 ) ) ;
#159 = ORIENTED_EDGE ( 'NONE', *, *, #66, .T. ) ;
#160 = ORIENTED_EDGE ( 'NONE', *, *, #204, .F. ) ;
#161 = FACE_OUTER_BOUND ( 'NONE', #213, .T. ) ;
#162 = TOROIDAL_SURFACE ( 'NONE', #12, 3.000000000000000000, 2.236363636363635900 ) ;
#163 = DIRECTION ( 'NONE',  ( 0.0000000000000000000, 0.0000000000000000000, -1.000000000000000000 ) ) ;
#164 = PLANE ( 'NONE',  #71 ) ;
#165 = CARTESIAN_POINT ( 'NONE',  ( 0.0000000000000000000, 12.27000000000000100, 0.0000000000000000000 ) ) ;
#166 = MECHANICAL_DESIGN_GEOMETRIC_PRESENTATION_REPRESENTATION (  '', ( #122 ), #189 ) ;
#167 = ORIENTED_EDGE ( 'NONE', *, *, #29, .F. ) ;
#168 = VERTEX_POINT ( 'NONE', #10 ) ;
#169 = ORIENTED_EDGE ( 'NONE', *, *, #104, .T. ) ;
#170 = DIRECTION ( 'NONE',  ( -0.0000000000000000000, -1.000000000000000000, -0.0000000000000000000 ) ) ;
#171 = EDGE_LOOP ( 'NONE', ( #184, #179, #70, #187, #188 ) ) ;
#172 = CIRCLE ( 'NONE', #106, 2.025465997325047100 ) ;
#173 = ORIENTED_EDGE ( 'NONE', *, *, #78, .F. ) ;
#174 = DIRECTION ( 'NONE',  ( -0.0000000000000000000, -0.0000000000000000000, -1.000000000000000000 ) ) ;
#175 = AXIS2_PLACEMENT_3D ( 'NONE', #344, #2, #6 ) ;
#176 = DIRECTION ( 'NONE',  ( 0.0000000000000000000, 0.0000000000000000000, -1.000000000000000000 ) ) ;
#177 = DIRECTION ( 'NONE',  ( 0.0000000000000000000, 1.000000000000000000, 0.0000000000000000000 ) ) ;
#178 = VERTEX_POINT ( 'NONE', #298 ) ;
#179 = ORIENTED_EDGE ( 'NONE', *, *, #112, .T. ) ;
#180 = EDGE_CURVE ( 'NONE', #75, #363, #243, .T. ) ;
#181 = DIRECTION ( 'NONE',  ( 0.0000000000000000000, -0.0000000000000000000, 1.000000000000000000 ) ) ;
#182 = DIRECTION ( 'NONE',  ( -0.0000000000000000000, -0.0000000000000000000, -1.000000000000000000 ) ) ;
#183 = EDGE_LOOP ( 'NONE', ( #314, #330, #338, #248 ) ) ;
#184 = ORIENTED_EDGE ( 'NONE', *, *, #54, .F. ) ;
#185 = ORIENTED_EDGE ( 'NONE', *, *, #47, .T. ) ;
#186 = CARTESIAN_POINT ( 'NONE',  ( 4.085662799228888800E-016, 3.527990493605468000, 3.336196854532658600 ) ) ;
#187 = ORIENTED_EDGE ( 'NONE', *, *, #20, .F. ) ;
#188 = ORIENTED_EDGE ( 'NONE', *, *, #129, .F. ) ;
#189 =( GEOMETRIC_REPRESENTATION_CONTEXT ( 3 ) GLOBAL_UNCERTAINTY_ASSIGNED_CONTEXT ( ( #291 ) ) GLOBAL_UNIT_ASSIGNED_CONTEXT ( ( #222, #229, #230 ) ) REPRESENTATION_CONTEXT ( 'NONE', 'WORKASPACE' ) );
#190 = DIRECTION ( 'NONE',  ( -0.0000000000000000000, -1.000000000000000000, -0.0000000000000000000 ) ) ;
#191 = CIRCLE ( 'NONE', #306, 3.336196854532658600 ) ;
#192 = CYLINDRICAL_SURFACE ( 'NONE', #325, 2.490000000000000200 ) ;
#193 = ORIENTED_EDGE ( 'NONE', *, *, #129, .T. ) ;
#194 = CARTESIAN_POINT ( 'NONE',  ( 0.0000000000000000000, 2.375000000000000000, 0.0000000000000000000 ) ) ;
#195 = EDGE_CURVE ( 'NONE', #168, #57, #372, .T. ) ;
#196 = AXIS2_PLACEMENT_3D ( 'NONE', #13, #21, #27 ) ;
#197 = CARTESIAN_POINT ( 'NONE',  ( 0.0000000000000000000, 4.027990493605469300, 0.0000000000000000000 ) ) ;
#198 = FACE_OUTER_BOUND ( 'NONE', #227, .T. ) ;
#199 = EDGE_LOOP ( 'NONE', ( #207, #169, #193, #185 ) ) ;
#200 = EDGE_LOOP ( 'NONE', ( #144, #148, #143, #132 ) ) ;
#201 = CIRCLE ( 'NONE', #135, 2.025465997325047100 ) ;
#202 = VERTEX_POINT ( 'NONE', #31 ) ;
#203 = ORIENTED_EDGE ( 'NONE', *, *, #110, .T. ) ;
#204 = EDGE_CURVE ( 'NONE', #178, #326, #211, .T. ) ;
#205 = CARTESIAN_POINT ( 'NONE',  ( 3.049370529876908900E-016, 10.95000000000000100, 2.489999999999999800 ) ) ;
#206 = FILL_AREA_STYLE_COLOUR ( '', #147 ) ;
#207 = ORIENTED_EDGE ( 'NONE', *, *, #87, .F. ) ;
#208 = ORIENTED_EDGE ( 'NONE', *, *, #367, .T. ) ;
#209 = AXIS2_PLACEMENT_3D ( 'NONE', #251, #252, #254 ) ;
#210 = FILL_AREA_STYLE ('',( #206 ) ) ;
#211 = CIRCLE ( 'NONE', #259, 1.991052631578946300 ) ;
#212 = FACE_OUTER_BOUND ( 'NONE', #333, .T. ) ;
#213 = EDGE_LOOP ( 'NONE', ( #267, #287, #271, #370 ) ) ;
#214 = DIRECTION ( 'NONE',  ( -1.000000000000000000, 0.0000000000000000000, 0.0000000000000000000 ) ) ;
#215 = SURFACE_SIDE_STYLE ('',( #123 ) ) ;
#216 = DIRECTION ( 'NONE',  ( 0.0000000000000000000, 0.0000000000000000000, 1.000000000000000000 ) ) ;
#217 = CARTESIAN_POINT ( 'NONE',  ( 0.0000000000000000000, 4.027990493605469300, 0.0000000000000000000 ) ) ;
#218 = ADVANCED_FACE ( 'NONE', ( #343 ), #192, .T. ) ;
#219 = SURFACE_STYLE_USAGE ( .BOTH. , #215 ) ;
#220 = EDGE_CURVE ( 'NONE', #100, #326, #191, .T. ) ;
#221 = AXIS2_PLACEMENT_3D ( 'NONE', #35, #36, #38 ) ;
#222 =( LENGTH_UNIT ( ) NAMED_UNIT ( * ) SI_UNIT ( .MILLI., .METRE. ) );
#223 = SPHERICAL_SURFACE ( 'NONE', #89, 2.374999999999999600 ) ;
#224 = ORIENTED_EDGE ( 'NONE', *, *, #180, .T. ) ;
#225 = ORIENTED_EDGE ( 'NONE', *, *, #87, .T. ) ;
#226 = FACE_OUTER_BOUND ( 'NONE', #39, .T. ) ;
#227 = EDGE_LOOP ( 'NONE', ( #173, #108, #58, #64 ) ) ;
#228 = EDGE_LOOP ( 'NONE', ( #114, #55 ) ) ;
#229 =( NAMED_UNIT ( * ) PLANE_ANGLE_UNIT ( ) SI_UNIT ( $, .RADIAN. ) );
#230 =( NAMED_UNIT ( * ) SI_UNIT ( $, .STERADIAN. ) SOLID_ANGLE_UNIT ( ) );
#231 = AXIS2_PLACEMENT_3D ( 'NONE', #238, #240, #245 ) ;
#232 = CIRCLE ( 'NONE', #157, 2.489999999999999800 ) ;
#233 = ORIENTED_EDGE ( 'NONE', *, *, #20, .T. ) ;
#234 = ORIENTED_EDGE ( 'NONE', *, *, #195, .T. ) ;
#235 = CLOSED_SHELL ( 'NONE', ( #294, #17, #340, #96, #18, #336, #282, #69, #218, #361, #14, #319 ) ) ;
#236 = CYLINDRICAL_SURFACE ( 'NONE', #15, 2.490000000000000200 ) ;
#237 = EDGE_CURVE ( 'NONE', #98, #100, #290, .T. ) ;
#238 = CARTESIAN_POINT ( 'NONE',  ( 2.489999999999999800, 10.95000000000000100, 0.0000000000000000000 ) ) ;
#239 = AXIS2_PLACEMENT_3D ( 'NONE', #42, #44, #46 ) ;
#240 = DIRECTION ( 'NONE',  ( 0.0000000000000000000, -1.000000000000000000, -0.0000000000000000000 ) ) ;
#241 = CARTESIAN_POINT ( 'NONE',  ( 0.0000000000000000000, 10.03363636363636700, 0.0000000000000000000 ) ) ;
#242 = SHAPE_DEFINITION_REPRESENTATION ( #266, #286 ) ;
#243 = CIRCLE ( 'NONE', #221, 2.489999999999999800 ) ;
#244 = VERTEX_POINT ( 'NONE', #88 ) ;
#245 = DIRECTION ( 'NONE',  ( 0.0000000000000000000, 0.0000000000000000000, -1.000000000000000000 ) ) ;
#246 = AXIS2_PLACEMENT_3D ( 'NONE', #94, #91, #93 ) ;
#247 = FILL_AREA_STYLE_COLOUR ( '', #4 ) ;
#248 = ORIENTED_EDGE ( 'NONE', *, *, #237, .F. ) ;
#249 = ORIENTED_EDGE ( 'NONE', *, *, #40, .T. ) ;
#250 = CARTESIAN_POINT ( 'NONE',  ( 0.0000000000000000000, 0.0000000000000000000, 0.0000000000000000000 ) ) ;
#251 = CARTESIAN_POINT ( 'NONE',  ( 0.0000000000000000000, 10.95000000000000100, 0.0000000000000000000 ) ) ;
#252 = DIRECTION ( 'NONE',  ( -0.0000000000000000000, -1.000000000000000000, -0.0000000000000000000 ) ) ;
#253 =( GEOMETRIC_REPRESENTATION_CONTEXT ( 3 ) GLOBAL_UNCERTAINTY_ASSIGNED_CONTEXT ( ( #34 ) ) GLOBAL_UNIT_ASSIGNED_CONTEXT ( ( #22, #262, #265 ) ) REPRESENTATION_CONTEXT ( 'NONE', 'WORKASPACE' ) );
#254 = DIRECTION ( 'NONE',  ( 0.0000000000000000000, 0.0000000000000000000, -1.000000000000000000 ) ) ;
#255 = CIRCLE ( 'NONE', #32, 1.991052631578946300 ) ;
#256 = VERTEX_POINT ( 'NONE', #92 ) ;
#257 = ORIENTED_EDGE ( 'NONE', *, *, #304, .F. ) ;
#258 = DIRECTION ( 'NONE',  ( -1.000000000000000000, 0.0000000000000000000, 0.0000000000000000000 ) ) ;
#259 = AXIS2_PLACEMENT_3D ( 'NONE', #62, #67, #68 ) ;
#260 = LINE ( 'NONE', #5, #272 ) ;
#261 = CARTESIAN_POINT ( 'NONE',  ( 0.0000000000000000000, 5.700000000000000200, 0.0000000000000000000 ) ) ;
#262 =( NAMED_UNIT ( * ) PLANE_ANGLE_UNIT ( ) SI_UNIT ( $, .RADIAN. ) );
#263 = ORIENTED_EDGE ( 'NONE', *, *, #56, .F. ) ;
#264 = CIRCLE ( 'NONE', #246, 1.991052631578946300 ) ;
#265 =( NAMED_UNIT ( * ) SI_UNIT ( $, .STERADIAN. ) SOLID_ANGLE_UNIT ( ) );
#266 = PRODUCT_DEFINITION_SHAPE ( 'NONE', 'NONE',  #43 ) ;
#267 = ORIENTED_EDGE ( 'NONE', *, *, #304, .T. ) ;
#268 = ORIENTED_EDGE ( 'NONE', *, *, #277, .F. ) ;
#269 = APPLICATION_PROTOCOL_DEFINITION ( 'draft international standard', 'automotive_design', 1998, #274 ) ;
#270 = CIRCLE ( 'NONE', #283, 2.374999999999999600 ) ;
#271 = ORIENTED_EDGE ( 'NONE', *, *, #110, .F. ) ;
#272 = VECTOR ( 'NONE', #7, 1000.000000000000000 ) ;
#273 = CARTESIAN_POINT ( 'NONE',  ( 0.0000000000000000000, 2.375000000000000000, 0.0000000000000000000 ) ) ;
#274 = APPLICATION_CONTEXT ( 'automotive_design' ) ;
#275 = FILL_AREA_STYLE ('',( #247 ) ) ;
#276 = SURFACE_SIDE_STYLE ('',( #28 ) ) ;
#277 = EDGE_CURVE ( 'NONE', #244, #292, #51, .T. ) ;
#278 = AXIS2_PLACEMENT_3D ( 'NONE', #115, #116, #117 ) ;
#279 = VERTEX_POINT ( 'NONE', #121 ) ;
#280 = PLANE ( 'NONE',  #231 ) ;
#281 = SURFACE_STYLE_USAGE ( .BOTH. , #276 ) ;
#282 = ADVANCED_FACE ( 'NONE', ( #369 ), #359, .T. ) ;
#283 = AXIS2_PLACEMENT_3D ( 'NONE', #302, #65, #151 ) ;
#284 = CARTESIAN_POINT ( 'NONE',  ( 0.0000000000000000000, 10.95000000000000100, -2.489999999999999800 ) ) ;
#285 = CIRCLE ( 'NONE', #25, 2.490000000000000200 ) ;
#286 = ADVANCED_BREP_SHAPE_REPRESENTATION ( '0BS01-00618MIDG_05_25mm', ( #345, #24 ), #253 ) ;
#287 = ORIENTED_EDGE ( 'NONE', *, *, #78, .T. ) ;
#288 =( LENGTH_UNIT ( ) NAMED_UNIT ( * ) SI_UNIT ( .MILLI., .METRE. ) );
#289 =( NAMED_UNIT ( * ) PLANE_ANGLE_UNIT ( ) SI_UNIT ( $, .RADIAN. ) );
#290 = CIRCLE ( 'NONE', #278, 1.991052631578946300 ) ;
#291 = UNCERTAINTY_MEASURE_WITH_UNIT (LENGTH_MEASURE( 1.000000000000000100E-005 ), #222, 'distance_accuracy_value', 'NONE');
#292 = VERTEX_POINT ( 'NONE', #150 ) ;
#293 =( NAMED_UNIT ( * ) SI_UNIT ( $, .STERADIAN. ) SOLID_ANGLE_UNIT ( ) );
#294 = ADVANCED_FACE ( 'NONE', ( #161 ), #162, .T. ) ;
#295 = CARTESIAN_POINT ( 'NONE',  ( 6.172219867702660300E-016, 10.95000000000000100, 5.039999999999999100 ) ) ;
#296 = STYLED_ITEM ( 'NONE', ( #73 ), #286 ) ;
#297 = CIRCLE ( 'NONE', #362, 2.490000000000000200 ) ;
#298 = CARTESIAN_POINT ( 'NONE',  ( 3.567516664552899300E-016, 5.700000000000000200, 2.490000000000000200 ) ) ;
#299 = ORIENTED_EDGE ( 'NONE', *, *, #104, .F. ) ;
#300 = CIRCLE ( 'NONE', #349, 2.236363636363635900 ) ;
#301 = DIRECTION ( 'NONE',  ( 1.000000000000000000, 0.0000000000000000000, -1.224646799147353200E-016 ) ) ;
#302 = CARTESIAN_POINT ( 'NONE',  ( 0.0000000000000000000, 2.375000000000000000, 0.0000000000000000000 ) ) ;
#303 = EDGE_LOOP ( 'NONE', ( #257, #268 ) ) ;
#304 = EDGE_CURVE ( 'NONE', #292, #244, #125, .T. ) ;
#305 = DIRECTION ( 'NONE',  ( 0.0000000000000000000, 0.0000000000000000000, 1.000000000000000000 ) ) ;
#306 = AXIS2_PLACEMENT_3D ( 'NONE', #99, #101, #102 ) ;
#307 = DIRECTION ( 'NONE',  ( 0.0000000000000000000, 0.0000000000000000000, 1.000000000000000000 ) ) ;
#308 = DIRECTION ( 'NONE',  ( -1.000000000000000000, 0.0000000000000000000, 0.0000000000000000000 ) ) ;
#309 = ORIENTED_EDGE ( 'NONE', *, *, #195, .F. ) ;
#310 = FACE_OUTER_BOUND ( 'NONE', #52, .T. ) ;
#311 = CARTESIAN_POINT ( 'NONE',  ( 0.0000000000000000000, 10.03363636363636700, -3.000000000000000000 ) ) ;
#312 = DIRECTION ( 'NONE',  ( -0.0000000000000000000, -1.000000000000000000, -0.0000000000000000000 ) ) ;
#313 = DIRECTION ( 'NONE',  ( 0.0000000000000000000, 0.0000000000000000000, -1.000000000000000000 ) ) ;
#314 = ORIENTED_EDGE ( 'NONE', *, *, #56, .T. ) ;
#315 = TOROIDAL_SURFACE ( 'NONE', #366, 1.408947368421053400, 1.991052631578946300 ) ;
#316 = DIRECTION ( 'NONE',  ( 1.000000000000000000, 0.0000000000000000000, 0.0000000000000000000 ) ) ;
#317 = DIRECTION ( 'NONE',  ( -0.0000000000000000000, -1.000000000000000000, -0.0000000000000000000 ) ) ;
#318 = PRESENTATION_LAYER_ASSIGNMENT (  '', '', ( #296 ) ) ;
#319 = ADVANCED_FACE ( 'NONE', ( #155 ), #164, .T. ) ;
#320 = EDGE_LOOP ( 'NONE', ( #342, #37, #299, #309, #167 ) ) ;
#321 = PRODUCT_CONTEXT ( 'NONE', #274, 'mechanical' ) ;
#322 = CARTESIAN_POINT ( 'NONE',  ( 0.0000000000000000000, 1.134793366539249800, 0.0000000000000000000 ) ) ;
#323 = CIRCLE ( 'NONE', #86, 2.374999999999999600 ) ;
#324 = EDGE_CURVE ( 'NONE', #75, #98, #142, .T. ) ;
#325 = AXIS2_PLACEMENT_3D ( 'NONE', #41, #49, #33 ) ;
#326 = VERTEX_POINT ( 'NONE', #186 ) ;
#327 = CARTESIAN_POINT ( 'NONE',  ( 0.0000000000000000000, 0.0000000000000000000, -2.490000000000000200 ) ) ;
#328 = CIRCLE ( 'NONE', #196, 2.025465997325047100 ) ;
#329 = APPLICATION_CONTEXT ( 'automotive_design' ) ;
#330 = ORIENTED_EDGE ( 'NONE', *, *, #204, .T. ) ;
#331 = MECHANICAL_DESIGN_GEOMETRIC_PRESENTATION_REPRESENTATION (  '', ( #296 ), #341 ) ;
#332 = CIRCLE ( 'NONE', #130, 5.039999999999999100 ) ;
#333 = EDGE_LOOP ( 'NONE', ( #233, #234, #225, #138 ) ) ;
#334 = AXIS2_PLACEMENT_3D ( 'NONE', #127, #128, #133 ) ;
#335 = TOROIDAL_SURFACE ( 'NONE', #113, 1.408947368421053400, 1.991052631578946300 ) ;
#336 = ADVANCED_FACE ( 'NONE', ( #154 ), #140, .T. ) ;
#337 = CARTESIAN_POINT ( 'NONE',  ( 0.0000000000000000000, 3.527990493605468000, -3.336196854532658600 ) ) ;
#338 = ORIENTED_EDGE ( 'NONE', *, *, #220, .F. ) ;
#339 = FACE_OUTER_BOUND ( 'NONE', #320, .T. ) ;
#340 = ADVANCED_FACE ( 'NONE', ( #137 ), #136, .T. ) ;
#341 =( GEOMETRIC_REPRESENTATION_CONTEXT ( 3 ) GLOBAL_UNCERTAINTY_ASSIGNED_CONTEXT ( ( #11 ) ) GLOBAL_UNIT_ASSIGNED_CONTEXT ( ( #288, #289, #293 ) ) REPRESENTATION_CONTEXT ( 'NONE', 'WORKASPACE' ) );
#342 = ORIENTED_EDGE ( 'NONE', *, *, #220, .T. ) ;
#343 = FACE_OUTER_BOUND ( 'NONE', #200, .T. ) ;
#344 = CARTESIAN_POINT ( 'NONE',  ( 0.0000000000000000000, 3.527990493605468000, 0.0000000000000000000 ) ) ;
#345 = MANIFOLD_SOLID_BREP ( 'Revolve1', #235 ) ;
#346 = DIRECTION ( 'NONE',  ( -0.0000000000000000000, -1.000000000000000000, -0.0000000000000000000 ) ) ;
#347 = AXIS2_PLACEMENT_3D ( 'NONE', #165, #170, #176 ) ;
#348 = DIRECTION ( 'NONE',  ( 0.0000000000000000000, 0.0000000000000000000, -1.000000000000000000 ) ) ;
#349 = AXIS2_PLACEMENT_3D ( 'NONE', #76, #301, #8 ) ;
#350 = CARTESIAN_POINT ( 'NONE',  ( 0.0000000000000000000, 3.027990493605469300, 0.0000000000000000000 ) ) ;
#351 = DIRECTION ( 'NONE',  ( -1.000000000000000000, 0.0000000000000000000, 1.224646799147353200E-016 ) ) ;
#352 = CIRCLE ( 'NONE', #156, 2.236363636363635900 ) ;
#353 = ORIENTED_EDGE ( 'NONE', *, *, #324, .F. ) ;
#354 = EDGE_LOOP ( 'NONE', ( #203, #208 ) ) ;
#355 = DIRECTION ( 'NONE',  ( -1.224646799147353200E-016, 0.0000000000000000000, -1.000000000000000000 ) ) ;
#356 = CARTESIAN_POINT ( 'NONE',  ( 0.0000000000000000000, 2.375000000000000000, 0.0000000000000000000 ) ) ;
#357 = CARTESIAN_POINT ( 'NONE',  ( 0.0000000000000000000, 5.700000000000000200, -2.490000000000000200 ) ) ;
#358 = CARTESIAN_POINT ( 'NONE',  ( 0.0000000000000000000, 1.134793366539249800, 0.0000000000000000000 ) ) ;
#359 = TOROIDAL_SURFACE ( 'NONE', #368, 1.408947368421053400, 1.991052631578946300 ) ;
#360 = DIRECTION ( 'NONE',  ( -0.0000000000000000000, -1.000000000000000000, -0.0000000000000000000 ) ) ;
#361 = ADVANCED_FACE ( 'NONE', ( #124, #131 ), #280, .T. ) ;
#362 = AXIS2_PLACEMENT_3D ( 'NONE', #261, #9, #23 ) ;
#363 = VERTEX_POINT ( 'NONE', #205 ) ;
#364 = ORIENTED_EDGE ( 'NONE', *, *, #112, .F. ) ;
#365 = CIRCLE ( 'NONE', #175, 3.336196854532658600 ) ;
#366 = AXIS2_PLACEMENT_3D ( 'NONE', #217, #53, #30 ) ;
#367 = EDGE_CURVE ( 'NONE', #81, #202, #45, .T. ) ;
#368 = AXIS2_PLACEMENT_3D ( 'NONE', #139, #80, #145 ) ;
#369 = FACE_OUTER_BOUND ( 'NONE', #171, .T. ) ;
#370 = ORIENTED_EDGE ( 'NONE', *, *, #111, .F. ) ;
#371 = PRODUCT ( '0BS01-00618MIDG_05_25mm', '0BS01-00618MIDG_05_25mm', '', ( #321 ) ) ;
#372 = CIRCLE ( 'NONE', #239, 2.025465997325047100 ) ;
ENDSEC;
END-ISO-10303-21;
