ISO-10303-21;
HEADER;
FILE_DESCRIPTION (( 'STEP AP214' ),
    '1' );
FILE_NAME ('0BS01-00618MAXG_09_00mm.STEP',
    '2016-04-29T12:13:06',
    ( '' ),
    ( '' ),
    'SwSTEP 2.0',
    'SolidWorks 2015',
    '' );
FILE_SCHEMA (( 'AUTOMOTIVE_DESIGN' ));
ENDSEC;

DATA;
#1 = DIRECTION ( 'NONE',  ( -0.0000000000000000000, -0.0000000000000000000, -1.000000000000000000 ) ) ;
#2 = DIRECTION ( 'NONE',  ( -1.000000000000000000, 0.0000000000000000000, 0.0000000000000000000 ) ) ;
#3 = DIRECTION ( 'NONE',  ( -0.0000000000000000000, -1.000000000000000000, -0.0000000000000000000 ) ) ;
#4 = EDGE_LOOP ( 'NONE', ( #249, #285, #266, #298 ) ) ;
#5 = DIRECTION ( 'NONE',  ( -0.0000000000000000000, -1.000000000000000000, -0.0000000000000000000 ) ) ;
#6 = DIRECTION ( 'NONE',  ( -0.0000000000000000000, -0.0000000000000000000, -1.000000000000000000 ) ) ;
#7 = CARTESIAN_POINT ( 'NONE',  ( -1.853790199197542700, 0.8903832489968555000, 0.0000000000000000000 ) ) ;
#8 = EDGE_CURVE ( 'NONE', #72, #46, #117, .T. ) ;
#9 = DIRECTION ( 'NONE',  ( 0.0000000000000000000, 0.0000000000000000000, -1.000000000000000000 ) ) ;
#10 = ORIENTED_EDGE ( 'NONE', *, *, #20, .T. ) ;
#11 = VERTEX_POINT ( 'NONE', #261 ) ;
#12 = DIRECTION ( 'NONE',  ( -0.0000000000000000000, -1.000000000000000000, -0.0000000000000000000 ) ) ;
#13 = PRESENTATION_LAYER_ASSIGNMENT (  '', '', ( #317 ) ) ;
#14 = DIRECTION ( 'NONE',  ( -0.0000000000000000000, -1.000000000000000000, -0.0000000000000000000 ) ) ;
#15 = ORIENTED_EDGE ( 'NONE', *, *, #149, .T. ) ;
#16 = AXIS2_PLACEMENT_3D ( 'NONE', #274, #330, #288 ) ;
#17 = AXIS2_PLACEMENT_3D ( 'NONE', #19, #3, #9 ) ;
#18 = VERTEX_POINT ( 'NONE', #159 ) ;
#19 = CARTESIAN_POINT ( 'NONE',  ( 0.0000000000000000000, 0.0000000000000000000, 0.0000000000000000000 ) ) ;
#20 = EDGE_CURVE ( 'NONE', #11, #99, #197, .T. ) ;
#21 = CARTESIAN_POINT ( 'NONE',  ( 0.0000000000000000000, 13.78363636363636300, -3.000000000000000000 ) ) ;
#22 = CIRCLE ( 'NONE', #243, 2.375000000000000000 ) ;
#23 = AXIS2_PLACEMENT_3D ( 'NONE', #237, #162, #345 ) ;
#24 = EDGE_CURVE ( 'NONE', #291, #362, #64, .T. ) ;
#25 = DIRECTION ( 'NONE',  ( -1.000000000000000000, 0.0000000000000000000, 0.0000000000000000000 ) ) ;
#26 = EDGE_LOOP ( 'NONE', ( #316, #15, #306, #39 ) ) ;
#27 =( NAMED_UNIT ( * ) SI_UNIT ( $, .STERADIAN. ) SOLID_ANGLE_UNIT ( ) );
#28 = DIRECTION ( 'NONE',  ( 0.0000000000000000000, 0.0000000000000000000, 1.000000000000000000 ) ) ;
#29 = MECHANICAL_DESIGN_GEOMETRIC_PRESENTATION_REPRESENTATION (  '', ( #317 ), #55 ) ;
#30 = CARTESIAN_POINT ( 'NONE',  ( -1.454268073987481900E-016, 0.0000000000000000000, 0.0000000000000000000 ) ) ;
#31 = EDGE_CURVE ( 'NONE', #290, #258, #128, .T. ) ;
#32 = ORIENTED_EDGE ( 'NONE', *, *, #304, .F. ) ;
#33 = ADVANCED_FACE ( 'NONE', ( #209 ), #198, .T. ) ;
#34 = AXIS2_PLACEMENT_3D ( 'NONE', #314, #308, #343 ) ;
#35 = CARTESIAN_POINT ( 'NONE',  ( 3.049370529876909900E-016, 14.69999999999999900, 2.490000000000000700 ) ) ;
#36 = CARTESIAN_POINT ( 'NONE',  ( 0.0000000000000000000, 2.375000000000000000, 0.0000000000000000000 ) ) ;
#37 =( LENGTH_UNIT ( ) NAMED_UNIT ( * ) SI_UNIT ( .MILLI., .METRE. ) );
#38 = ORIENTED_EDGE ( 'NONE', *, *, #199, .T. ) ;
#39 = ORIENTED_EDGE ( 'NONE', *, *, #91, .F. ) ;
#40 = FILL_AREA_STYLE ('',( #293 ) ) ;
#41 = CARTESIAN_POINT ( 'NONE',  ( 0.0000000000000000000, 5.700000000000000200, -2.490000000000000200 ) ) ;
#42 = EDGE_CURVE ( 'NONE', #370, #163, #119, .T. ) ;
#43 = CARTESIAN_POINT ( 'NONE',  ( 2.490000000000000700, 14.69999999999999900, 0.0000000000000000000 ) ) ;
#44 = CARTESIAN_POINT ( 'NONE',  ( 0.0000000000000000000, 5.700000000000000200, 0.0000000000000000000 ) ) ;
#45 = DIRECTION ( 'NONE',  ( -0.0000000000000000000, -1.000000000000000000, -0.0000000000000000000 ) ) ;
#46 = VERTEX_POINT ( 'NONE', #7 ) ;
#47 = DIRECTION ( 'NONE',  ( 0.0000000000000000000, 0.0000000000000000000, -1.000000000000000000 ) ) ;
#48 = EDGE_CURVE ( 'NONE', #356, #235, #196, .T. ) ;
#49 = ORIENTED_EDGE ( 'NONE', *, *, #268, .T. ) ;
#50 = ORIENTED_EDGE ( 'NONE', *, *, #57, .T. ) ;
#51 = PRESENTATION_STYLE_ASSIGNMENT (( #242 ) ) ;
#52 = UNCERTAINTY_MEASURE_WITH_UNIT (LENGTH_MEASURE( 1.000000000000000100E-005 ), #37, 'distance_accuracy_value', 'NONE');
#53 = DIRECTION ( 'NONE',  ( 0.0000000000000000000, -1.000000000000000000, -0.0000000000000000000 ) ) ;
#54 = DIRECTION ( 'NONE',  ( 1.000000000000000000, 0.0000000000000000000, -1.224646799147353200E-016 ) ) ;
#55 =( GEOMETRIC_REPRESENTATION_CONTEXT ( 3 ) GLOBAL_UNCERTAINTY_ASSIGNED_CONTEXT ( ( #348 ) ) GLOBAL_UNIT_ASSIGNED_CONTEXT ( ( #244, #245, #246 ) ) REPRESENTATION_CONTEXT ( 'NONE', 'WORKASPACE' ) );
#56 = COLOUR_RGB ( '',0.7921568627450980000, 0.8196078431372548800, 0.9333333333333333500 ) ;
#57 = EDGE_CURVE ( 'NONE', #258, #291, #208, .T. ) ;
#58 = DIRECTION ( 'NONE',  ( 0.0000000000000000000, 0.0000000000000000000, -1.000000000000000000 ) ) ;
#59 = AXIS2_PLACEMENT_3D ( 'NONE', #76, #79, #80 ) ;
#60 = EDGE_CURVE ( 'NONE', #82, #370, #190, .T. ) ;
#61 = AXIS2_PLACEMENT_3D ( 'NONE', #68, #74, #248 ) ;
#62 = DIRECTION ( 'NONE',  ( 0.0000000000000000000, 0.0000000000000000000, -1.000000000000000000 ) ) ;
#63 = CARTESIAN_POINT ( 'NONE',  ( 2.074487222660925400E-016, 3.875009372771005100, 1.693947368421053500 ) ) ;
#64 = CIRCLE ( 'NONE', #92, 1.991052631578946300 ) ;
#65 = EDGE_LOOP ( 'NONE', ( #189, #307 ) ) ;
#66 = ORIENTED_EDGE ( 'NONE', *, *, #155, .F. ) ;
#67 = DIRECTION ( 'NONE',  ( 0.0000000000000000000, 0.0000000000000000000, -1.000000000000000000 ) ) ;
#68 = CARTESIAN_POINT ( 'NONE',  ( 0.0000000000000000000, 5.700000000000000200, 0.0000000000000000000 ) ) ;
#69 = ORIENTED_EDGE ( 'NONE', *, *, #256, .F. ) ;
#70 = PLANE ( 'NONE',  #145 ) ;
#71 = AXIS2_PLACEMENT_3D ( 'NONE', #43, #53, #58 ) ;
#72 = VERTEX_POINT ( 'NONE', #218 ) ;
#73 = EDGE_CURVE ( 'NONE', #99, #11, #182, .T. ) ;
#74 = DIRECTION ( 'NONE',  ( -0.0000000000000000000, -1.000000000000000000, -0.0000000000000000000 ) ) ;
#75 = ADVANCED_FACE ( 'NONE', ( #194 ), #178, .T. ) ;
#76 = CARTESIAN_POINT ( 'NONE',  ( 0.0000000000000000000, 0.8903832489968555000, 0.0000000000000000000 ) ) ;
#77 = ORIENTED_EDGE ( 'NONE', *, *, #24, .F. ) ;
#78 = EDGE_CURVE ( 'NONE', #258, #370, #365, .T. ) ;
#79 = DIRECTION ( 'NONE',  ( -0.0000000000000000000, -1.000000000000000000, -0.0000000000000000000 ) ) ;
#80 = DIRECTION ( 'NONE',  ( 0.0000000000000000000, 0.0000000000000000000, -1.000000000000000000 ) ) ;
#81 = CARTESIAN_POINT ( 'NONE',  ( 0.0000000000000000000, 14.69999999999999900, -2.490000000000000700 ) ) ;
#82 = VERTEX_POINT ( 'NONE', #35 ) ;
#83 = AXIS2_PLACEMENT_3D ( 'NONE', #337, #54, #93 ) ;
#84 = ADVANCED_FACE ( 'NONE', ( #147 ), #138, .T. ) ;
#85 = PRODUCT_DEFINITION_SHAPE ( 'NONE', 'NONE',  #113 ) ;
#86 = CARTESIAN_POINT ( 'NONE',  ( 0.0000000000000000000, 14.69999999999999900, 0.0000000000000000000 ) ) ;
#87 = AXIS2_PLACEMENT_3D ( 'NONE', #63, #280, #215 ) ;
#88 = DIRECTION ( 'NONE',  ( -0.0000000000000000000, -1.000000000000000000, -0.0000000000000000000 ) ) ;
#89 = AXIS2_PLACEMENT_3D ( 'NONE', #86, #88, #328 ) ;
#90 = ORIENTED_EDGE ( 'NONE', *, *, #304, .T. ) ;
#91 = EDGE_CURVE ( 'NONE', #46, #235, #22, .T. ) ;
#92 = AXIS2_PLACEMENT_3D ( 'NONE', #252, #324, #286 ) ;
#93 = DIRECTION ( 'NONE',  ( -1.224646799147353200E-016, 0.0000000000000000000, -1.000000000000000000 ) ) ;
#94 = DIRECTION ( 'NONE',  ( 0.0000000000000000000, 1.000000000000000000, 0.0000000000000000000 ) ) ;
#95 = DIRECTION ( 'NONE',  ( 0.0000000000000000000, -0.0000000000000000000, 1.000000000000000000 ) ) ;
#96 = AXIS2_PLACEMENT_3D ( 'NONE', #211, #269, #273 ) ;
#97 = MECHANICAL_DESIGN_GEOMETRIC_PRESENTATION_REPRESENTATION (  '', ( #350 ), #264 ) ;
#98 = DIRECTION ( 'NONE',  ( 0.0000000000000000000, 0.0000000000000000000, -1.000000000000000000 ) ) ;
#99 = VERTEX_POINT ( 'NONE', #284 ) ;
#100 = SHAPE_DEFINITION_REPRESENTATION ( #85, #326 ) ;
#101 = EDGE_CURVE ( 'NONE', #82, #290, #124, .T. ) ;
#102 = DIRECTION ( 'NONE',  ( -0.0000000000000000000, -1.000000000000000000, -0.0000000000000000000 ) ) ;
#103 = VECTOR ( 'NONE', #322, 1000.000000000000000 ) ;
#104 = DIRECTION ( 'NONE',  ( -0.0000000000000000000, -1.000000000000000000, -0.0000000000000000000 ) ) ;
#105 = DIRECTION ( 'NONE',  ( -0.0000000000000000000, -1.000000000000000000, -0.0000000000000000000 ) ) ;
#106 = SURFACE_STYLE_FILL_AREA ( #231 ) ;
#107 = CARTESIAN_POINT ( 'NONE',  ( 0.0000000000000000000, 3.375009372771003800, -3.621196854532659200 ) ) ;
#108 = CARTESIAN_POINT ( 'NONE',  ( 0.0000000000000000000, 14.69999999999999900, 0.0000000000000000000 ) ) ;
#109 = DIRECTION ( 'NONE',  ( -0.0000000000000000000, -1.000000000000000000, -0.0000000000000000000 ) ) ;
#110 = ORIENTED_EDGE ( 'NONE', *, *, #42, .T. ) ;
#111 = EDGE_LOOP ( 'NONE', ( #341, #279, #220, #114 ) ) ;
#112 = DIRECTION ( 'NONE',  ( 0.0000000000000000000, 0.0000000000000000000, -1.000000000000000000 ) ) ;
#113 = PRODUCT_DEFINITION ( 'UNKNOWN', '', #136, #216 ) ;
#114 = ORIENTED_EDGE ( 'NONE', *, *, #199, .F. ) ;
#115 = CARTESIAN_POINT ( 'NONE',  ( 0.0000000000000000000, 3.875009372771005100, 0.0000000000000000000 ) ) ;
#116 =( NAMED_UNIT ( * ) PLANE_ANGLE_UNIT ( ) SI_UNIT ( $, .RADIAN. ) );
#117 = CIRCLE ( 'NONE', #127, 1.853790199197542300 ) ;
#118 = DIRECTION ( 'NONE',  ( 0.0000000000000000000, 0.0000000000000000000, -1.000000000000000000 ) ) ;
#119 = CIRCLE ( 'NONE', #87, 1.991052631578946300 ) ;
#120 = AXIS2_PLACEMENT_3D ( 'NONE', #108, #109, #112 ) ;
#121 = DIRECTION ( 'NONE',  ( 0.0000000000000000000, 0.0000000000000000000, -1.000000000000000000 ) ) ;
#122 = CARTESIAN_POINT ( 'NONE',  ( 3.000000000000000000, 16.02000000000000000, 0.0000000000000000000 ) ) ;
#123 = EDGE_CURVE ( 'NONE', #163, #72, #219, .T. ) ;
#124 = CIRCLE ( 'NONE', #23, 2.490000000000000700 ) ;
#125 = TOROIDAL_SURFACE ( 'NONE', #334, 1.693947368421053500, 1.991052631578946300 ) ;
#126 = DIRECTION ( 'NONE',  ( -0.0000000000000000000, -1.000000000000000000, -0.0000000000000000000 ) ) ;
#127 = AXIS2_PLACEMENT_3D ( 'NONE', #175, #319, #62 ) ;
#128 = LINE ( 'NONE', #369, #103 ) ;
#129 = ORIENTED_EDGE ( 'NONE', *, *, #236, .F. ) ;
#130 = MANIFOLD_SOLID_BREP ( 'Revolve1', #352 ) ;
#131 = CARTESIAN_POINT ( 'NONE',  ( 0.0000000000000000000, 2.375000000000000000, 0.0000000000000000000 ) ) ;
#132 = EDGE_LOOP ( 'NONE', ( #359, #311, #227, #129 ) ) ;
#133 = COLOUR_RGB ( '',0.7921568627450980000, 0.8196078431372548800, 0.9333333333333333500 ) ;
#134 = CYLINDRICAL_SURFACE ( 'NONE', #301, 2.490000000000000200 ) ;
#135 = TOROIDAL_SURFACE ( 'NONE', #259, 1.693947368421053500, 1.991052631578946300 ) ;
#136 = PRODUCT_DEFINITION_FORMATION_WITH_SPECIFIED_SOURCE ( 'ANY', '', #346, .NOT_KNOWN. ) ;
#137 = CARTESIAN_POINT ( 'NONE',  ( 0.0000000000000000000, 3.375009372771003800, 0.0000000000000000000 ) ) ;
#138 = TOROIDAL_SURFACE ( 'NONE', #358, 3.000000000000000000, 2.236363636363637200 ) ;
#139 = FACE_OUTER_BOUND ( 'NONE', #353, .T. ) ;
#140 = DIRECTION ( 'NONE',  ( -0.0000000000000000000, -1.000000000000000000, -0.0000000000000000000 ) ) ;
#141 = CARTESIAN_POINT ( 'NONE',  ( 4.434687136985885300E-016, 3.375009372771003800, 3.621196854532659200 ) ) ;
#142 = SURFACE_STYLE_USAGE ( .BOTH. , #296 ) ;
#143 =( NAMED_UNIT ( * ) SI_UNIT ( $, .STERADIAN. ) SOLID_ANGLE_UNIT ( ) );
#144 = PLANE ( 'NONE',  #71 ) ;
#145 = AXIS2_PLACEMENT_3D ( 'NONE', #122, #94, #95 ) ;
#146 = VECTOR ( 'NONE', #104, 1000.000000000000000 ) ;
#147 = FACE_OUTER_BOUND ( 'NONE', #277, .T. ) ;
#148 = DIRECTION ( 'NONE',  ( 0.0000000000000000000, 0.0000000000000000000, -1.000000000000000000 ) ) ;
#149 = EDGE_CURVE ( 'NONE', #362, #356, #295, .T. ) ;
#150 = DIRECTION ( 'NONE',  ( -0.0000000000000000000, -1.000000000000000000, -0.0000000000000000000 ) ) ;
#151 = AXIS2_PLACEMENT_3D ( 'NONE', #305, #102, #282 ) ;
#152 = DIRECTION ( 'NONE',  ( -1.000000000000000000, 0.0000000000000000000, 0.0000000000000000000 ) ) ;
#153 = FACE_OUTER_BOUND ( 'NONE', #278, .T. ) ;
#154 = CIRCLE ( 'NONE', #283, 2.236363636363637200 ) ;
#155 = EDGE_CURVE ( 'NONE', #163, #291, #303, .T. ) ;
#156 = ORIENTED_EDGE ( 'NONE', *, *, #78, .T. ) ;
#157 = EDGE_LOOP ( 'NONE', ( #90, #172, #69, #320, #77 ) ) ;
#158 = CARTESIAN_POINT ( 'NONE',  ( 0.0000000000000000000, 0.8903832489968555000, 0.0000000000000000000 ) ) ;
#159 = CARTESIAN_POINT ( 'NONE',  ( 6.172219867702661300E-016, 14.69999999999999900, 5.040000000000000900 ) ) ;
#160 = PRODUCT_RELATED_PRODUCT_CATEGORY ( 'part', '', ( #346 ) ) ;
#161 = DIRECTION ( 'NONE',  ( -0.0000000000000000000, -1.000000000000000000, -0.0000000000000000000 ) ) ;
#162 = DIRECTION ( 'NONE',  ( -0.0000000000000000000, -1.000000000000000000, -0.0000000000000000000 ) ) ;
#163 = VERTEX_POINT ( 'NONE', #141 ) ;
#164 = CIRCLE ( 'NONE', #232, 5.040000000000000900 ) ;
#165 = FACE_OUTER_BOUND ( 'NONE', #132, .T. ) ;
#166 = DIRECTION ( 'NONE',  ( 0.0000000000000000000, 0.0000000000000000000, -1.000000000000000000 ) ) ;
#167 = VERTEX_POINT ( 'NONE', #171 ) ;
#168 = AXIS2_PLACEMENT_3D ( 'NONE', #137, #140, #148 ) ;
#169 = ADVANCED_FACE ( 'NONE', ( #263 ), #272, .T. ) ;
#170 = CARTESIAN_POINT ( 'NONE',  ( 0.0000000000000000000, 0.0000000000000000000, 0.0000000000000000000 ) ) ;
#171 = CARTESIAN_POINT ( 'NONE',  ( 0.0000000000000000000, 14.69999999999999900, -5.040000000000000900 ) ) ;
#172 = ORIENTED_EDGE ( 'NONE', *, *, #123, .T. ) ;
#173 = CIRCLE ( 'NONE', #168, 3.621196854532658700 ) ;
#174 = AXIS2_PLACEMENT_3D ( 'NONE', #360, #126, #98 ) ;
#175 = CARTESIAN_POINT ( 'NONE',  ( 0.0000000000000000000, 0.8903832489968555000, 0.0000000000000000000 ) ) ;
#176 = DIRECTION ( 'NONE',  ( 0.0000000000000000000, 0.0000000000000000000, -1.000000000000000000 ) ) ;
#177 = CARTESIAN_POINT ( 'NONE',  ( 0.0000000000000000000, 14.69999999999999900, 0.0000000000000000000 ) ) ;
#178 = TOROIDAL_SURFACE ( 'NONE', #289, 1.693947368421053500, 1.991052631578946300 ) ;
#179 = FACE_OUTER_BOUND ( 'NONE', #4, .T. ) ;
#180 = TOROIDAL_SURFACE ( 'NONE', #192, 1.693947368421053500, 1.991052631578946300 ) ;
#181 = DIRECTION ( 'NONE',  ( -0.0000000000000000000, -1.000000000000000000, -0.0000000000000000000 ) ) ;
#182 = CIRCLE ( 'NONE', #174, 3.000000000000000000 ) ;
#183 = UNCERTAINTY_MEASURE_WITH_UNIT (LENGTH_MEASURE( 1.000000000000000100E-005 ), #225, 'distance_accuracy_value', 'NONE');
#184 = DIRECTION ( 'NONE',  ( 0.0000000000000000000, 0.0000000000000000000, -1.000000000000000000 ) ) ;
#185 = CIRCLE ( 'NONE', #120, 5.040000000000000900 ) ;
#186 = CIRCLE ( 'NONE', #214, 1.853790199197542300 ) ;
#187 = DIRECTION ( 'NONE',  ( -0.0000000000000000000, -1.000000000000000000, -0.0000000000000000000 ) ) ;
#188 = CARTESIAN_POINT ( 'NONE',  ( 3.742028833431396800E-016, 5.700000000000000200, 2.490000000000000200 ) ) ;
#189 = ORIENTED_EDGE ( 'NONE', *, *, #73, .F. ) ;
#190 = LINE ( 'NONE', #247, #146 ) ;
#191 = PRESENTATION_STYLE_ASSIGNMENT (( #142 ) ) ;
#192 = AXIS2_PLACEMENT_3D ( 'NONE', #115, #105, #118 ) ;
#193 = CARTESIAN_POINT ( 'NONE',  ( 0.0000000000000000000, 3.875009372771005100, 0.0000000000000000000 ) ) ;
#194 = FACE_OUTER_BOUND ( 'NONE', #157, .T. ) ;
#195 = CIRCLE ( 'NONE', #89, 2.490000000000000700 ) ;
#196 = CIRCLE ( 'NONE', #16, 2.375000000000000000 ) ;
#197 = CIRCLE ( 'NONE', #338, 3.000000000000000000 ) ;
#198 = TOROIDAL_SURFACE ( 'NONE', #151, 3.000000000000000000, 2.236363636363637200 ) ;
#199 = EDGE_CURVE ( 'NONE', #99, #167, #287, .T. ) ;
#200 = CARTESIAN_POINT ( 'NONE',  ( 1.853790199197542700, 0.8903832489968555000, -2.270238233738005100E-016 ) ) ;
#201 = CARTESIAN_POINT ( 'NONE',  ( 0.0000000000000000000, 2.875009372771005100, 0.0000000000000000000 ) ) ;
#202 = CARTESIAN_POINT ( 'NONE',  ( 0.0000000000000000000, 0.8903832489968555000, -1.853790199197542300 ) ) ;
#203 = CIRCLE ( 'NONE', #59, 1.853790199197542300 ) ;
#204 = SURFACE_STYLE_FILL_AREA ( #40 ) ;
#205 = ADVANCED_FACE ( 'NONE', ( #254 ), #229, .T. ) ;
#206 = ADVANCED_FACE ( 'NONE', ( #179 ), #253, .T. ) ;
#207 = DIRECTION ( 'NONE',  ( -0.0000000000000000000, -1.000000000000000000, -0.0000000000000000000 ) ) ;
#208 = CIRCLE ( 'NONE', #34, 1.991052631578946300 ) ;
#209 = FACE_OUTER_BOUND ( 'NONE', #111, .T. ) ;
#210 = CARTESIAN_POINT ( 'NONE',  ( 3.673940397442059900E-016, 13.78363636363636300, 3.000000000000000000 ) ) ;
#211 = CARTESIAN_POINT ( 'NONE',  ( 0.0000000000000000000, 0.0000000000000000000, 0.0000000000000000000 ) ) ;
#212 = DIRECTION ( 'NONE',  ( 1.000000000000000000, 0.0000000000000000000, -1.224646799147353200E-016 ) ) ;
#213 = DIRECTION ( 'NONE',  ( -1.224646799147353200E-016, 0.0000000000000000000, -1.000000000000000000 ) ) ;
#214 = AXIS2_PLACEMENT_3D ( 'NONE', #158, #161, #166 ) ;
#215 = DIRECTION ( 'NONE',  ( -1.224646799147353200E-016, 0.0000000000000000000, -1.000000000000000000 ) ) ;
#216 = PRODUCT_DEFINITION_CONTEXT ( 'detailed design', #281, 'design' ) ;
#217 = DIRECTION ( 'NONE',  ( 0.0000000000000000000, 0.0000000000000000000, -1.000000000000000000 ) ) ;
#218 = CARTESIAN_POINT ( 'NONE',  ( 3.352462685361944900E-016, 0.8903832489968555000, 1.853790199197542300 ) ) ;
#219 = CIRCLE ( 'NONE', #83, 1.991052631578946300 ) ;
#220 = ORIENTED_EDGE ( 'NONE', *, *, #275, .F. ) ;
#221 = FACE_BOUND ( 'NONE', #323, .T. ) ;
#222 = ORIENTED_EDGE ( 'NONE', *, *, #60, .T. ) ;
#223 = ORIENTED_EDGE ( 'NONE', *, *, #42, .F. ) ;
#224 = FACE_OUTER_BOUND ( 'NONE', #65, .T. ) ;
#225 =( LENGTH_UNIT ( ) NAMED_UNIT ( * ) SI_UNIT ( .MILLI., .METRE. ) );
#226 = CARTESIAN_POINT ( 'NONE',  ( 0.0000000000000000000, 2.375000000000000000, 0.0000000000000000000 ) ) ;
#227 = ORIENTED_EDGE ( 'NONE', *, *, #31, .T. ) ;
#228 = CIRCLE ( 'NONE', #368, 2.490000000000000200 ) ;
#229 = CYLINDRICAL_SURFACE ( 'NONE', #17, 2.490000000000000200 ) ;
#230 = FILL_AREA_STYLE_COLOUR ( '', #56 ) ;
#231 = FILL_AREA_STYLE ('',( #230 ) ) ;
#232 = AXIS2_PLACEMENT_3D ( 'NONE', #177, #181, #184 ) ;
#233 = ORIENTED_EDGE ( 'NONE', *, *, #268, .F. ) ;
#234 = SURFACE_SIDE_STYLE ('',( #106 ) ) ;
#235 = VERTEX_POINT ( 'NONE', #30 ) ;
#236 = EDGE_CURVE ( 'NONE', #370, #258, #228, .T. ) ;
#237 = CARTESIAN_POINT ( 'NONE',  ( 0.0000000000000000000, 14.69999999999999900, 0.0000000000000000000 ) ) ;
#238 = ADVANCED_FACE ( 'NONE', ( #241, #221 ), #144, .T. ) ;
#239 = DIRECTION ( 'NONE',  ( -0.0000000000000000000, 0.0000000000000000000, 1.000000000000000000 ) ) ;
#240 = FACE_OUTER_BOUND ( 'NONE', #366, .T. ) ;
#241 = FACE_OUTER_BOUND ( 'NONE', #257, .T. ) ;
#242 = SURFACE_STYLE_USAGE ( .BOTH. , #234 ) ;
#243 = AXIS2_PLACEMENT_3D ( 'NONE', #226, #239, #251 ) ;
#244 =( LENGTH_UNIT ( ) NAMED_UNIT ( * ) SI_UNIT ( .MILLI., .METRE. ) );
#245 =( NAMED_UNIT ( * ) PLANE_ANGLE_UNIT ( ) SI_UNIT ( $, .RADIAN. ) );
#246 =( NAMED_UNIT ( * ) SI_UNIT ( $, .STERADIAN. ) SOLID_ANGLE_UNIT ( ) );
#247 = CARTESIAN_POINT ( 'NONE',  ( 3.049370529876909400E-016, 0.0000000000000000000, 2.490000000000000200 ) ) ;
#248 = DIRECTION ( 'NONE',  ( 0.0000000000000000000, 0.0000000000000000000, -1.000000000000000000 ) ) ;
#249 = ORIENTED_EDGE ( 'NONE', *, *, #48, .F. ) ;
#250 = CARTESIAN_POINT ( 'NONE',  ( 0.0000000000000000000, 2.875009372771005100, 0.0000000000000000000 ) ) ;
#251 = DIRECTION ( 'NONE',  ( 1.000000000000000000, 0.0000000000000000000, 0.0000000000000000000 ) ) ;
#252 = CARTESIAN_POINT ( 'NONE',  ( 0.0000000000000000000, 2.875009372771005100, -1.693947368421053500 ) ) ;
#253 = SPHERICAL_SURFACE ( 'NONE', #355, 2.375000000000000000 ) ;
#254 = FACE_OUTER_BOUND ( 'NONE', #333, .T. ) ;
#255 = CARTESIAN_POINT ( 'NONE',  ( 0.0000000000000000000, 13.78363636363636300, 0.0000000000000000000 ) ) ;
#256 = EDGE_CURVE ( 'NONE', #356, #72, #203, .T. ) ;
#257 = EDGE_LOOP ( 'NONE', ( #336, #262 ) ) ;
#258 = VERTEX_POINT ( 'NONE', #41 ) ;
#259 = AXIS2_PLACEMENT_3D ( 'NONE', #193, #187, #121 ) ;
#260 = CARTESIAN_POINT ( 'NONE',  ( 0.0000000000000000000, 0.8903832489968555000, 0.0000000000000000000 ) ) ;
#261 = CARTESIAN_POINT ( 'NONE',  ( 4.923080132572360300E-016, 16.02000000000000000, 3.000000000000000000 ) ) ;
#262 = ORIENTED_EDGE ( 'NONE', *, *, #318, .T. ) ;
#263 = FACE_OUTER_BOUND ( 'NONE', #26, .T. ) ;
#264 =( GEOMETRIC_REPRESENTATION_CONTEXT ( 3 ) GLOBAL_UNCERTAINTY_ASSIGNED_CONTEXT ( ( #52 ) ) GLOBAL_UNIT_ASSIGNED_CONTEXT ( ( #37, #116, #143 ) ) REPRESENTATION_CONTEXT ( 'NONE', 'WORKASPACE' ) );
#265 = DIRECTION ( 'NONE',  ( 0.0000000000000000000, 0.0000000000000000000, -1.000000000000000000 ) ) ;
#266 = ORIENTED_EDGE ( 'NONE', *, *, #8, .T. ) ;
#267 = ORIENTED_EDGE ( 'NONE', *, *, #236, .T. ) ;
#268 = EDGE_CURVE ( 'NONE', #290, #82, #195, .T. ) ;
#269 = DIRECTION ( 'NONE',  ( 0.0000000000000000000, 0.0000000000000000000, 1.000000000000000000 ) ) ;
#270 = ADVANCED_FACE ( 'NONE', ( #224 ), #70, .T. ) ;
#271 = ORIENTED_EDGE ( 'NONE', *, *, #315, .F. ) ;
#272 = SPHERICAL_SURFACE ( 'NONE', #339, 2.375000000000000000 ) ;
#273 = DIRECTION ( 'NONE',  ( 1.000000000000000000, 0.0000000000000000000, 0.0000000000000000000 ) ) ;
#274 = CARTESIAN_POINT ( 'NONE',  ( 0.0000000000000000000, 2.375000000000000000, 0.0000000000000000000 ) ) ;
#275 = EDGE_CURVE ( 'NONE', #167, #18, #185, .T. ) ;
#276 = PRODUCT_CONTEXT ( 'NONE', #331, 'mechanical' ) ;
#277 = EDGE_LOOP ( 'NONE', ( #297, #10, #38, #371 ) ) ;
#278 = EDGE_LOOP ( 'NONE', ( #223, #267, #50, #66 ) ) ;
#279 = ORIENTED_EDGE ( 'NONE', *, *, #364, .T. ) ;
#280 = DIRECTION ( 'NONE',  ( 1.000000000000000000, 0.0000000000000000000, -1.224646799147353200E-016 ) ) ;
#281 = APPLICATION_CONTEXT ( 'automotive_design' ) ;
#282 = DIRECTION ( 'NONE',  ( 0.0000000000000000000, 0.0000000000000000000, -1.000000000000000000 ) ) ;
#283 = AXIS2_PLACEMENT_3D ( 'NONE', #210, #212, #213 ) ;
#284 = CARTESIAN_POINT ( 'NONE',  ( 0.0000000000000000000, 16.02000000000000000, -3.000000000000000000 ) ) ;
#285 = ORIENTED_EDGE ( 'NONE', *, *, #256, .T. ) ;
#286 = DIRECTION ( 'NONE',  ( 0.0000000000000000000, 0.0000000000000000000, 1.000000000000000000 ) ) ;
#287 = CIRCLE ( 'NONE', #321, 2.236363636363637200 ) ;
#288 = DIRECTION ( 'NONE',  ( -1.000000000000000000, 0.0000000000000000000, 1.224646799147353200E-016 ) ) ;
#289 = AXIS2_PLACEMENT_3D ( 'NONE', #250, #5, #67 ) ;
#290 = VERTEX_POINT ( 'NONE', #81 ) ;
#291 = VERTEX_POINT ( 'NONE', #107 ) ;
#292 = AXIS2_PLACEMENT_3D ( 'NONE', #260, #14, #367 ) ;
#293 = FILL_AREA_STYLE_COLOUR ( '', #133 ) ;
#294 = APPLICATION_PROTOCOL_DEFINITION ( 'draft international standard', 'automotive_design', 1998, #281 ) ;
#295 = CIRCLE ( 'NONE', #292, 1.853790199197542300 ) ;
#296 = SURFACE_SIDE_STYLE ('',( #204 ) ) ;
#297 = ORIENTED_EDGE ( 'NONE', *, *, #364, .F. ) ;
#298 = ORIENTED_EDGE ( 'NONE', *, *, #91, .T. ) ;
#299 = ORIENTED_EDGE ( 'NONE', *, *, #78, .F. ) ;
#300 = DIRECTION ( 'NONE',  ( 0.0000000000000000000, 0.0000000000000000000, -1.000000000000000000 ) ) ;
#301 = AXIS2_PLACEMENT_3D ( 'NONE', #170, #150, #176 ) ;
#302 = ADVANCED_FACE ( 'NONE', ( #240 ), #180, .T. ) ;
#303 = CIRCLE ( 'NONE', #309, 3.621196854532658700 ) ;
#304 = EDGE_CURVE ( 'NONE', #291, #163, #173, .T. ) ;
#305 = CARTESIAN_POINT ( 'NONE',  ( 0.0000000000000000000, 13.78363636363636300, 0.0000000000000000000 ) ) ;
#306 = ORIENTED_EDGE ( 'NONE', *, *, #48, .T. ) ;
#307 = ORIENTED_EDGE ( 'NONE', *, *, #20, .F. ) ;
#308 = DIRECTION ( 'NONE',  ( -1.000000000000000000, 0.0000000000000000000, 0.0000000000000000000 ) ) ;
#309 = AXIS2_PLACEMENT_3D ( 'NONE', #361, #357, #300 ) ;
#310 = ORIENTED_EDGE ( 'NONE', *, *, #57, .F. ) ;
#311 = ORIENTED_EDGE ( 'NONE', *, *, #101, .T. ) ;
#312 = CARTESIAN_POINT ( 'NONE',  ( 0.0000000000000000000, 16.02000000000000000, 0.0000000000000000000 ) ) ;
#313 = ORIENTED_EDGE ( 'NONE', *, *, #101, .F. ) ;
#314 = CARTESIAN_POINT ( 'NONE',  ( 0.0000000000000000000, 3.875009372771005100, -1.693947368421053500 ) ) ;
#315 = EDGE_CURVE ( 'NONE', #46, #362, #186, .T. ) ;
#316 = ORIENTED_EDGE ( 'NONE', *, *, #315, .T. ) ;
#317 = STYLED_ITEM ( 'NONE', ( #51 ), #326 ) ;
#318 = EDGE_CURVE ( 'NONE', #18, #167, #164, .T. ) ;
#319 = DIRECTION ( 'NONE',  ( -0.0000000000000000000, -1.000000000000000000, -0.0000000000000000000 ) ) ;
#320 = ORIENTED_EDGE ( 'NONE', *, *, #149, .F. ) ;
#321 = AXIS2_PLACEMENT_3D ( 'NONE', #21, #25, #28 ) ;
#322 = DIRECTION ( 'NONE',  ( -0.0000000000000000000, -1.000000000000000000, -0.0000000000000000000 ) ) ;
#323 = EDGE_LOOP ( 'NONE', ( #233, #313 ) ) ;
#324 = DIRECTION ( 'NONE',  ( -1.000000000000000000, 0.0000000000000000000, 0.0000000000000000000 ) ) ;
#325 = DIRECTION ( 'NONE',  ( -0.0000000000000000000, -1.000000000000000000, -0.0000000000000000000 ) ) ;
#326 = ADVANCED_BREP_SHAPE_REPRESENTATION ( '0BS01-00618MAXG_09_00mm', ( #130, #96 ), #347 ) ;
#327 = ADVANCED_FACE ( 'NONE', ( #165 ), #134, .T. ) ;
#328 = DIRECTION ( 'NONE',  ( 0.0000000000000000000, 0.0000000000000000000, -1.000000000000000000 ) ) ;
#329 = ORIENTED_EDGE ( 'NONE', *, *, #24, .T. ) ;
#330 = DIRECTION ( 'NONE',  ( -1.224646799147353200E-016, 0.0000000000000000000, -1.000000000000000000 ) ) ;
#331 = APPLICATION_CONTEXT ( 'automotive_design' ) ;
#332 = ORIENTED_EDGE ( 'NONE', *, *, #155, .T. ) ;
#333 = EDGE_LOOP ( 'NONE', ( #49, #222, #299, #340 ) ) ;
#334 = AXIS2_PLACEMENT_3D ( 'NONE', #201, #207, #217 ) ;
#335 = DIRECTION ( 'NONE',  ( 0.0000000000000000000, 0.0000000000000000000, -1.000000000000000000 ) ) ;
#336 = ORIENTED_EDGE ( 'NONE', *, *, #275, .T. ) ;
#337 = CARTESIAN_POINT ( 'NONE',  ( 2.074487222660925400E-016, 2.875009372771005100, 1.693947368421053500 ) ) ;
#338 = AXIS2_PLACEMENT_3D ( 'NONE', #312, #325, #335 ) ;
#339 = AXIS2_PLACEMENT_3D ( 'NONE', #131, #1, #2 ) ;
#340 = ORIENTED_EDGE ( 'NONE', *, *, #31, .F. ) ;
#341 = ORIENTED_EDGE ( 'NONE', *, *, #73, .T. ) ;
#342 =( NAMED_UNIT ( * ) PLANE_ANGLE_UNIT ( ) SI_UNIT ( $, .RADIAN. ) );
#343 = DIRECTION ( 'NONE',  ( 0.0000000000000000000, 0.0000000000000000000, 1.000000000000000000 ) ) ;
#344 = ORIENTED_EDGE ( 'NONE', *, *, #8, .F. ) ;
#345 = DIRECTION ( 'NONE',  ( 0.0000000000000000000, 0.0000000000000000000, -1.000000000000000000 ) ) ;
#346 = PRODUCT ( '0BS01-00618MAXG_09_00mm', '0BS01-00618MAXG_09_00mm', '', ( #276 ) ) ;
#347 =( GEOMETRIC_REPRESENTATION_CONTEXT ( 3 ) GLOBAL_UNCERTAINTY_ASSIGNED_CONTEXT ( ( #183 ) ) GLOBAL_UNIT_ASSIGNED_CONTEXT ( ( #225, #342, #27 ) ) REPRESENTATION_CONTEXT ( 'NONE', 'WORKASPACE' ) );
#348 = UNCERTAINTY_MEASURE_WITH_UNIT (LENGTH_MEASURE( 1.000000000000000100E-005 ), #244, 'distance_accuracy_value', 'NONE');
#349 = ADVANCED_FACE ( 'NONE', ( #153 ), #135, .T. ) ;
#350 = STYLED_ITEM ( 'NONE', ( #191 ), #130 ) ;
#351 = APPLICATION_PROTOCOL_DEFINITION ( 'draft international standard', 'automotive_design', 1998, #331 ) ;
#352 = CLOSED_SHELL ( 'NONE', ( #33, #205, #302, #75, #169, #206, #372, #349, #327, #238, #84, #270 ) ) ;
#353 = EDGE_LOOP ( 'NONE', ( #354, #332, #329, #271, #344 ) ) ;
#354 = ORIENTED_EDGE ( 'NONE', *, *, #123, .F. ) ;
#355 = AXIS2_PLACEMENT_3D ( 'NONE', #36, #6, #152 ) ;
#356 = VERTEX_POINT ( 'NONE', #200 ) ;
#357 = DIRECTION ( 'NONE',  ( -0.0000000000000000000, -1.000000000000000000, -0.0000000000000000000 ) ) ;
#358 = AXIS2_PLACEMENT_3D ( 'NONE', #255, #12, #265 ) ;
#359 = ORIENTED_EDGE ( 'NONE', *, *, #60, .F. ) ;
#360 = CARTESIAN_POINT ( 'NONE',  ( 0.0000000000000000000, 16.02000000000000000, 0.0000000000000000000 ) ) ;
#361 = CARTESIAN_POINT ( 'NONE',  ( 0.0000000000000000000, 3.375009372771003800, 0.0000000000000000000 ) ) ;
#362 = VERTEX_POINT ( 'NONE', #202 ) ;
#363 = PRESENTATION_LAYER_ASSIGNMENT (  '', '', ( #350 ) ) ;
#364 = EDGE_CURVE ( 'NONE', #11, #18, #154, .T. ) ;
#365 = CIRCLE ( 'NONE', #61, 2.490000000000000200 ) ;
#366 = EDGE_LOOP ( 'NONE', ( #156, #110, #32, #310 ) ) ;
#367 = DIRECTION ( 'NONE',  ( 0.0000000000000000000, 0.0000000000000000000, -1.000000000000000000 ) ) ;
#368 = AXIS2_PLACEMENT_3D ( 'NONE', #44, #45, #47 ) ;
#369 = CARTESIAN_POINT ( 'NONE',  ( 0.0000000000000000000, 0.0000000000000000000, -2.490000000000000200 ) ) ;
#370 = VERTEX_POINT ( 'NONE', #188 ) ;
#371 = ORIENTED_EDGE ( 'NONE', *, *, #318, .F. ) ;
#372 = ADVANCED_FACE ( 'NONE', ( #139 ), #125, .T. ) ;
ENDSEC;
END-ISO-10303-21;
