ISO-10303-21;
HEADER;
FILE_DESCRIPTION (( 'STEP AP214' ),
    '1' );
FILE_NAME ('0BS01-00618.STEP',
    '2016-04-05T11:28:53',
    ( '' ),
    ( '' ),
    'SwSTEP 2.0',
    'SolidWorks 2015',
    '' );
FILE_SCHEMA (( 'AUTOMOTIVE_DESIGN' ));
ENDSEC;

DATA;
#1 = AXIS2_PLACEMENT_3D ( 'NONE', #119, #26, #88 ) ;
#2 = ORIENTED_EDGE ( 'NONE', *, *, #390, .T. ) ;
#3 = COLOUR_RGB ( '',0.7921568627450980000, 0.8196078431372548800, 0.9333333333333333500 ) ;
#4 = CARTESIAN_POINT ( 'NONE',  ( 0.0000000000000000000, 48.94040584539813900, 0.0000000000000000000 ) ) ;
#5 = DIRECTION ( 'NONE',  ( -0.0000000000000000000, -1.000000000000000000, -0.0000000000000000000 ) ) ;
#6 = AXIS2_PLACEMENT_3D ( 'NONE', #371, #372, #378 ) ;
#7 = ADVANCED_FACE ( 'NONE', ( #375 ), #327, .T. ) ;
#8 = DIRECTION ( 'NONE',  ( 0.0000000000000000000, 0.0000000000000000000, -1.000000000000000000 ) ) ;
#9 = ORIENTED_EDGE ( 'NONE', *, *, #324, .F. ) ;
#10 = EDGE_CURVE ( 'NONE', #201, #377, #326, .T. ) ;
#11 = DIRECTION ( 'NONE',  ( 0.0000000000000000000, -0.9238795325112888500, -0.3826834323650847300 ) ) ;
#12 = CARTESIAN_POINT ( 'NONE',  ( 0.0000000000000000000, 17.02000000000000000, 0.0000000000000000000 ) ) ;
#13 = AXIS2_PLACEMENT_3D ( 'NONE', #299, #325, #328 ) ;
#14 = AXIS2_PLACEMENT_3D ( 'NONE', #347, #353, #354 ) ;
#15 = ADVANCED_FACE ( 'NONE', ( #331 ), #104, .T. ) ;
#16 = CARTESIAN_POINT ( 'NONE',  ( 0.8499999999999999800, 50.57000000000000700, 0.0000000000000000000 ) ) ;
#17 = CARTESIAN_POINT ( 'NONE',  ( 3.449066870647306300E-016, 16.19999999999999900, 2.816376830485884500 ) ) ;
#18 = DIRECTION ( 'NONE',  ( 1.000000000000000000, 0.0000000000000000000, -1.224646799147353200E-016 ) ) ;
#19 = DIRECTION ( 'NONE',  ( -1.224646799147353200E-016, 0.0000000000000000000, -1.000000000000000000 ) ) ;
#20 = DIRECTION ( 'NONE',  ( 0.0000000000000000000, 1.000000000000000000, 0.0000000000000000000 ) ) ;
#21 = PRODUCT ( '0BS01-00618', '0BS01-00618', '', ( #74 ) ) ;
#22 = DIRECTION ( 'NONE',  ( 0.0000000000000000000, -0.0000000000000000000, 1.000000000000000000 ) ) ;
#23 = VECTOR ( 'NONE', #11, 1000.000000000000000 ) ;
#24 = DIRECTION ( 'NONE',  ( 0.0000000000000000000, 0.0000000000000000000, -1.000000000000000000 ) ) ;
#25 = DIRECTION ( 'NONE',  ( -0.0000000000000000000, -1.000000000000000000, -0.0000000000000000000 ) ) ;
#26 = DIRECTION ( 'NONE',  ( -0.0000000000000000000, -1.000000000000000000, -0.0000000000000000000 ) ) ;
#27 = DIRECTION ( 'NONE',  ( 0.0000000000000000000, 0.0000000000000000000, -1.000000000000000000 ) ) ;
#28 = EDGE_CURVE ( 'NONE', #377, #343, #323, .T. ) ;
#29 = LINE ( 'NONE', #140, #23 ) ;
#30 = CIRCLE ( 'NONE', #311, 1.524999999999999900 ) ;
#31 = DIRECTION ( 'NONE',  ( 0.0000000000000000000, 0.0000000000000000000, -1.000000000000000000 ) ) ;
#32 = CIRCLE ( 'NONE', #286, 0.8499999999999999800 ) ;
#33 = CARTESIAN_POINT ( 'NONE',  ( 0.0000000000000000000, 0.0000000000000000000, 0.0000000000000000000 ) ) ;
#34 = VECTOR ( 'NONE', #114, 1000.000000000000000 ) ;
#35 = LINE ( 'NONE', #370, #40 ) ;
#36 = ORIENTED_EDGE ( 'NONE', *, *, #376, .F. ) ;
#37 = FACE_OUTER_BOUND ( 'NONE', #234, .T. ) ;
#38 = ADVANCED_FACE ( 'NONE', ( #318 ), #245, .T. ) ;
#39 = LINE ( 'NONE', #358, #34 ) ;
#40 = VECTOR ( 'NONE', #182, 1000.000000000000000 ) ;
#41 = CIRCLE ( 'NONE', #280, 2.370000000000000600 ) ;
#42 = DIRECTION ( 'NONE',  ( 0.0000000000000000000, 0.0000000000000000000, -1.000000000000000000 ) ) ;
#43 = CARTESIAN_POINT ( 'NONE',  ( 0.0000000000000000000, 0.0000000000000000000, 0.0000000000000000000 ) ) ;
#44 = FACE_OUTER_BOUND ( 'NONE', #224, .T. ) ;
#45 = CIRCLE ( 'NONE', #373, 1.374999999999996700 ) ;
#46 = CIRCLE ( 'NONE', #341, 2.375000000000000000 ) ;
#47 = ADVANCED_FACE ( 'NONE', ( #321 ), #71, .T. ) ;
#48 = ORIENTED_EDGE ( 'NONE', *, *, #28, .F. ) ;
#49 = DIRECTION ( 'NONE',  ( -0.0000000000000000000, -1.000000000000000000, -0.0000000000000000000 ) ) ;
#50 = ORIENTED_EDGE ( 'NONE', *, *, #345, .T. ) ;
#51 = AXIS2_PLACEMENT_3D ( 'NONE', #237, #313, #316 ) ;
#52 = CARTESIAN_POINT ( 'NONE',  ( 1.374999999999996700, 0.0000000000000000000, 0.0000000000000000000 ) ) ;
#53 = CARTESIAN_POINT ( 'NONE',  ( 0.0000000000000000000, 16.19999999999999900, 0.0000000000000000000 ) ) ;
#54 = CARTESIAN_POINT ( 'NONE',  ( 0.0000000000000000000, 17.02000000000000000, 0.0000000000000000000 ) ) ;
#55 = EDGE_CURVE ( 'NONE', #143, #241, #255, .T. ) ;
#56 = ORIENTED_EDGE ( 'NONE', *, *, #221, .T. ) ;
#57 = DIRECTION ( 'NONE',  ( -0.0000000000000000000, -1.000000000000000000, -0.0000000000000000000 ) ) ;
#58 = VERTEX_POINT ( 'NONE', #65 ) ;
#59 = VECTOR ( 'NONE', #260, 1000.000000000000000 ) ;
#60 = LINE ( 'NONE', #252, #59 ) ;
#61 = APPLICATION_PROTOCOL_DEFINITION ( 'draft international standard', 'automotive_design', 1998, #69 ) ;
#62 = EDGE_LOOP ( 'NONE', ( #240, #207 ) ) ;
#63 = CYLINDRICAL_SURFACE ( 'NONE', #385, 1.524999999999999900 ) ;
#64 = DIRECTION ( 'NONE',  ( 0.0000000000000000000, 0.0000000000000000000, -1.000000000000000000 ) ) ;
#65 = CARTESIAN_POINT ( 'NONE',  ( 0.0000000000000000000, 18.57000000000000000, -1.524999999999999900 ) ) ;
#66 = DIRECTION ( 'NONE',  ( -0.0000000000000000000, -1.000000000000000000, -0.0000000000000000000 ) ) ;
#67 = CARTESIAN_POINT ( 'NONE',  ( 0.0000000000000000000, 48.94040584539813900, 0.0000000000000000000 ) ) ;
#68 = CIRCLE ( 'NONE', #392, 2.375000000000000000 ) ;
#69 = APPLICATION_CONTEXT ( 'automotive_design' ) ;
#70 = FACE_OUTER_BOUND ( 'NONE', #397, .T. ) ;
#71 = PLANE ( 'NONE',  #183 ) ;
#72 = FACE_OUTER_BOUND ( 'NONE', #253, .T. ) ;
#73 = AXIS2_PLACEMENT_3D ( 'NONE', #232, #271, #239 ) ;
#74 = PRODUCT_CONTEXT ( 'NONE', #200, 'mechanical' ) ;
#75 = EDGE_LOOP ( 'NONE', ( #186, #181 ) ) ;
#76 = FACE_OUTER_BOUND ( 'NONE', #250, .T. ) ;
#77 = MANIFOLD_SOLID_BREP ( 'Revolve1', #154 ) ;
#78 = DIRECTION ( 'NONE',  ( 1.000000000000000000, 0.0000000000000000000, 0.0000000000000000000 ) ) ;
#79 = CIRCLE ( 'NONE', #209, 5.040000000000000000 ) ;
#80 = CIRCLE ( 'NONE', #399, 2.375000000000000000 ) ;
#81 = PRODUCT_DEFINITION_SHAPE ( 'NONE', 'NONE',  #103 ) ;
#82 = ADVANCED_FACE ( 'NONE', ( #37 ), #155, .T. ) ;
#83 = DIRECTION ( 'NONE',  ( 0.0000000000000000000, 0.0000000000000000000, 1.000000000000000000 ) ) ;
#84 = CIRCLE ( 'NONE', #1, 2.816376830485884500 ) ;
#85 = VECTOR ( 'NONE', #361, 1000.000000000000000 ) ;
#86 = AXIS2_PLACEMENT_3D ( 'NONE', #337, #374, #223 ) ;
#87 = LINE ( 'NONE', #342, #85 ) ;
#88 = DIRECTION ( 'NONE',  ( 0.0000000000000000000, 0.0000000000000000000, -1.000000000000000000 ) ) ;
#89 = CIRCLE ( 'NONE', #222, 1.524999999999999900 ) ;
#90 = CONICAL_SURFACE ( 'NONE', #73, 1.524999999999999900, 0.3926990816987187000 ) ;
#91 = EDGE_CURVE ( 'NONE', #202, #218, #141, .T. ) ;
#92 = FACE_OUTER_BOUND ( 'NONE', #151, .T. ) ;
#93 = CIRCLE ( 'NONE', #362, 2.375000000000000000 ) ;
#94 = DIRECTION ( 'NONE',  ( 0.0000000000000000000, -1.000000000000000000, -0.0000000000000000000 ) ) ;
#95 = CIRCLE ( 'NONE', #14, 1.524999999999999900 ) ;
#96 = AXIS2_PLACEMENT_3D ( 'NONE', #164, #161, #190 ) ;
#97 = DIRECTION ( 'NONE',  ( 0.0000000000000000000, 0.0000000000000000000, -1.000000000000000000 ) ) ;
#98 = PRODUCT_DEFINITION_FORMATION_WITH_SPECIFIED_SOURCE ( 'ANY', '', #21, .NOT_KNOWN. ) ;
#99 = FILL_AREA_STYLE_COLOUR ( '', #319 ) ;
#100 = DIRECTION ( 'NONE',  ( 0.0000000000000000000, 0.0000000000000000000, -1.000000000000000000 ) ) ;
#101 = CONICAL_SURFACE ( 'NONE', #86, 1.374999999999996700, 0.7853981633974498300 ) ;
#102 = DIRECTION ( 'NONE',  ( -0.0000000000000000000, -1.000000000000000000, -0.0000000000000000000 ) ) ;
#103 = PRODUCT_DEFINITION ( 'UNKNOWN', '', #98, #333 ) ;
#104 = PLANE ( 'NONE',  #216 ) ;
#105 = FACE_BOUND ( 'NONE', #62, .T. ) ;
#106 = FACE_OUTER_BOUND ( 'NONE', #220, .T. ) ;
#107 = ORIENTED_EDGE ( 'NONE', *, *, #345, .F. ) ;
#108 = AXIS2_PLACEMENT_3D ( 'NONE', #153, #102, #158 ) ;
#109 = DIRECTION ( 'NONE',  ( -0.0000000000000000000, -1.000000000000000000, -0.0000000000000000000 ) ) ;
#110 = AXIS2_PLACEMENT_3D ( 'NONE', #166, #193, #168 ) ;
#111 = VECTOR ( 'NONE', #226, 1000.000000000000000 ) ;
#112 = LINE ( 'NONE', #229, #111 ) ;
#113 = ORIENTED_EDGE ( 'NONE', *, *, #28, .T. ) ;
#114 = DIRECTION ( 'NONE',  ( -0.0000000000000000000, -1.000000000000000000, -0.0000000000000000000 ) ) ;
#115 = DIRECTION ( 'NONE',  ( 0.0000000000000000000, 0.0000000000000000000, -1.000000000000000000 ) ) ;
#116 = ORIENTED_EDGE ( 'NONE', *, *, #261, .F. ) ;
#117 =( NAMED_UNIT ( * ) PLANE_ANGLE_UNIT ( ) SI_UNIT ( $, .RADIAN. ) );
#118 =( NAMED_UNIT ( * ) SI_UNIT ( $, .STERADIAN. ) SOLID_ANGLE_UNIT ( ) );
#119 = CARTESIAN_POINT ( 'NONE',  ( 0.0000000000000000000, 18.57000000000000000, 0.0000000000000000000 ) ) ;
#120 = ORIENTED_EDGE ( 'NONE', *, *, #177, .F. ) ;
#121 = CARTESIAN_POINT ( 'NONE',  ( 0.0000000000000000000, 50.57000000000000700, 0.0000000000000000000 ) ) ;
#122 = AXIS2_PLACEMENT_3D ( 'NONE', #401, #83, #78 ) ;
#123 = CARTESIAN_POINT ( 'NONE',  ( 0.0000000000000000000, 18.57000000000000000, -2.816376830485884500 ) ) ;
#124 = AXIS2_PLACEMENT_3D ( 'NONE', #194, #197, #159 ) ;
#125 = DIRECTION ( 'NONE',  ( -0.0000000000000000000, -1.000000000000000000, -0.0000000000000000000 ) ) ;
#126 = DIRECTION ( 'NONE',  ( -0.0000000000000000000, -1.000000000000000000, -0.0000000000000000000 ) ) ;
#127 = FACE_OUTER_BOUND ( 'NONE', #276, .T. ) ;
#128 =( GEOMETRIC_REPRESENTATION_CONTEXT ( 3 ) GLOBAL_UNCERTAINTY_ASSIGNED_CONTEXT ( ( #394 ) ) GLOBAL_UNIT_ASSIGNED_CONTEXT ( ( #134, #135, #137 ) ) REPRESENTATION_CONTEXT ( 'NONE', 'WORKASPACE' ) );
#129 = CARTESIAN_POINT ( 'NONE',  ( 0.0000000000000000000, 17.02000000000000000, -5.040000000000000000 ) ) ;
#130 = DIRECTION ( 'NONE',  ( 0.0000000000000000000, 0.0000000000000000000, -1.000000000000000000 ) ) ;
#131 = FILL_AREA_STYLE ('',( #99 ) ) ;
#132 = SURFACE_SIDE_STYLE ('',( #334 ) ) ;
#133 = SURFACE_STYLE_USAGE ( .BOTH. , #132 ) ;
#134 =( LENGTH_UNIT ( ) NAMED_UNIT ( * ) SI_UNIT ( .MILLI., .METRE. ) );
#135 =( NAMED_UNIT ( * ) PLANE_ANGLE_UNIT ( ) SI_UNIT ( $, .RADIAN. ) );
#136 = LINE ( 'NONE', #205, #139 ) ;
#137 =( NAMED_UNIT ( * ) SI_UNIT ( $, .STERADIAN. ) SOLID_ANGLE_UNIT ( ) );
#138 = LINE ( 'NONE', #381, #174 ) ;
#139 = VECTOR ( 'NONE', #204, 1000.000000000000000 ) ;
#140 = CARTESIAN_POINT ( 'NONE',  ( 0.0000000000000000000, 48.94040584539813900, -1.524999999999999900 ) ) ;
#141 = CIRCLE ( 'NONE', #110, 1.524999999999999900 ) ;
#142 = CARTESIAN_POINT ( 'NONE',  ( 0.0000000000000000000, 0.0000000000000000000, 0.0000000000000000000 ) ) ;
#143 = VERTEX_POINT ( 'NONE', #162 ) ;
#144 = CARTESIAN_POINT ( 'NONE',  ( 0.0000000000000000000, 1.000000000000000200, 0.0000000000000000000 ) ) ;
#145 = UNCERTAINTY_MEASURE_WITH_UNIT (LENGTH_MEASURE( 1.000000000000000100E-005 ), #273, 'distance_accuracy_value', 'NONE');
#146 = ADVANCED_FACE ( 'NONE', ( #329 ), #169, .T. ) ;
#147 = DIRECTION ( 'NONE',  ( -0.0000000000000000000, -1.000000000000000000, -0.0000000000000000000 ) ) ;
#148 = CIRCLE ( 'NONE', #6, 1.374999999999996700 ) ;
#149 = VERTEX_POINT ( 'NONE', #165 ) ;
#150 = ADVANCED_FACE ( 'NONE', ( #127 ), #351, .T. ) ;
#151 = EDGE_LOOP ( 'NONE', ( #50, #113 ) ) ;
#152 = CARTESIAN_POINT ( 'NONE',  ( 0.0000000000000000000, 0.0000000000000000000, 0.0000000000000000000 ) ) ;
#153 = CARTESIAN_POINT ( 'NONE',  ( 0.0000000000000000000, 0.0000000000000000000, 0.0000000000000000000 ) ) ;
#154 = CLOSED_SHELL ( 'NONE', ( #7, #332, #146, #349, #188, #47, #150, #38, #249, #356, #366, #82, #210, #15 ) ) ;
#155 = CYLINDRICAL_SURFACE ( 'NONE', #108, 1.524999999999999900 ) ;
#156 = ORIENTED_EDGE ( 'NONE', *, *, #198, .T. ) ;
#157 = EDGE_CURVE ( 'NONE', #285, #297, #136, .T. ) ;
#158 = DIRECTION ( 'NONE',  ( 0.0000000000000000000, 0.0000000000000000000, -1.000000000000000000 ) ) ;
#159 = DIRECTION ( 'NONE',  ( 0.0000000000000000000, 0.0000000000000000000, 1.000000000000000000 ) ) ;
#160 = MECHANICAL_DESIGN_GEOMETRIC_PRESENTATION_REPRESENTATION (  '', ( #172 ), #128 ) ;
#161 = DIRECTION ( 'NONE',  ( -0.0000000000000000000, -1.000000000000000000, -0.0000000000000000000 ) ) ;
#162 = CARTESIAN_POINT ( 'NONE',  ( 1.454268073987481900E-016, 50.57000000000000700, 0.8499999999999999800 ) ) ;
#163 = CIRCLE ( 'NONE', #51, 2.816376830485884500 ) ;
#164 = CARTESIAN_POINT ( 'NONE',  ( 0.0000000000000000000, 16.19999999999999900, 0.0000000000000000000 ) ) ;
#165 = CARTESIAN_POINT ( 'NONE',  ( 1.867586368699713600E-016, 18.57000000000000000, 1.524999999999999900 ) ) ;
#166 = CARTESIAN_POINT ( 'NONE',  ( 0.0000000000000000000, 48.94040584539813900, 0.0000000000000000000 ) ) ;
#167 = ORIENTED_EDGE ( 'NONE', *, *, #352, .T. ) ;
#168 = DIRECTION ( 'NONE',  ( 0.0000000000000000000, 0.0000000000000000000, -1.000000000000000000 ) ) ;
#169 = TOROIDAL_SURFACE ( 'NONE', #96, 2.816376830485884500, 2.370000000000000600 ) ;
#170 = ORIENTED_EDGE ( 'NONE', *, *, #268, .T. ) ;
#171 = PRESENTATION_LAYER_ASSIGNMENT (  '', '', ( #172 ) ) ;
#172 = STYLED_ITEM ( 'NONE', ( #335 ), #77 ) ;
#173 =( LENGTH_UNIT ( ) NAMED_UNIT ( * ) SI_UNIT ( .MILLI., .METRE. ) );
#174 = VECTOR ( 'NONE', #219, 1000.000000000000000 ) ;
#175 = SURFACE_STYLE_USAGE ( .BOTH. , #176 ) ;
#176 = SURFACE_SIDE_STYLE ('',( #344 ) ) ;
#177 = EDGE_CURVE ( 'NONE', #143, #218, #138, .T. ) ;
#178 = DIRECTION ( 'NONE',  ( 0.0000000000000000000, -0.0000000000000000000, 1.000000000000000000 ) ) ;
#179 = ORIENTED_EDGE ( 'NONE', *, *, #338, .T. ) ;
#180 = DIRECTION ( 'NONE',  ( 0.0000000000000000000, 0.0000000000000000000, -1.000000000000000000 ) ) ;
#181 = ORIENTED_EDGE ( 'NONE', *, *, #284, .T. ) ;
#182 = DIRECTION ( 'NONE',  ( -0.0000000000000000000, -1.000000000000000000, -0.0000000000000000000 ) ) ;
#183 = AXIS2_PLACEMENT_3D ( 'NONE', #52, #94, #97 ) ;
#184 = AXIS2_PLACEMENT_3D ( 'NONE', #43, #25, #27 ) ;
#185 = CARTESIAN_POINT ( 'NONE',  ( 0.0000000000000000000, 1.000000000000000200, 2.375000000000000000 ) ) ;
#186 = ORIENTED_EDGE ( 'NONE', *, *, #357, .T. ) ;
#187 = DIRECTION ( 'NONE',  ( 0.0000000000000000000, 0.0000000000000000000, -1.000000000000000000 ) ) ;
#188 = ADVANCED_FACE ( 'NONE', ( #367 ), #101, .T. ) ;
#189 =( GEOMETRIC_REPRESENTATION_CONTEXT ( 3 ) GLOBAL_UNCERTAINTY_ASSIGNED_CONTEXT ( ( #230 ) ) GLOBAL_UNIT_ASSIGNED_CONTEXT ( ( #173, #117, #118 ) ) REPRESENTATION_CONTEXT ( 'NONE', 'WORKASPACE' ) );
#190 = DIRECTION ( 'NONE',  ( 0.0000000000000000000, 0.0000000000000000000, -1.000000000000000000 ) ) ;
#191 = ORIENTED_EDGE ( 'NONE', *, *, #55, .T. ) ;
#192 = ORIENTED_EDGE ( 'NONE', *, *, #10, .T. ) ;
#193 = DIRECTION ( 'NONE',  ( -0.0000000000000000000, -1.000000000000000000, -0.0000000000000000000 ) ) ;
#194 = CARTESIAN_POINT ( 'NONE',  ( 0.0000000000000000000, 0.0000000000000000000, 0.0000000000000000000 ) ) ;
#195 = ORIENTED_EDGE ( 'NONE', *, *, #357, .F. ) ;
#196 = MECHANICAL_DESIGN_GEOMETRIC_PRESENTATION_REPRESENTATION (  '', ( #258 ), #189 ) ;
#197 = DIRECTION ( 'NONE',  ( 0.0000000000000000000, 1.000000000000000000, 0.0000000000000000000 ) ) ;
#198 = EDGE_CURVE ( 'NONE', #263, #283, #112, .T. ) ;
#199 = FILL_AREA_STYLE ('',( #279 ) ) ;
#200 = APPLICATION_CONTEXT ( 'automotive_design' ) ;
#201 = VERTEX_POINT ( 'NONE', #359 ) ;
#202 = VERTEX_POINT ( 'NONE', #242 ) ;
#203 = ORIENTED_EDGE ( 'NONE', *, *, #300, .T. ) ;
#204 = DIRECTION ( 'NONE',  ( 0.0000000000000000000, 0.7071067811865464600, 0.7071067811865486800 ) ) ;
#205 = CARTESIAN_POINT ( 'NONE',  ( 0.0000000000000000000, 0.0000000000000000000, 1.374999999999996700 ) ) ;
#206 = ORIENTED_EDGE ( 'NONE', *, *, #261, .T. ) ;
#207 = ORIENTED_EDGE ( 'NONE', *, *, #298, .F. ) ;
#208 = APPLICATION_PROTOCOL_DEFINITION ( 'draft international standard', 'automotive_design', 1998, #200 ) ;
#209 = AXIS2_PLACEMENT_3D ( 'NONE', #340, #306, #264 ) ;
#210 = ADVANCED_FACE ( 'NONE', ( #106 ), #90, .T. ) ;
#211 = ORIENTED_EDGE ( 'NONE', *, *, #338, .F. ) ;
#212 = ORIENTED_EDGE ( 'NONE', *, *, #384, .T. ) ;
#213 = EDGE_LOOP ( 'NONE', ( #388, #236 ) ) ;
#214 = AXIS2_PLACEMENT_3D ( 'NONE', #121, #126, #130 ) ;
#215 = DIRECTION ( 'NONE',  ( 0.0000000000000000000, 1.000000000000000000, 0.0000000000000000000 ) ) ;
#216 = AXIS2_PLACEMENT_3D ( 'NONE', #16, #20, #22 ) ;
#217 = ORIENTED_EDGE ( 'NONE', *, *, #91, .F. ) ;
#218 = VERTEX_POINT ( 'NONE', #262 ) ;
#219 = DIRECTION ( 'NONE',  ( 4.686520405326236300E-017, -0.9238795325112888500, 0.3826834323650847300 ) ) ;
#220 = EDGE_LOOP ( 'NONE', ( #120, #191, #317, #9 ) ) ;
#221 = EDGE_CURVE ( 'NONE', #201, #348, #163, .T. ) ;
#222 = AXIS2_PLACEMENT_3D ( 'NONE', #67, #5, #115 ) ;
#223 = DIRECTION ( 'NONE',  ( 0.0000000000000000000, 0.0000000000000000000, 1.000000000000000000 ) ) ;
#224 = EDGE_LOOP ( 'NONE', ( #291, #295 ) ) ;
#225 = AXIS2_PLACEMENT_3D ( 'NONE', #54, #57, #64 ) ;
#226 = DIRECTION ( 'NONE',  ( 8.659560562354947600E-017, 0.7071067811865464600, -0.7071067811865486800 ) ) ;
#227 = EDGE_LOOP ( 'NONE', ( #36, #233, #167, #265 ) ) ;
#228 = ORIENTED_EDGE ( 'NONE', *, *, #355, .T. ) ;
#229 = CARTESIAN_POINT ( 'NONE',  ( 1.683889348827606800E-016, 0.0000000000000000000, -1.374999999999996700 ) ) ;
#230 = UNCERTAINTY_MEASURE_WITH_UNIT (LENGTH_MEASURE( 1.000000000000000100E-005 ), #173, 'distance_accuracy_value', 'NONE');
#231 = ORIENTED_EDGE ( 'NONE', *, *, #268, .F. ) ;
#232 = CARTESIAN_POINT ( 'NONE',  ( 0.0000000000000000000, 48.94040584539813900, 0.0000000000000000000 ) ) ;
#233 = ORIENTED_EDGE ( 'NONE', *, *, #298, .T. ) ;
#234 = EDGE_LOOP ( 'NONE', ( #231, #346, #235, #315 ) ) ;
#235 = ORIENTED_EDGE ( 'NONE', *, *, #368, .T. ) ;
#236 = ORIENTED_EDGE ( 'NONE', *, *, #55, .F. ) ;
#237 = CARTESIAN_POINT ( 'NONE',  ( 0.0000000000000000000, 18.57000000000000000, 0.0000000000000000000 ) ) ;
#238 =( NAMED_UNIT ( * ) SI_UNIT ( $, .STERADIAN. ) SOLID_ANGLE_UNIT ( ) );
#239 = DIRECTION ( 'NONE',  ( 0.0000000000000000000, 0.0000000000000000000, -1.000000000000000000 ) ) ;
#240 = ORIENTED_EDGE ( 'NONE', *, *, #300, .F. ) ;
#241 = VERTEX_POINT ( 'NONE', #294 ) ;
#242 = CARTESIAN_POINT ( 'NONE',  ( 0.0000000000000000000, 48.94040584539813900, -1.524999999999999900 ) ) ;
#243 = AXIS2_PLACEMENT_3D ( 'NONE', #17, #18, #19 ) ;
#244 = ORIENTED_EDGE ( 'NONE', *, *, #284, .F. ) ;
#245 = CYLINDRICAL_SURFACE ( 'NONE', #184, 2.375000000000000000 ) ;
#246 = PRESENTATION_LAYER_ASSIGNMENT (  '', '', ( #258 ) ) ;
#247 = VERTEX_POINT ( 'NONE', #309 ) ;
#248 = ORIENTED_EDGE ( 'NONE', *, *, #157, .F. ) ;
#249 = ADVANCED_FACE ( 'NONE', ( #92, #105 ), #320, .T. ) ;
#250 = EDGE_LOOP ( 'NONE', ( #257, #170, #116, #305 ) ) ;
#251 = ORIENTED_EDGE ( 'NONE', *, *, #177, .T. ) ;
#252 = CARTESIAN_POINT ( 'NONE',  ( 0.0000000000000000000, 0.0000000000000000000, -2.375000000000000000 ) ) ;
#253 = EDGE_LOOP ( 'NONE', ( #360, #56, #2, #48 ) ) ;
#254 = TOROIDAL_SURFACE ( 'NONE', #330, 2.816376830485884500, 2.370000000000000600 ) ;
#255 = CIRCLE ( 'NONE', #214, 0.8499999999999999800 ) ;
#256 = AXIS2_PLACEMENT_3D ( 'NONE', #4, #66, #187 ) ;
#257 = ORIENTED_EDGE ( 'NONE', *, *, #91, .T. ) ;
#258 = STYLED_ITEM ( 'NONE', ( #383 ), #288 ) ;
#259 =( NAMED_UNIT ( * ) PLANE_ANGLE_UNIT ( ) SI_UNIT ( $, .RADIAN. ) );
#260 = DIRECTION ( 'NONE',  ( -0.0000000000000000000, -1.000000000000000000, -0.0000000000000000000 ) ) ;
#261 = EDGE_CURVE ( 'NONE', #58, #149, #95, .T. ) ;
#262 = CARTESIAN_POINT ( 'NONE',  ( 1.867586368699713600E-016, 48.94040584539813900, 1.524999999999999900 ) ) ;
#263 = VERTEX_POINT ( 'NONE', #336 ) ;
#264 = DIRECTION ( 'NONE',  ( 0.0000000000000000000, 0.0000000000000000000, -1.000000000000000000 ) ) ;
#265 = ORIENTED_EDGE ( 'NONE', *, *, #355, .F. ) ;
#266 = EDGE_LOOP ( 'NONE', ( #244, #156, #179, #248 ) ) ;
#267 = EDGE_LOOP ( 'NONE', ( #296, #192, #107, #395 ) ) ;
#268 = EDGE_CURVE ( 'NONE', #218, #149, #87, .T. ) ;
#269 = PLANE ( 'NONE',  #302 ) ;
#270 = CARTESIAN_POINT ( 'NONE',  ( 0.0000000000000000000, 1.000000000000000200, 0.0000000000000000000 ) ) ;
#271 = DIRECTION ( 'NONE',  ( -0.0000000000000000000, -1.000000000000000000, -0.0000000000000000000 ) ) ;
#272 =( GEOMETRIC_REPRESENTATION_CONTEXT ( 3 ) GLOBAL_UNCERTAINTY_ASSIGNED_CONTEXT ( ( #145 ) ) GLOBAL_UNIT_ASSIGNED_CONTEXT ( ( #273, #259, #238 ) ) REPRESENTATION_CONTEXT ( 'NONE', 'WORKASPACE' ) );
#273 =( LENGTH_UNIT ( ) NAMED_UNIT ( * ) SI_UNIT ( .MILLI., .METRE. ) );
#274 = CARTESIAN_POINT ( 'NONE',  ( 0.0000000000000000000, 0.0000000000000000000, 1.374999999999996700 ) ) ;
#275 = DIRECTION ( 'NONE',  ( -0.0000000000000000000, -1.000000000000000000, -0.0000000000000000000 ) ) ;
#276 = EDGE_LOOP ( 'NONE', ( #304, #195, #281, #228 ) ) ;
#277 = EDGE_LOOP ( 'NONE', ( #396, #251, #217, #312 ) ) ;
#278 = ORIENTED_EDGE ( 'NONE', *, *, #376, .T. ) ;
#279 = FILL_AREA_STYLE_COLOUR ( '', #3 ) ;
#280 = AXIS2_PLACEMENT_3D ( 'NONE', #387, #382, #365 ) ;
#281 = ORIENTED_EDGE ( 'NONE', *, *, #157, .T. ) ;
#282 = DIRECTION ( 'NONE',  ( 0.0000000000000000000, 0.0000000000000000000, -1.000000000000000000 ) ) ;
#283 = VERTEX_POINT ( 'NONE', #363 ) ;
#284 = EDGE_CURVE ( 'NONE', #263, #285, #148, .T. ) ;
#285 = VERTEX_POINT ( 'NONE', #274 ) ;
#286 = AXIS2_PLACEMENT_3D ( 'NONE', #393, #125, #282 ) ;
#287 = DIRECTION ( 'NONE',  ( -0.0000000000000000000, -1.000000000000000000, -0.0000000000000000000 ) ) ;
#288 = ADVANCED_BREP_SHAPE_REPRESENTATION ( '0BS01-00618', ( #77, #122 ), #272 ) ;
#289 = EDGE_CURVE ( 'NONE', #348, #201, #84, .T. ) ;
#290 = PRODUCT_RELATED_PRODUCT_CATEGORY ( 'part', '', ( #21 ) ) ;
#291 = ORIENTED_EDGE ( 'NONE', *, *, #289, .F. ) ;
#292 = FACE_BOUND ( 'NONE', #310, .T. ) ;
#293 = VERTEX_POINT ( 'NONE', #369 ) ;
#294 = CARTESIAN_POINT ( 'NONE',  ( 0.0000000000000000000, 50.57000000000000700, -0.8499999999999999800 ) ) ;
#295 = ORIENTED_EDGE ( 'NONE', *, *, #221, .F. ) ;
#296 = ORIENTED_EDGE ( 'NONE', *, *, #289, .T. ) ;
#297 = VERTEX_POINT ( 'NONE', #185 ) ;
#298 = EDGE_CURVE ( 'NONE', #247, #293, #80, .T. ) ;
#299 = CARTESIAN_POINT ( 'NONE',  ( 2.375000000000000000, 17.02000000000000000, 0.0000000000000000000 ) ) ;
#300 = EDGE_CURVE ( 'NONE', #293, #247, #93, .T. ) ;
#301 = DIRECTION ( 'NONE',  ( 0.0000000000000000000, 0.0000000000000000000, -1.000000000000000000 ) ) ;
#302 = AXIS2_PLACEMENT_3D ( 'NONE', #307, #215, #178 ) ;
#303 = DIRECTION ( 'NONE',  ( 0.0000000000000000000, 0.0000000000000000000, -1.000000000000000000 ) ) ;
#304 = ORIENTED_EDGE ( 'NONE', *, *, #198, .F. ) ;
#305 = ORIENTED_EDGE ( 'NONE', *, *, #368, .F. ) ;
#306 = DIRECTION ( 'NONE',  ( -0.0000000000000000000, -1.000000000000000000, -0.0000000000000000000 ) ) ;
#307 = CARTESIAN_POINT ( 'NONE',  ( 1.524999999999999900, 18.57000000000000000, 0.0000000000000000000 ) ) ;
#308 = DIRECTION ( 'NONE',  ( -0.0000000000000000000, -1.000000000000000000, -0.0000000000000000000 ) ) ;
#309 = CARTESIAN_POINT ( 'NONE',  ( 2.908536147974963700E-016, 17.02000000000000000, 2.375000000000000000 ) ) ;
#310 = EDGE_LOOP ( 'NONE', ( #206, #212 ) ) ;
#311 = AXIS2_PLACEMENT_3D ( 'NONE', #389, #287, #8 ) ;
#312 = ORIENTED_EDGE ( 'NONE', *, *, #391, .F. ) ;
#313 = DIRECTION ( 'NONE',  ( -0.0000000000000000000, -1.000000000000000000, -0.0000000000000000000 ) ) ;
#314 = ORIENTED_EDGE ( 'NONE', *, *, #352, .F. ) ;
#315 = ORIENTED_EDGE ( 'NONE', *, *, #384, .F. ) ;
#316 = DIRECTION ( 'NONE',  ( 0.0000000000000000000, 0.0000000000000000000, -1.000000000000000000 ) ) ;
#317 = ORIENTED_EDGE ( 'NONE', *, *, #391, .T. ) ;
#318 = FACE_OUTER_BOUND ( 'NONE', #227, .T. ) ;
#319 = COLOUR_RGB ( '',0.7921568627450980000, 0.8196078431372548800, 0.9333333333333333500 ) ;
#320 = PLANE ( 'NONE',  #13 ) ;
#321 = FACE_OUTER_BOUND ( 'NONE', #75, .T. ) ;
#322 = SHAPE_DEFINITION_REPRESENTATION ( #81, #288 ) ;
#323 = CIRCLE ( 'NONE', #225, 5.040000000000000000 ) ;
#324 = EDGE_CURVE ( 'NONE', #218, #202, #89, .T. ) ;
#325 = DIRECTION ( 'NONE',  ( 0.0000000000000000000, -1.000000000000000000, -0.0000000000000000000 ) ) ;
#326 = CIRCLE ( 'NONE', #243, 2.370000000000000600 ) ;
#327 = CONICAL_SURFACE ( 'NONE', #256, 1.524999999999999900, 0.3926990816987187000 ) ;
#328 = DIRECTION ( 'NONE',  ( 0.0000000000000000000, 0.0000000000000000000, -1.000000000000000000 ) ) ;
#329 = FACE_OUTER_BOUND ( 'NONE', #267, .T. ) ;
#330 = AXIS2_PLACEMENT_3D ( 'NONE', #53, #308, #303 ) ;
#331 = FACE_OUTER_BOUND ( 'NONE', #213, .T. ) ;
#332 = ADVANCED_FACE ( 'NONE', ( #76 ), #63, .T. ) ;
#333 = PRODUCT_DEFINITION_CONTEXT ( 'detailed design', #69, 'design' ) ;
#334 = SURFACE_STYLE_FILL_AREA ( #131 ) ;
#335 = PRESENTATION_STYLE_ASSIGNMENT (( #133 ) ) ;
#336 = CARTESIAN_POINT ( 'NONE',  ( 2.296212748401285000E-016, 0.0000000000000000000, -1.374999999999996700 ) ) ;
#337 = CARTESIAN_POINT ( 'NONE',  ( 0.0000000000000000000, 0.0000000000000000000, 0.0000000000000000000 ) ) ;
#338 = EDGE_CURVE ( 'NONE', #283, #297, #68, .T. ) ;
#339 = AXIS2_PLACEMENT_3D ( 'NONE', #142, #109, #380 ) ;
#340 = CARTESIAN_POINT ( 'NONE',  ( 0.0000000000000000000, 17.02000000000000000, 0.0000000000000000000 ) ) ;
#341 = AXIS2_PLACEMENT_3D ( 'NONE', #270, #275, #301 ) ;
#342 = CARTESIAN_POINT ( 'NONE',  ( 1.867586368699713600E-016, 0.0000000000000000000, 1.524999999999999900 ) ) ;
#343 = VERTEX_POINT ( 'NONE', #129 ) ;
#344 = SURFACE_STYLE_FILL_AREA ( #199 ) ;
#345 = EDGE_CURVE ( 'NONE', #343, #377, #79, .T. ) ;
#346 = ORIENTED_EDGE ( 'NONE', *, *, #324, .T. ) ;
#347 = CARTESIAN_POINT ( 'NONE',  ( 0.0000000000000000000, 18.57000000000000000, 0.0000000000000000000 ) ) ;
#348 = VERTEX_POINT ( 'NONE', #123 ) ;
#349 = ADVANCED_FACE ( 'NONE', ( #70 ), #364, .T. ) ;
#350 = CARTESIAN_POINT ( 'NONE',  ( 6.172219867702660300E-016, 17.02000000000000000, 5.040000000000000000 ) ) ;
#351 = CONICAL_SURFACE ( 'NONE', #124, 1.374999999999996700, 0.7853981633974498300 ) ;
#352 = EDGE_CURVE ( 'NONE', #293, #283, #60, .T. ) ;
#353 = DIRECTION ( 'NONE',  ( -0.0000000000000000000, -1.000000000000000000, -0.0000000000000000000 ) ) ;
#354 = DIRECTION ( 'NONE',  ( 0.0000000000000000000, 0.0000000000000000000, -1.000000000000000000 ) ) ;
#355 = EDGE_CURVE ( 'NONE', #297, #283, #46, .T. ) ;
#356 = ADVANCED_FACE ( 'NONE', ( #72 ), #254, .T. ) ;
#357 = EDGE_CURVE ( 'NONE', #285, #263, #45, .T. ) ;
#358 = CARTESIAN_POINT ( 'NONE',  ( 2.908536147974963700E-016, 0.0000000000000000000, 2.375000000000000000 ) ) ;
#359 = CARTESIAN_POINT ( 'NONE',  ( 4.810643369174983800E-016, 18.57000000000000000, 2.816376830485884500 ) ) ;
#360 = ORIENTED_EDGE ( 'NONE', *, *, #10, .F. ) ;
#361 = DIRECTION ( 'NONE',  ( -0.0000000000000000000, -1.000000000000000000, -0.0000000000000000000 ) ) ;
#362 = AXIS2_PLACEMENT_3D ( 'NONE', #12, #49, #31 ) ;
#363 = CARTESIAN_POINT ( 'NONE',  ( 2.908536147974964200E-016, 1.000000000000000200, -2.375000000000000000 ) ) ;
#364 = CYLINDRICAL_SURFACE ( 'NONE', #339, 2.375000000000000000 ) ;
#365 = DIRECTION ( 'NONE',  ( 0.0000000000000000000, 0.0000000000000000000, 1.000000000000000000 ) ) ;
#366 = ADVANCED_FACE ( 'NONE', ( #292, #44 ), #269, .T. ) ;
#367 = FACE_OUTER_BOUND ( 'NONE', #266, .T. ) ;
#368 = EDGE_CURVE ( 'NONE', #202, #58, #35, .T. ) ;
#369 = CARTESIAN_POINT ( 'NONE',  ( 0.0000000000000000000, 17.02000000000000000, -2.375000000000000000 ) ) ;
#370 = CARTESIAN_POINT ( 'NONE',  ( 0.0000000000000000000, 0.0000000000000000000, -1.524999999999999900 ) ) ;
#371 = CARTESIAN_POINT ( 'NONE',  ( 0.0000000000000000000, 0.0000000000000000000, 0.0000000000000000000 ) ) ;
#372 = DIRECTION ( 'NONE',  ( -0.0000000000000000000, -1.000000000000000000, -0.0000000000000000000 ) ) ;
#373 = AXIS2_PLACEMENT_3D ( 'NONE', #152, #402, #42 ) ;
#374 = DIRECTION ( 'NONE',  ( 0.0000000000000000000, 1.000000000000000000, 0.0000000000000000000 ) ) ;
#375 = FACE_OUTER_BOUND ( 'NONE', #277, .T. ) ;
#376 = EDGE_CURVE ( 'NONE', #247, #297, #39, .T. ) ;
#377 = VERTEX_POINT ( 'NONE', #350 ) ;
#378 = DIRECTION ( 'NONE',  ( 0.0000000000000000000, 0.0000000000000000000, -1.000000000000000000 ) ) ;
#379 = DIRECTION ( 'NONE',  ( -0.0000000000000000000, -1.000000000000000000, -0.0000000000000000000 ) ) ;
#380 = DIRECTION ( 'NONE',  ( 0.0000000000000000000, 0.0000000000000000000, -1.000000000000000000 ) ) ;
#381 = CARTESIAN_POINT ( 'NONE',  ( 1.867586368699713600E-016, 48.94040584539813900, 1.524999999999999900 ) ) ;
#382 = DIRECTION ( 'NONE',  ( -1.000000000000000000, 0.0000000000000000000, 0.0000000000000000000 ) ) ;
#383 = PRESENTATION_STYLE_ASSIGNMENT (( #175 ) ) ;
#384 = EDGE_CURVE ( 'NONE', #149, #58, #30, .T. ) ;
#385 = AXIS2_PLACEMENT_3D ( 'NONE', #33, #379, #100 ) ;
#386 = EDGE_CURVE ( 'NONE', #241, #143, #32, .T. ) ;
#387 = CARTESIAN_POINT ( 'NONE',  ( 0.0000000000000000000, 16.19999999999999900, -2.816376830485884500 ) ) ;
#388 = ORIENTED_EDGE ( 'NONE', *, *, #386, .F. ) ;
#389 = CARTESIAN_POINT ( 'NONE',  ( 0.0000000000000000000, 18.57000000000000000, 0.0000000000000000000 ) ) ;
#390 = EDGE_CURVE ( 'NONE', #348, #343, #41, .T. ) ;
#391 = EDGE_CURVE ( 'NONE', #241, #202, #29, .T. ) ;
#392 = AXIS2_PLACEMENT_3D ( 'NONE', #144, #147, #180 ) ;
#393 = CARTESIAN_POINT ( 'NONE',  ( 0.0000000000000000000, 50.57000000000000700, 0.0000000000000000000 ) ) ;
#394 = UNCERTAINTY_MEASURE_WITH_UNIT (LENGTH_MEASURE( 1.000000000000000100E-005 ), #134, 'distance_accuracy_value', 'NONE');
#395 = ORIENTED_EDGE ( 'NONE', *, *, #390, .F. ) ;
#396 = ORIENTED_EDGE ( 'NONE', *, *, #386, .T. ) ;
#397 = EDGE_LOOP ( 'NONE', ( #203, #278, #211, #314 ) ) ;
#398 = CARTESIAN_POINT ( 'NONE',  ( 0.0000000000000000000, 17.02000000000000000, 0.0000000000000000000 ) ) ;
#399 = AXIS2_PLACEMENT_3D ( 'NONE', #398, #400, #24 ) ;
#400 = DIRECTION ( 'NONE',  ( -0.0000000000000000000, -1.000000000000000000, -0.0000000000000000000 ) ) ;
#401 = CARTESIAN_POINT ( 'NONE',  ( 0.0000000000000000000, 0.0000000000000000000, 0.0000000000000000000 ) ) ;
#402 = DIRECTION ( 'NONE',  ( -0.0000000000000000000, -1.000000000000000000, -0.0000000000000000000 ) ) ;
ENDSEC;
END-ISO-10303-21;
