ISO-10303-21;
HEADER;
FILE_DESCRIPTION (( 'STEP AP214' ),
    '1' );
FILE_NAME ('01661-00631MING_12_70mm.STEP',
    '2016-04-28T09:07:40',
    ( '' ),
    ( '' ),
    'SwSTEP 2.0',
    'SolidWorks 2015',
    '' );
FILE_SCHEMA (( 'AUTOMOTIVE_DESIGN' ));
ENDSEC;

DATA;
#1 = FACE_OUTER_BOUND ( 'NONE', #119, .T. ) ;
#2 = ORIENTED_EDGE ( 'NONE', *, *, #297, .T. ) ;
#3 = EDGE_CURVE ( 'NONE', #123, #120, #248, .T. ) ;
#4 = DIRECTION ( 'NONE',  ( 1.000000000000000000, 0.0000000000000000000, -1.224646799147353200E-016 ) ) ;
#5 = PRODUCT_DEFINITION_FORMATION_WITH_SPECIFIED_SOURCE ( 'ANY', '', #318, .NOT_KNOWN. ) ;
#6 = CLOSED_SHELL ( 'NONE', ( #195, #49, #74, #207, #73, #342, #313, #361, #10, #92, #16, #45 ) ) ;
#7 = PRESENTATION_LAYER_ASSIGNMENT (  '', '', ( #368 ) ) ;
#8 = EDGE_LOOP ( 'NONE', ( #65, #59, #55, #311 ) ) ;
#9 = AXIS2_PLACEMENT_3D ( 'NONE', #241, #156, #37 ) ;
#10 = ADVANCED_FACE ( 'NONE', ( #1 ), #173, .T. ) ;
#11 = DIRECTION ( 'NONE',  ( 0.0000000000000000000, 0.0000000000000000000, -1.000000000000000000 ) ) ;
#12 =( LENGTH_UNIT ( ) NAMED_UNIT ( * ) SI_UNIT ( .MILLI., .METRE. ) );
#13 = CARTESIAN_POINT ( 'NONE',  ( 0.0000000000000000000, 0.8175336038535145900, 0.0000000000000000000 ) ) ;
#14 = FILL_AREA_STYLE_COLOUR ( '', #137 ) ;
#15 = DIRECTION ( 'NONE',  ( 0.0000000000000000000, 0.0000000000000000000, -1.000000000000000000 ) ) ;
#16 = ADVANCED_FACE ( 'NONE', ( #244 ), #170, .T. ) ;
#17 = DIRECTION ( 'NONE',  ( -0.0000000000000000000, -1.000000000000000000, -0.0000000000000000000 ) ) ;
#18 = PRESENTATION_STYLE_ASSIGNMENT (( #232 ) ) ;
#19 = ORIENTED_EDGE ( 'NONE', *, *, #89, .F. ) ;
#20 = DIRECTION ( 'NONE',  ( -0.0000000000000000000, -1.000000000000000000, -0.0000000000000000000 ) ) ;
#21 = EDGE_CURVE ( 'NONE', #155, #335, #169, .T. ) ;
#22 = EDGE_CURVE ( 'NONE', #80, #123, #320, .T. ) ;
#23 = MANIFOLD_SOLID_BREP ( 'Revolve1', #6 ) ;
#24 = CARTESIAN_POINT ( 'NONE',  ( 0.0000000000000000000, 18.19999999999999900, 0.0000000000000000000 ) ) ;
#25 = PRODUCT_RELATED_PRODUCT_CATEGORY ( 'part', '', ( #318 ) ) ;
#26 = ORIENTED_EDGE ( 'NONE', *, *, #89, .T. ) ;
#27 = FILL_AREA_STYLE_COLOUR ( '', #208 ) ;
#28 = MECHANICAL_DESIGN_GEOMETRIC_PRESENTATION_REPRESENTATION (  '', ( #368 ), #41 ) ;
#29 = DIRECTION ( 'NONE',  ( -0.0000000000000000000, -1.000000000000000000, -0.0000000000000000000 ) ) ;
#30 = ORIENTED_EDGE ( 'NONE', *, *, #142, .F. ) ;
#31 = ORIENTED_EDGE ( 'NONE', *, *, #360, .F. ) ;
#32 = CARTESIAN_POINT ( 'NONE',  ( 0.0000000000000000000, 5.500000000000000000, 0.0000000000000000000 ) ) ;
#33 = AXIS2_PLACEMENT_3D ( 'NONE', #130, #149, #177 ) ;
#34 = ORIENTED_EDGE ( 'NONE', *, *, #256, .T. ) ;
#35 = VERTEX_POINT ( 'NONE', #334 ) ;
#36 = ORIENTED_EDGE ( 'NONE', *, *, #81, .T. ) ;
#37 = DIRECTION ( 'NONE',  ( 0.0000000000000000000, 0.0000000000000000000, -1.000000000000000000 ) ) ;
#38 = EDGE_CURVE ( 'NONE', #370, #123, #188, .T. ) ;
#39 = DIRECTION ( 'NONE',  ( -0.0000000000000000000, -1.000000000000000000, -0.0000000000000000000 ) ) ;
#40 = SURFACE_STYLE_FILL_AREA ( #148 ) ;
#41 =( GEOMETRIC_REPRESENTATION_CONTEXT ( 3 ) GLOBAL_UNCERTAINTY_ASSIGNED_CONTEXT ( ( #212 ) ) GLOBAL_UNIT_ASSIGNED_CONTEXT ( ( #160, #174, #340 ) ) REPRESENTATION_CONTEXT ( 'NONE', 'WORKASPACE' ) );
#42 = CARTESIAN_POINT ( 'NONE',  ( 0.0000000000000000000, 2.802372543132418200, 0.0000000000000000000 ) ) ;
#43 = DIRECTION ( 'NONE',  ( -0.0000000000000000000, -0.0000000000000000000, -1.000000000000000000 ) ) ;
#44 = ORIENTED_EDGE ( 'NONE', *, *, #256, .F. ) ;
#45 = ADVANCED_FACE ( 'NONE', ( #183 ), #252, .T. ) ;
#46 = EDGE_CURVE ( 'NONE', #104, #80, #191, .T. ) ;
#47 = AXIS2_PLACEMENT_3D ( 'NONE', #184, #109, #265 ) ;
#48 = AXIS2_PLACEMENT_3D ( 'NONE', #322, #275, #122 ) ;
#49 = ADVANCED_FACE ( 'NONE', ( #190 ), #267, .T. ) ;
#50 = SHAPE_DEFINITION_REPRESENTATION ( #216, #328 ) ;
#51 = DIRECTION ( 'NONE',  ( 0.0000000000000000000, 0.0000000000000000000, -1.000000000000000000 ) ) ;
#52 = EDGE_LOOP ( 'NONE', ( #126, #2 ) ) ;
#53 = VERTEX_POINT ( 'NONE', #157 ) ;
#54 = SURFACE_SIDE_STYLE ('',( #40 ) ) ;
#55 = ORIENTED_EDGE ( 'NONE', *, *, #327, .F. ) ;
#56 = DIRECTION ( 'NONE',  ( -0.0000000000000000000, -1.000000000000000000, -0.0000000000000000000 ) ) ;
#57 = CARTESIAN_POINT ( 'NONE',  ( 0.0000000000000000000, 0.0000000000000000000, -2.515000000000000100 ) ) ;
#58 = EDGE_CURVE ( 'NONE', #64, #93, #175, .T. ) ;
#59 = ORIENTED_EDGE ( 'NONE', *, *, #324, .T. ) ;
#60 = ORIENTED_EDGE ( 'NONE', *, *, #58, .T. ) ;
#61 = DIRECTION ( 'NONE',  ( -0.0000000000000000000, -1.000000000000000000, -0.0000000000000000000 ) ) ;
#62 = UNCERTAINTY_MEASURE_WITH_UNIT (LENGTH_MEASURE( 1.000000000000000100E-005 ), #12, 'distance_accuracy_value', 'NONE');
#63 = DIRECTION ( 'NONE',  ( 0.0000000000000000000, 0.0000000000000000000, 1.000000000000000000 ) ) ;
#64 = VERTEX_POINT ( 'NONE', #211 ) ;
#65 = ORIENTED_EDGE ( 'NONE', *, *, #151, .T. ) ;
#66 = AXIS2_PLACEMENT_3D ( 'NONE', #135, #192, #193 ) ;
#67 = ORIENTED_EDGE ( 'NONE', *, *, #263, .F. ) ;
#68 = DIRECTION ( 'NONE',  ( -1.000000000000000000, 0.0000000000000000000, 0.0000000000000000000 ) ) ;
#69 = AXIS2_PLACEMENT_3D ( 'NONE', #150, #78, #77 ) ;
#70 = CARTESIAN_POINT ( 'NONE',  ( 0.0000000000000000000, 3.702372543132418100, -1.658947368421053600 ) ) ;
#71 = AXIS2_PLACEMENT_3D ( 'NONE', #372, #349, #350 ) ;
#72 = DIRECTION ( 'NONE',  ( 0.0000000000000000000, 0.0000000000000000000, -1.000000000000000000 ) ) ;
#73 = ADVANCED_FACE ( 'NONE', ( #274 ), #194, .T. ) ;
#74 = ADVANCED_FACE ( 'NONE', ( #351 ), #199, .T. ) ;
#75 = ORIENTED_EDGE ( 'NONE', *, *, #263, .T. ) ;
#76 = ORIENTED_EDGE ( 'NONE', *, *, #315, .F. ) ;
#77 = DIRECTION ( 'NONE',  ( 0.0000000000000000000, 0.0000000000000000000, -1.000000000000000000 ) ) ;
#78 = DIRECTION ( 'NONE',  ( -0.0000000000000000000, -1.000000000000000000, -0.0000000000000000000 ) ) ;
#79 = ORIENTED_EDGE ( 'NONE', *, *, #129, .T. ) ;
#80 = VERTEX_POINT ( 'NONE', #357 ) ;
#81 = EDGE_CURVE ( 'NONE', #85, #124, #213, .T. ) ;
#82 = CARTESIAN_POINT ( 'NONE',  ( 0.0000000000000000000, 0.0000000000000000000, 0.0000000000000000000 ) ) ;
#83 = APPLICATION_PROTOCOL_DEFINITION ( 'draft international standard', 'automotive_design', 1998, #165 ) ;
#84 = EDGE_LOOP ( 'NONE', ( #231, #153, #140, #101 ) ) ;
#85 = VERTEX_POINT ( 'NONE', #257 ) ;
#86 = CARTESIAN_POINT ( 'NONE',  ( 0.0000000000000000000, 2.802372543132418200, -1.658947368421053600 ) ) ;
#87 = ORIENTED_EDGE ( 'NONE', *, *, #338, .F. ) ;
#88 = DIRECTION ( 'NONE',  ( -0.0000000000000000000, -0.0000000000000000000, -1.000000000000000000 ) ) ;
#89 = EDGE_CURVE ( 'NONE', #93, #64, #198, .T. ) ;
#90 = ORIENTED_EDGE ( 'NONE', *, *, #167, .F. ) ;
#91 = AXIS2_PLACEMENT_3D ( 'NONE', #13, #61, #51 ) ;
#92 = ADVANCED_FACE ( 'NONE', ( #260, #277 ), #226, .T. ) ;
#93 = VERTEX_POINT ( 'NONE', #127 ) ;
#94 = DIRECTION ( 'NONE',  ( 0.0000000000000000000, 0.0000000000000000000, -1.000000000000000000 ) ) ;
#95 = AXIS2_PLACEMENT_3D ( 'NONE', #133, #261, #264 ) ;
#96 = ORIENTED_EDGE ( 'NONE', *, *, #38, .F. ) ;
#97 = ORIENTED_EDGE ( 'NONE', *, *, #3, .F. ) ;
#98 = ORIENTED_EDGE ( 'NONE', *, *, #151, .F. ) ;
#99 = EDGE_CURVE ( 'NONE', #370, #35, #203, .T. ) ;
#100 = DIRECTION ( 'NONE',  ( -0.0000000000000000000, -1.000000000000000000, -0.0000000000000000000 ) ) ;
#101 = ORIENTED_EDGE ( 'NONE', *, *, #99, .T. ) ;
#102 = DIRECTION ( 'NONE',  ( 1.000000000000000000, 0.0000000000000000000, -1.224646799147353200E-016 ) ) ;
#103 = ORIENTED_EDGE ( 'NONE', *, *, #46, .F. ) ;
#104 = VERTEX_POINT ( 'NONE', #230 ) ;
#105 = DIRECTION ( 'NONE',  ( 1.000000000000000000, 0.0000000000000000000, 0.0000000000000000000 ) ) ;
#106 = DIRECTION ( 'NONE',  ( -0.0000000000000000000, -1.000000000000000000, -0.0000000000000000000 ) ) ;
#107 = ORIENTED_EDGE ( 'NONE', *, *, #338, .T. ) ;
#108 = ORIENTED_EDGE ( 'NONE', *, *, #297, .F. ) ;
#109 = DIRECTION ( 'NONE',  ( 1.000000000000000000, 0.0000000000000000000, -1.224646799147353200E-016 ) ) ;
#110 = DIRECTION ( 'NONE',  ( 1.000000000000000000, 0.0000000000000000000, 0.0000000000000000000 ) ) ;
#111 = AXIS2_PLACEMENT_3D ( 'NONE', #70, #68, #63 ) ;
#112 = CARTESIAN_POINT ( 'NONE',  ( 2.031624584690768300E-016, 3.702372543132418100, 1.658947368421053600 ) ) ;
#113 = CARTESIAN_POINT ( 'NONE',  ( 0.0000000000000000000, 3.252372543132418400, 0.0000000000000000000 ) ) ;
#114 = EDGE_LOOP ( 'NONE', ( #239, #138, #139, #321 ) ) ;
#115 = ORIENTED_EDGE ( 'NONE', *, *, #142, .T. ) ;
#116 = AXIS2_PLACEMENT_3D ( 'NONE', #319, #273, #302 ) ;
#117 = CARTESIAN_POINT ( 'NONE',  ( 0.0000000000000000000, 0.8175336038535145900, -1.816125505703705100 ) ) ;
#118 = AXIS2_PLACEMENT_3D ( 'NONE', #314, #4, #205 ) ;
#119 = EDGE_LOOP ( 'NONE', ( #31, #26, #224, #44 ) ) ;
#120 = VERTEX_POINT ( 'NONE', #268 ) ;
#121 = DIRECTION ( 'NONE',  ( 0.0000000000000000000, 0.0000000000000000000, -1.000000000000000000 ) ) ;
#122 = DIRECTION ( 'NONE',  ( 0.0000000000000000000, 0.0000000000000000000, -1.000000000000000000 ) ) ;
#123 = VERTEX_POINT ( 'NONE', #117 ) ;
#124 = VERTEX_POINT ( 'NONE', #189 ) ;
#125 = EDGE_LOOP ( 'NONE', ( #75, #309, #87, #103 ) ) ;
#126 = ORIENTED_EDGE ( 'NONE', *, *, #327, .T. ) ;
#127 = CARTESIAN_POINT ( 'NONE',  ( 3.079986699855593800E-016, 18.19999999999999900, 2.515000000000000100 ) ) ;
#128 = DIRECTION ( 'NONE',  ( 0.0000000000000000000, 0.0000000000000000000, -1.000000000000000000 ) ) ;
#129 = EDGE_CURVE ( 'NONE', #335, #80, #214, .T. ) ;
#130 = CARTESIAN_POINT ( 'NONE',  ( 0.0000000000000000000, 3.252372543132418400, 0.0000000000000000000 ) ) ;
#131 = ORIENTED_EDGE ( 'NONE', *, *, #22, .F. ) ;
#132 = LINE ( 'NONE', #242, #303 ) ;
#133 = CARTESIAN_POINT ( 'NONE',  ( 0.0000000000000000000, 18.19999999999999900, 0.0000000000000000000 ) ) ;
#134 = DIRECTION ( 'NONE',  ( -1.000000000000000000, 0.0000000000000000000, 0.0000000000000000000 ) ) ;
#135 = CARTESIAN_POINT ( 'NONE',  ( 0.0000000000000000000, 0.8175336038535145900, 0.0000000000000000000 ) ) ;
#136 = AXIS2_PLACEMENT_3D ( 'NONE', #141, #144, #326 ) ;
#137 = COLOUR_RGB ( '',0.7921568627450980000, 0.8196078431372548800, 0.9333333333333333500 ) ;
#138 = ORIENTED_EDGE ( 'NONE', *, *, #3, .T. ) ;
#139 = ORIENTED_EDGE ( 'NONE', *, *, #364, .T. ) ;
#140 = ORIENTED_EDGE ( 'NONE', *, *, #167, .T. ) ;
#141 = CARTESIAN_POINT ( 'NONE',  ( 2.665000000000000000, 19.99999999999999600, 0.0000000000000000000 ) ) ;
#142 = EDGE_CURVE ( 'NONE', #335, #288, #310, .T. ) ;
#143 = AXIS2_PLACEMENT_3D ( 'NONE', #223, #100, #128 ) ;
#144 = DIRECTION ( 'NONE',  ( 0.0000000000000000000, 1.000000000000000000, 0.0000000000000000000 ) ) ;
#145 = EDGE_LOOP ( 'NONE', ( #154, #356, #36, #108 ) ) ;
#146 = ORIENTED_EDGE ( 'NONE', *, *, #291, .F. ) ;
#147 = AXIS2_PLACEMENT_3D ( 'NONE', #270, #106, #238 ) ;
#148 = FILL_AREA_STYLE ('',( #14 ) ) ;
#149 = DIRECTION ( 'NONE',  ( -0.0000000000000000000, -1.000000000000000000, -0.0000000000000000000 ) ) ;
#150 = CARTESIAN_POINT ( 'NONE',  ( 0.0000000000000000000, 19.99999999999999600, 0.0000000000000000000 ) ) ;
#151 = EDGE_CURVE ( 'NONE', #85, #53, #287, .T. ) ;
#152 =( LENGTH_UNIT ( ) NAMED_UNIT ( * ) SI_UNIT ( .MILLI., .METRE. ) );
#153 = ORIENTED_EDGE ( 'NONE', *, *, #291, .T. ) ;
#154 = ORIENTED_EDGE ( 'NONE', *, *, #324, .F. ) ;
#155 = VERTEX_POINT ( 'NONE', #218 ) ;
#156 = DIRECTION ( 'NONE',  ( 0.0000000000000000000, -1.000000000000000000, -0.0000000000000000000 ) ) ;
#157 = CARTESIAN_POINT ( 'NONE',  ( 4.711828559719441600E-016, 19.99999999999999600, 2.665000000000000000 ) ) ;
#158 = ORIENTED_EDGE ( 'NONE', *, *, #58, .F. ) ;
#159 = ORIENTED_EDGE ( 'NONE', *, *, #21, .F. ) ;
#160 =( LENGTH_UNIT ( ) NAMED_UNIT ( * ) SI_UNIT ( .MILLI., .METRE. ) );
#161 = CARTESIAN_POINT ( 'NONE',  ( 0.0000000000000000000, 2.426000000000000200, 0.0000000000000000000 ) ) ;
#162 = EDGE_LOOP ( 'NONE', ( #159, #34, #163, #240 ) ) ;
#163 = ORIENTED_EDGE ( 'NONE', *, *, #46, .T. ) ;
#164 = AXIS2_PLACEMENT_3D ( 'NONE', #271, #284, #233 ) ;
#165 = APPLICATION_CONTEXT ( 'automotive_design' ) ;
#166 = CARTESIAN_POINT ( 'NONE',  ( 3.315490242988051200E-016, 0.8175336038535145900, 1.816125505703705100 ) ) ;
#167 = EDGE_CURVE ( 'NONE', #288, #370, #220, .T. ) ;
#168 = AXIS2_PLACEMENT_3D ( 'NONE', #42, #17, #345 ) ;
#169 = CIRCLE ( 'NONE', #332, 1.991052631578946300 ) ;
#170 = TOROIDAL_SURFACE ( 'NONE', #308, 2.665000000000000500, 2.453673611111113000 ) ;
#171 = AXIS2_PLACEMENT_3D ( 'NONE', #24, #20, #15 ) ;
#172 = CARTESIAN_POINT ( 'NONE',  ( 0.0000000000000000000, 2.426000000000000200, 0.0000000000000000000 ) ) ;
#173 = CYLINDRICAL_SURFACE ( 'NONE', #344, 2.515000000000000100 ) ;
#174 =( NAMED_UNIT ( * ) PLANE_ANGLE_UNIT ( ) SI_UNIT ( $, .RADIAN. ) );
#175 = CIRCLE ( 'NONE', #181, 2.515000000000000100 ) ;
#176 = PRESENTATION_STYLE_ASSIGNMENT (( #186 ) ) ;
#177 = DIRECTION ( 'NONE',  ( 0.0000000000000000000, 0.0000000000000000000, -1.000000000000000000 ) ) ;
#178 = DIRECTION ( 'NONE',  ( 0.0000000000000000000, 0.0000000000000000000, -1.000000000000000000 ) ) ;
#179 = DIRECTION ( 'NONE',  ( 0.0000000000000000000, 0.0000000000000000000, -1.000000000000000000 ) ) ;
#180 = DIRECTION ( 'NONE',  ( -0.0000000000000000000, 0.0000000000000000000, 1.000000000000000000 ) ) ;
#181 = AXIS2_PLACEMENT_3D ( 'NONE', #204, #197, #307 ) ;
#182 = PRODUCT_CONTEXT ( 'NONE', #336, 'mechanical' ) ;
#183 = FACE_OUTER_BOUND ( 'NONE', #227, .T. ) ;
#184 = CARTESIAN_POINT ( 'NONE',  ( 2.031624584690768300E-016, 2.802372543132418200, 1.658947368421053600 ) ) ;
#185 = AXIS2_PLACEMENT_3D ( 'NONE', #32, #29, #121 ) ;
#186 = SURFACE_STYLE_USAGE ( .BOTH. , #196 ) ;
#187 = AXIS2_PLACEMENT_3D ( 'NONE', #113, #325, #249 ) ;
#188 = CIRCLE ( 'NONE', #66, 1.816125505703705100 ) ;
#189 = CARTESIAN_POINT ( 'NONE',  ( 0.0000000000000000000, 18.19999999999999900, -5.030000000000000200 ) ) ;
#190 = FACE_OUTER_BOUND ( 'NONE', #317, .T. ) ;
#191 = CIRCLE ( 'NONE', #111, 1.991052631578946300 ) ;
#192 = DIRECTION ( 'NONE',  ( -0.0000000000000000000, -1.000000000000000000, -0.0000000000000000000 ) ) ;
#193 = DIRECTION ( 'NONE',  ( 0.0000000000000000000, 0.0000000000000000000, -1.000000000000000000 ) ) ;
#194 = SPHERICAL_SURFACE ( 'NONE', #316, 2.426000000000000200 ) ;
#195 = ADVANCED_FACE ( 'NONE', ( #209 ), #221, .T. ) ;
#196 = SURFACE_SIDE_STYLE ('',( #331 ) ) ;
#197 = DIRECTION ( 'NONE',  ( -0.0000000000000000000, -1.000000000000000000, -0.0000000000000000000 ) ) ;
#198 = CIRCLE ( 'NONE', #346, 2.515000000000000100 ) ;
#199 = TOROIDAL_SURFACE ( 'NONE', #333, 1.658947368421053600, 1.991052631578946300 ) ;
#200 = FILL_AREA_STYLE ('',( #27 ) ) ;
#201 = UNCERTAINTY_MEASURE_WITH_UNIT (LENGTH_MEASURE( 1.000000000000000100E-005 ), #152, 'distance_accuracy_value', 'NONE');
#202 = AXIS2_PLACEMENT_3D ( 'NONE', #369, #272, #269 ) ;
#203 = CIRCLE ( 'NONE', #371, 2.426000000000000200 ) ;
#204 = CARTESIAN_POINT ( 'NONE',  ( 0.0000000000000000000, 18.19999999999999900, 0.0000000000000000000 ) ) ;
#205 = DIRECTION ( 'NONE',  ( -1.224646799147353200E-016, 0.0000000000000000000, -1.000000000000000000 ) ) ;
#206 = DIRECTION ( 'NONE',  ( 0.0000000000000000000, 0.0000000000000000000, 1.000000000000000000 ) ) ;
#207 = ADVANCED_FACE ( 'NONE', ( #255 ), #253, .T. ) ;
#208 = COLOUR_RGB ( '',0.7921568627450980000, 0.8196078431372548800, 0.9333333333333333500 ) ;
#209 = FACE_OUTER_BOUND ( 'NONE', #8, .T. ) ;
#210 = ORIENTED_EDGE ( 'NONE', *, *, #360, .T. ) ;
#211 = CARTESIAN_POINT ( 'NONE',  ( 0.0000000000000000000, 18.19999999999999900, -2.515000000000000100 ) ) ;
#212 = UNCERTAINTY_MEASURE_WITH_UNIT (LENGTH_MEASURE( 1.000000000000000100E-005 ), #160, 'distance_accuracy_value', 'NONE');
#213 = CIRCLE ( 'NONE', #164, 2.453673611111113000 ) ;
#214 = CIRCLE ( 'NONE', #33, 3.598480967438468800 ) ;
#215 = DIRECTION ( 'NONE',  ( -1.000000000000000000, 0.0000000000000000000, 0.0000000000000000000 ) ) ;
#216 = PRODUCT_DEFINITION_SHAPE ( 'NONE', 'NONE',  #366 ) ;
#217 = DIRECTION ( 'NONE',  ( -0.0000000000000000000, -1.000000000000000000, -0.0000000000000000000 ) ) ;
#218 = CARTESIAN_POINT ( 'NONE',  ( 3.743427449210892900E-016, 5.500000000000000000, 2.515000000000000100 ) ) ;
#219 = CIRCLE ( 'NONE', #95, 5.030000000000000200 ) ;
#220 = CIRCLE ( 'NONE', #91, 1.816125505703705100 ) ;
#221 = TOROIDAL_SURFACE ( 'NONE', #143, 2.665000000000000500, 2.453673611111113000 ) ;
#222 = CIRCLE ( 'NONE', #116, 2.515000000000000100 ) ;
#223 = CARTESIAN_POINT ( 'NONE',  ( 0.0000000000000000000, 17.54632638888888300, 0.0000000000000000000 ) ) ;
#224 = ORIENTED_EDGE ( 'NONE', *, *, #315, .T. ) ;
#225 = AXIS2_PLACEMENT_3D ( 'NONE', #172, #43, #245 ) ;
#226 = PLANE ( 'NONE',  #9 ) ;
#227 = EDGE_LOOP ( 'NONE', ( #98, #243 ) ) ;
#228 = EDGE_LOOP ( 'NONE', ( #158, #19 ) ) ;
#229 = EDGE_LOOP ( 'NONE', ( #107, #115, #146, #97, #131 ) ) ;
#230 = CARTESIAN_POINT ( 'NONE',  ( 0.0000000000000000000, 5.500000000000000000, -2.515000000000000100 ) ) ;
#231 = ORIENTED_EDGE ( 'NONE', *, *, #364, .F. ) ;
#232 = SURFACE_STYLE_USAGE ( .BOTH. , #54 ) ;
#233 = DIRECTION ( 'NONE',  ( 0.0000000000000000000, 0.0000000000000000000, 1.000000000000000000 ) ) ;
#234 = DIRECTION ( 'NONE',  ( -0.0000000000000000000, -1.000000000000000000, -0.0000000000000000000 ) ) ;
#235 = PRODUCT_DEFINITION_CONTEXT ( 'detailed design', #165, 'design' ) ;
#236 = CARTESIAN_POINT ( 'NONE',  ( 0.0000000000000000000, 3.702372543132418100, 0.0000000000000000000 ) ) ;
#237 = CARTESIAN_POINT ( 'NONE',  ( 0.0000000000000000000, 2.426000000000000200, 0.0000000000000000000 ) ) ;
#238 = DIRECTION ( 'NONE',  ( 0.0000000000000000000, 0.0000000000000000000, -1.000000000000000000 ) ) ;
#239 = ORIENTED_EDGE ( 'NONE', *, *, #38, .T. ) ;
#240 = ORIENTED_EDGE ( 'NONE', *, *, #129, .F. ) ;
#241 = CARTESIAN_POINT ( 'NONE',  ( 2.515000000000000100, 18.19999999999999900, 0.0000000000000000000 ) ) ;
#242 = CARTESIAN_POINT ( 'NONE',  ( 3.079986699855593800E-016, 0.0000000000000000000, 2.515000000000000100 ) ) ;
#243 = ORIENTED_EDGE ( 'NONE', *, *, #281, .F. ) ;
#244 = FACE_OUTER_BOUND ( 'NONE', #145, .T. ) ;
#245 = DIRECTION ( 'NONE',  ( -1.000000000000000000, 0.0000000000000000000, 0.0000000000000000000 ) ) ;
#246 = AXIS2_PLACEMENT_3D ( 'NONE', #236, #234, #11 ) ;
#247 = EDGE_LOOP ( 'NONE', ( #30, #79, #289, #96, #90 ) ) ;
#248 = CIRCLE ( 'NONE', #285, 1.816125505703705100 ) ;
#249 = DIRECTION ( 'NONE',  ( 0.0000000000000000000, 0.0000000000000000000, -1.000000000000000000 ) ) ;
#250 = DIRECTION ( 'NONE',  ( 0.0000000000000000000, 0.0000000000000000000, -1.000000000000000000 ) ) ;
#251 = DIRECTION ( 'NONE',  ( -0.0000000000000000000, -1.000000000000000000, -0.0000000000000000000 ) ) ;
#252 = PLANE ( 'NONE',  #136 ) ;
#253 = TOROIDAL_SURFACE ( 'NONE', #168, 1.658947368421053600, 1.991052631578946300 ) ;
#254 = CIRCLE ( 'NONE', #185, 2.515000000000000100 ) ;
#255 = FACE_OUTER_BOUND ( 'NONE', #229, .T. ) ;
#256 = EDGE_CURVE ( 'NONE', #155, #104, #222, .T. ) ;
#257 = CARTESIAN_POINT ( 'NONE',  ( 0.0000000000000000000, 19.99999999999999600, -2.665000000000000000 ) ) ;
#258 = CIRCLE ( 'NONE', #71, 1.816125505703705100 ) ;
#259 = VERTEX_POINT ( 'NONE', #339 ) ;
#260 = FACE_OUTER_BOUND ( 'NONE', #52, .T. ) ;
#261 = DIRECTION ( 'NONE',  ( -0.0000000000000000000, -1.000000000000000000, -0.0000000000000000000 ) ) ;
#262 = CIRCLE ( 'NONE', #48, 2.665000000000000000 ) ;
#263 = EDGE_CURVE ( 'NONE', #104, #155, #254, .T. ) ;
#264 = DIRECTION ( 'NONE',  ( 0.0000000000000000000, 0.0000000000000000000, -1.000000000000000000 ) ) ;
#265 = DIRECTION ( 'NONE',  ( -1.224646799147353200E-016, 0.0000000000000000000, -1.000000000000000000 ) ) ;
#266 =( GEOMETRIC_REPRESENTATION_CONTEXT ( 3 ) GLOBAL_UNCERTAINTY_ASSIGNED_CONTEXT ( ( #62 ) ) GLOBAL_UNIT_ASSIGNED_CONTEXT ( ( #12, #283, #355 ) ) REPRESENTATION_CONTEXT ( 'NONE', 'WORKASPACE' ) );
#267 = CYLINDRICAL_SURFACE ( 'NONE', #292, 2.515000000000000100 ) ;
#268 = CARTESIAN_POINT ( 'NONE',  ( 1.816125505703705100, 0.8175336038535145900, -2.224112287409909900E-016 ) ) ;
#269 = DIRECTION ( 'NONE',  ( -1.000000000000000000, 0.0000000000000000000, 1.224646799147353500E-016 ) ) ;
#270 = CARTESIAN_POINT ( 'NONE',  ( 0.0000000000000000000, 2.802372543132418200, 0.0000000000000000000 ) ) ;
#271 = CARTESIAN_POINT ( 'NONE',  ( 0.0000000000000000000, 17.54632638888888300, -2.665000000000000500 ) ) ;
#272 = DIRECTION ( 'NONE',  ( -1.224646799147353200E-016, 0.0000000000000000000, -1.000000000000000000 ) ) ;
#273 = DIRECTION ( 'NONE',  ( -0.0000000000000000000, -1.000000000000000000, -0.0000000000000000000 ) ) ;
#274 = FACE_OUTER_BOUND ( 'NONE', #114, .T. ) ;
#275 = DIRECTION ( 'NONE',  ( -0.0000000000000000000, -1.000000000000000000, -0.0000000000000000000 ) ) ;
#276 = APPLICATION_PROTOCOL_DEFINITION ( 'draft international standard', 'automotive_design', 1998, #336 ) ;
#277 = FACE_BOUND ( 'NONE', #228, .T. ) ;
#278 = CIRCLE ( 'NONE', #118, 2.453673611111113000 ) ;
#279 = TOROIDAL_SURFACE ( 'NONE', #147, 1.658947368421053600, 1.991052631578946300 ) ;
#280 =( NAMED_UNIT ( * ) PLANE_ANGLE_UNIT ( ) SI_UNIT ( $, .RADIAN. ) );
#281 = EDGE_CURVE ( 'NONE', #53, #85, #262, .T. ) ;
#282 = CIRCLE ( 'NONE', #187, 3.598480967438468800 ) ;
#283 =( NAMED_UNIT ( * ) PLANE_ANGLE_UNIT ( ) SI_UNIT ( $, .RADIAN. ) );
#284 = DIRECTION ( 'NONE',  ( -1.000000000000000000, 0.0000000000000000000, 0.0000000000000000000 ) ) ;
#285 = AXIS2_PLACEMENT_3D ( 'NONE', #312, #354, #179 ) ;
#286 = DIRECTION ( 'NONE',  ( -0.0000000000000000000, -1.000000000000000000, -0.0000000000000000000 ) ) ;
#287 = CIRCLE ( 'NONE', #69, 2.665000000000000000 ) ;
#288 = VERTEX_POINT ( 'NONE', #166 ) ;
#289 = ORIENTED_EDGE ( 'NONE', *, *, #22, .T. ) ;
#290 = FACE_OUTER_BOUND ( 'NONE', #247, .T. ) ;
#291 = EDGE_CURVE ( 'NONE', #120, #288, #258, .T. ) ;
#292 = AXIS2_PLACEMENT_3D ( 'NONE', #82, #343, #72 ) ;
#293 = CARTESIAN_POINT ( 'NONE',  ( 0.0000000000000000000, 17.54632638888888300, 0.0000000000000000000 ) ) ;
#294 = VECTOR ( 'NONE', #56, 1000.000000000000000 ) ;
#295 = LINE ( 'NONE', #57, #294 ) ;
#296 = CARTESIAN_POINT ( 'NONE',  ( 4.406868198566191100E-016, 3.252372543132418400, 3.598480967438468800 ) ) ;
#297 = EDGE_CURVE ( 'NONE', #259, #124, #219, .T. ) ;
#298 = FACE_OUTER_BOUND ( 'NONE', #84, .T. ) ;
#299 = CIRCLE ( 'NONE', #202, 2.426000000000000200 ) ;
#300 = SPHERICAL_SURFACE ( 'NONE', #225, 2.426000000000000200 ) ;
#301 = CIRCLE ( 'NONE', #171, 5.030000000000000200 ) ;
#302 = DIRECTION ( 'NONE',  ( 0.0000000000000000000, 0.0000000000000000000, -1.000000000000000000 ) ) ;
#303 = VECTOR ( 'NONE', #39, 1000.000000000000000 ) ;
#304 = TOROIDAL_SURFACE ( 'NONE', #246, 1.658947368421053600, 1.991052631578946300 ) ;
#305 =( GEOMETRIC_REPRESENTATION_CONTEXT ( 3 ) GLOBAL_UNCERTAINTY_ASSIGNED_CONTEXT ( ( #201 ) ) GLOBAL_UNIT_ASSIGNED_CONTEXT ( ( #152, #280, #348 ) ) REPRESENTATION_CONTEXT ( 'NONE', 'WORKASPACE' ) );
#306 = STYLED_ITEM ( 'NONE', ( #18 ), #328 ) ;
#307 = DIRECTION ( 'NONE',  ( 0.0000000000000000000, 0.0000000000000000000, -1.000000000000000000 ) ) ;
#308 = AXIS2_PLACEMENT_3D ( 'NONE', #293, #286, #250 ) ;
#309 = ORIENTED_EDGE ( 'NONE', *, *, #21, .T. ) ;
#310 = CIRCLE ( 'NONE', #47, 1.991052631578946300 ) ;
#311 = ORIENTED_EDGE ( 'NONE', *, *, #81, .F. ) ;
#312 = CARTESIAN_POINT ( 'NONE',  ( 0.0000000000000000000, 0.8175336038535145900, 0.0000000000000000000 ) ) ;
#313 = ADVANCED_FACE ( 'NONE', ( #290 ), #279, .T. ) ;
#314 = CARTESIAN_POINT ( 'NONE',  ( 3.263683719727696600E-016, 17.54632638888888300, 2.665000000000000500 ) ) ;
#315 = EDGE_CURVE ( 'NONE', #64, #104, #295, .T. ) ;
#316 = AXIS2_PLACEMENT_3D ( 'NONE', #161, #88, #134 ) ;
#317 = EDGE_LOOP ( 'NONE', ( #60, #210, #67, #76 ) ) ;
#318 = PRODUCT ( '01661-00631MING_12_70mm', '01661-00631MING_12_70mm', '', ( #182 ) ) ;
#319 = CARTESIAN_POINT ( 'NONE',  ( 0.0000000000000000000, 5.500000000000000000, 0.0000000000000000000 ) ) ;
#320 = CIRCLE ( 'NONE', #359, 1.991052631578946300 ) ;
#321 = ORIENTED_EDGE ( 'NONE', *, *, #99, .F. ) ;
#322 = CARTESIAN_POINT ( 'NONE',  ( 0.0000000000000000000, 19.99999999999999600, 0.0000000000000000000 ) ) ;
#323 = FACE_OUTER_BOUND ( 'NONE', #162, .T. ) ;
#324 = EDGE_CURVE ( 'NONE', #53, #259, #278, .T. ) ;
#325 = DIRECTION ( 'NONE',  ( -0.0000000000000000000, -1.000000000000000000, -0.0000000000000000000 ) ) ;
#326 = DIRECTION ( 'NONE',  ( 0.0000000000000000000, -0.0000000000000000000, 1.000000000000000000 ) ) ;
#327 = EDGE_CURVE ( 'NONE', #124, #259, #301, .T. ) ;
#328 = ADVANCED_BREP_SHAPE_REPRESENTATION ( '01661-00631MING_12_70mm', ( #23, #358 ), #266 ) ;
#329 = DIRECTION ( 'NONE',  ( 0.0000000000000000000, 0.0000000000000000000, -1.000000000000000000 ) ) ;
#330 = PRESENTATION_LAYER_ASSIGNMENT (  '', '', ( #306 ) ) ;
#331 = SURFACE_STYLE_FILL_AREA ( #200 ) ;
#332 = AXIS2_PLACEMENT_3D ( 'NONE', #112, #102, #363 ) ;
#333 = AXIS2_PLACEMENT_3D ( 'NONE', #362, #217, #178 ) ;
#334 = CARTESIAN_POINT ( 'NONE',  ( -1.485496567365739700E-016, 0.0000000000000000000, 0.0000000000000000000 ) ) ;
#335 = VERTEX_POINT ( 'NONE', #296 ) ;
#336 = APPLICATION_CONTEXT ( 'automotive_design' ) ;
#337 = CARTESIAN_POINT ( 'NONE',  ( 0.0000000000000000000, 0.0000000000000000000, 0.0000000000000000000 ) ) ;
#338 = EDGE_CURVE ( 'NONE', #80, #335, #282, .T. ) ;
#339 = CARTESIAN_POINT ( 'NONE',  ( 6.159973399711187500E-016, 18.19999999999999900, 5.030000000000000200 ) ) ;
#340 =( NAMED_UNIT ( * ) SI_UNIT ( $, .STERADIAN. ) SOLID_ANGLE_UNIT ( ) );
#341 = MECHANICAL_DESIGN_GEOMETRIC_PRESENTATION_REPRESENTATION (  '', ( #306 ), #305 ) ;
#342 = ADVANCED_FACE ( 'NONE', ( #298 ), #300, .T. ) ;
#343 = DIRECTION ( 'NONE',  ( -0.0000000000000000000, -1.000000000000000000, -0.0000000000000000000 ) ) ;
#344 = AXIS2_PLACEMENT_3D ( 'NONE', #337, #352, #329 ) ;
#345 = DIRECTION ( 'NONE',  ( 0.0000000000000000000, 0.0000000000000000000, -1.000000000000000000 ) ) ;
#346 = AXIS2_PLACEMENT_3D ( 'NONE', #367, #251, #94 ) ;
#347 = CARTESIAN_POINT ( 'NONE',  ( 0.0000000000000000000, 0.0000000000000000000, 0.0000000000000000000 ) ) ;
#348 =( NAMED_UNIT ( * ) SI_UNIT ( $, .STERADIAN. ) SOLID_ANGLE_UNIT ( ) );
#349 = DIRECTION ( 'NONE',  ( -0.0000000000000000000, -1.000000000000000000, -0.0000000000000000000 ) ) ;
#350 = DIRECTION ( 'NONE',  ( 0.0000000000000000000, 0.0000000000000000000, -1.000000000000000000 ) ) ;
#351 = FACE_OUTER_BOUND ( 'NONE', #125, .T. ) ;
#352 = DIRECTION ( 'NONE',  ( -0.0000000000000000000, -1.000000000000000000, -0.0000000000000000000 ) ) ;
#353 = DIRECTION ( 'NONE',  ( 0.0000000000000000000, 0.0000000000000000000, 1.000000000000000000 ) ) ;
#354 = DIRECTION ( 'NONE',  ( -0.0000000000000000000, -1.000000000000000000, -0.0000000000000000000 ) ) ;
#355 =( NAMED_UNIT ( * ) SI_UNIT ( $, .STERADIAN. ) SOLID_ANGLE_UNIT ( ) );
#356 = ORIENTED_EDGE ( 'NONE', *, *, #281, .T. ) ;
#357 = CARTESIAN_POINT ( 'NONE',  ( 0.0000000000000000000, 3.252372543132418400, -3.598480967438468800 ) ) ;
#358 = AXIS2_PLACEMENT_3D ( 'NONE', #347, #353, #110 ) ;
#359 = AXIS2_PLACEMENT_3D ( 'NONE', #86, #215, #206 ) ;
#360 = EDGE_CURVE ( 'NONE', #93, #155, #132, .T. ) ;
#361 = ADVANCED_FACE ( 'NONE', ( #323 ), #304, .T. ) ;
#362 = CARTESIAN_POINT ( 'NONE',  ( 0.0000000000000000000, 3.702372543132418100, 0.0000000000000000000 ) ) ;
#363 = DIRECTION ( 'NONE',  ( -1.224646799147353200E-016, 0.0000000000000000000, -1.000000000000000000 ) ) ;
#364 = EDGE_CURVE ( 'NONE', #120, #35, #299, .T. ) ;
#365 = CARTESIAN_POINT ( 'NONE',  ( -1.816125505703705100, 0.8175336038535145900, 0.0000000000000000000 ) ) ;
#366 = PRODUCT_DEFINITION ( 'UNKNOWN', '', #5, #235 ) ;
#367 = CARTESIAN_POINT ( 'NONE',  ( 0.0000000000000000000, 18.19999999999999900, 0.0000000000000000000 ) ) ;
#368 = STYLED_ITEM ( 'NONE', ( #176 ), #23 ) ;
#369 = CARTESIAN_POINT ( 'NONE',  ( 0.0000000000000000000, 2.426000000000000200, 0.0000000000000000000 ) ) ;
#370 = VERTEX_POINT ( 'NONE', #365 ) ;
#371 = AXIS2_PLACEMENT_3D ( 'NONE', #237, #180, #105 ) ;
#372 = CARTESIAN_POINT ( 'NONE',  ( 0.0000000000000000000, 0.8175336038535145900, 0.0000000000000000000 ) ) ;
ENDSEC;
END-ISO-10303-21;
