ISO-10303-21;
HEADER;
FILE_DESCRIPTION (( 'STEP AP214' ),
    '1' );
FILE_NAME ('01661-00631MIDG_16_25mm.STEP',
    '2016-04-28T09:06:47',
    ( '' ),
    ( '' ),
    'SwSTEP 2.0',
    'SolidWorks 2015',
    '' );
FILE_SCHEMA (( 'AUTOMOTIVE_DESIGN' ));
ENDSEC;

DATA;
#1 = AXIS2_PLACEMENT_3D ( 'NONE', #106, #276, #147 ) ;
#2 = CARTESIAN_POINT ( 'NONE',  ( 0.0000000000000000000, 21.75000000000000000, 0.0000000000000000000 ) ) ;
#3 = VERTEX_POINT ( 'NONE', #308 ) ;
#4 = CARTESIAN_POINT ( 'NONE',  ( 0.0000000000000000000, 21.75000000000000000, 0.0000000000000000000 ) ) ;
#5 = AXIS2_PLACEMENT_3D ( 'NONE', #233, #272, #262 ) ;
#6 = ORIENTED_EDGE ( 'NONE', *, *, #57, .F. ) ;
#7 = CARTESIAN_POINT ( 'NONE',  ( 0.0000000000000000000, 2.426000000000000200, 0.0000000000000000000 ) ) ;
#8 = EDGE_LOOP ( 'NONE', ( #117, #158 ) ) ;
#9 = DIRECTION ( 'NONE',  ( -1.000000000000000000, 0.0000000000000000000, 0.0000000000000000000 ) ) ;
#10 = EDGE_CURVE ( 'NONE', #52, #287, #21, .T. ) ;
#11 = AXIS2_PLACEMENT_3D ( 'NONE', #184, #355, #358 ) ;
#12 = DIRECTION ( 'NONE',  ( 0.0000000000000000000, 0.0000000000000000000, -1.000000000000000000 ) ) ;
#13 = CARTESIAN_POINT ( 'NONE',  ( 0.0000000000000000000, 5.500000000000000000, 0.0000000000000000000 ) ) ;
#14 = CIRCLE ( 'NONE', #202, 1.991052631578946300 ) ;
#15 = DIRECTION ( 'NONE',  ( -0.0000000000000000000, -1.000000000000000000, -0.0000000000000000000 ) ) ;
#16 = CARTESIAN_POINT ( 'NONE',  ( 3.743427449210892900E-016, 5.500000000000000000, 2.515000000000000100 ) ) ;
#17 = ORIENTED_EDGE ( 'NONE', *, *, #367, .T. ) ;
#18 = DIRECTION ( 'NONE',  ( 0.0000000000000000000, 0.0000000000000000000, -1.000000000000000000 ) ) ;
#19 = CIRCLE ( 'NONE', #234, 1.816125505703705100 ) ;
#20 =( NAMED_UNIT ( * ) PLANE_ANGLE_UNIT ( ) SI_UNIT ( $, .RADIAN. ) );
#21 = CIRCLE ( 'NONE', #266, 3.598480967438468800 ) ;
#22 = AXIS2_PLACEMENT_3D ( 'NONE', #183, #269, #124 ) ;
#23 = CARTESIAN_POINT ( 'NONE',  ( 0.0000000000000000000, 21.09632638888888300, -2.665000000000000000 ) ) ;
#24 = AXIS2_PLACEMENT_3D ( 'NONE', #126, #87, #245 ) ;
#25 = ORIENTED_EDGE ( 'NONE', *, *, #267, .T. ) ;
#26 = AXIS2_PLACEMENT_3D ( 'NONE', #224, #349, #239 ) ;
#27 = CARTESIAN_POINT ( 'NONE',  ( 0.0000000000000000000, 0.8175336038535145900, 0.0000000000000000000 ) ) ;
#28 = CARTESIAN_POINT ( 'NONE',  ( 0.0000000000000000000, 2.802372543132418200, -1.658947368421053600 ) ) ;
#29 = AXIS2_PLACEMENT_3D ( 'NONE', #4, #15, #18 ) ;
#30 = CIRCLE ( 'NONE', #24, 5.030000000000001100 ) ;
#31 = ORIENTED_EDGE ( 'NONE', *, *, #367, .F. ) ;
#32 = EDGE_LOOP ( 'NONE', ( #89, #353, #116, #200 ) ) ;
#33 = PLANE ( 'NONE',  #173 ) ;
#34 = CIRCLE ( 'NONE', #256, 2.453673611111113000 ) ;
#35 = ORIENTED_EDGE ( 'NONE', *, *, #359, .T. ) ;
#36 = DIRECTION ( 'NONE',  ( -0.0000000000000000000, -1.000000000000000000, -0.0000000000000000000 ) ) ;
#37 = DIRECTION ( 'NONE',  ( -1.224646799147353200E-016, 0.0000000000000000000, -1.000000000000000000 ) ) ;
#38 = ADVANCED_BREP_SHAPE_REPRESENTATION ( '01661-00631MIDG_16_25mm', ( #167, #59 ), #94 ) ;
#39 = CARTESIAN_POINT ( 'NONE',  ( 3.079986699855593800E-016, 0.0000000000000000000, 2.515000000000000100 ) ) ;
#40 = DIRECTION ( 'NONE',  ( 0.0000000000000000000, 0.0000000000000000000, -1.000000000000000000 ) ) ;
#41 = ORIENTED_EDGE ( 'NONE', *, *, #316, .T. ) ;
#42 = VERTEX_POINT ( 'NONE', #165 ) ;
#43 = ORIENTED_EDGE ( 'NONE', *, *, #97, .T. ) ;
#44 = SURFACE_STYLE_FILL_AREA ( #63 ) ;
#45 = CARTESIAN_POINT ( 'NONE',  ( 0.0000000000000000000, 23.54999999999999700, 0.0000000000000000000 ) ) ;
#46 = AXIS2_PLACEMENT_3D ( 'NONE', #261, #306, #268 ) ;
#47 = PRODUCT_DEFINITION_SHAPE ( 'NONE', 'NONE',  #80 ) ;
#48 = ORIENTED_EDGE ( 'NONE', *, *, #10, .T. ) ;
#49 = AXIS2_PLACEMENT_3D ( 'NONE', #273, #128, #323 ) ;
#50 = DIRECTION ( 'NONE',  ( 0.0000000000000000000, 0.0000000000000000000, -1.000000000000000000 ) ) ;
#51 = APPLICATION_CONTEXT ( 'automotive_design' ) ;
#52 = VERTEX_POINT ( 'NONE', #325 ) ;
#53 = ORIENTED_EDGE ( 'NONE', *, *, #338, .F. ) ;
#54 = ORIENTED_EDGE ( 'NONE', *, *, #359, .F. ) ;
#55 = CIRCLE ( 'NONE', #220, 2.665000000000000000 ) ;
#56 = AXIS2_PLACEMENT_3D ( 'NONE', #207, #115, #37 ) ;
#57 = EDGE_CURVE ( 'NONE', #213, #3, #337, .T. ) ;
#58 = PLANE ( 'NONE',  #127 ) ;
#59 = AXIS2_PLACEMENT_3D ( 'NONE', #223, #92, #254 ) ;
#60 = ORIENTED_EDGE ( 'NONE', *, *, #327, .F. ) ;
#61 = CARTESIAN_POINT ( 'NONE',  ( 0.0000000000000000000, 21.75000000000000000, -2.515000000000000100 ) ) ;
#62 = EDGE_LOOP ( 'NONE', ( #31, #48, #43, #53, #54 ) ) ;
#63 = FILL_AREA_STYLE ('',( #246 ) ) ;
#64 = ORIENTED_EDGE ( 'NONE', *, *, #364, .F. ) ;
#65 = VERTEX_POINT ( 'NONE', #104 ) ;
#66 = ORIENTED_EDGE ( 'NONE', *, *, #97, .F. ) ;
#67 = AXIS2_PLACEMENT_3D ( 'NONE', #13, #331, #201 ) ;
#68 = ORIENTED_EDGE ( 'NONE', *, *, #253, .F. ) ;
#69 = CARTESIAN_POINT ( 'NONE',  ( 3.315490242988051200E-016, 0.8175336038535145900, 1.816125505703705100 ) ) ;
#70 = CARTESIAN_POINT ( 'NONE',  ( 0.0000000000000000000, 0.8175336038535145900, -1.816125505703705100 ) ) ;
#71 = UNCERTAINTY_MEASURE_WITH_UNIT (LENGTH_MEASURE( 1.000000000000000100E-005 ), #132, 'distance_accuracy_value', 'NONE');
#72 = AXIS2_PLACEMENT_3D ( 'NONE', #282, #166, #123 ) ;
#73 = DIRECTION ( 'NONE',  ( 0.0000000000000000000, 0.0000000000000000000, -1.000000000000000000 ) ) ;
#74 = EDGE_LOOP ( 'NONE', ( #324, #107 ) ) ;
#75 = ORIENTED_EDGE ( 'NONE', *, *, #309, .F. ) ;
#76 =( NAMED_UNIT ( * ) SI_UNIT ( $, .STERADIAN. ) SOLID_ANGLE_UNIT ( ) );
#77 = ORIENTED_EDGE ( 'NONE', *, *, #267, .F. ) ;
#78 = EDGE_CURVE ( 'NONE', #174, #342, #30, .T. ) ;
#79 = AXIS2_PLACEMENT_3D ( 'NONE', #320, #322, #40 ) ;
#80 = PRODUCT_DEFINITION ( 'UNKNOWN', '', #101, #90 ) ;
#81 =( LENGTH_UNIT ( ) NAMED_UNIT ( * ) SI_UNIT ( .MILLI., .METRE. ) );
#82 = ORIENTED_EDGE ( 'NONE', *, *, #285, .T. ) ;
#83 = ORIENTED_EDGE ( 'NONE', *, *, #156, .T. ) ;
#84 = CARTESIAN_POINT ( 'NONE',  ( 0.0000000000000000000, 0.0000000000000000000, 0.0000000000000000000 ) ) ;
#85 = DIRECTION ( 'NONE',  ( -0.0000000000000000000, -1.000000000000000000, -0.0000000000000000000 ) ) ;
#86 = PRESENTATION_STYLE_ASSIGNMENT (( #368 ) ) ;
#87 = DIRECTION ( 'NONE',  ( -0.0000000000000000000, -1.000000000000000000, -0.0000000000000000000 ) ) ;
#88 = DIRECTION ( 'NONE',  ( -0.0000000000000000000, -1.000000000000000000, -0.0000000000000000000 ) ) ;
#89 = ORIENTED_EDGE ( 'NONE', *, *, #119, .T. ) ;
#90 = PRODUCT_DEFINITION_CONTEXT ( 'detailed design', #51, 'design' ) ;
#91 = ORIENTED_EDGE ( 'NONE', *, *, #364, .T. ) ;
#92 = DIRECTION ( 'NONE',  ( 0.0000000000000000000, 0.0000000000000000000, 1.000000000000000000 ) ) ;
#93 = EDGE_CURVE ( 'NONE', #65, #342, #298, .T. ) ;
#94 =( GEOMETRIC_REPRESENTATION_CONTEXT ( 3 ) GLOBAL_UNCERTAINTY_ASSIGNED_CONTEXT ( ( #186 ) ) GLOBAL_UNIT_ASSIGNED_CONTEXT ( ( #195, #343, #205 ) ) REPRESENTATION_CONTEXT ( 'NONE', 'WORKASPACE' ) );
#95 = DIRECTION ( 'NONE',  ( 0.0000000000000000000, 0.0000000000000000000, 1.000000000000000000 ) ) ;
#96 = ORIENTED_EDGE ( 'NONE', *, *, #181, .F. ) ;
#97 = EDGE_CURVE ( 'NONE', #287, #296, #14, .T. ) ;
#98 = VERTEX_POINT ( 'NONE', #363 ) ;
#99 = EDGE_LOOP ( 'NONE', ( #371, #362, #315, #279 ) ) ;
#100 = DIRECTION ( 'NONE',  ( -0.0000000000000000000, -1.000000000000000000, -0.0000000000000000000 ) ) ;
#101 = PRODUCT_DEFINITION_FORMATION_WITH_SPECIFIED_SOURCE ( 'ANY', '', #209, .NOT_KNOWN. ) ;
#102 = ORIENTED_EDGE ( 'NONE', *, *, #354, .F. ) ;
#103 = ORIENTED_EDGE ( 'NONE', *, *, #227, .F. ) ;
#104 = CARTESIAN_POINT ( 'NONE',  ( 4.711828559719441600E-016, 23.54999999999999700, 2.665000000000000000 ) ) ;
#105 = ORIENTED_EDGE ( 'NONE', *, *, #253, .T. ) ;
#106 = CARTESIAN_POINT ( 'NONE',  ( 0.0000000000000000000, 3.702372543132418100, 0.0000000000000000000 ) ) ;
#107 = ORIENTED_EDGE ( 'NONE', *, *, #295, .T. ) ;
#108 = ORIENTED_EDGE ( 'NONE', *, *, #181, .T. ) ;
#109 = CARTESIAN_POINT ( 'NONE',  ( 0.0000000000000000000, 21.09632638888888300, 0.0000000000000000000 ) ) ;
#110 = ORIENTED_EDGE ( 'NONE', *, *, #327, .T. ) ;
#111 = DIRECTION ( 'NONE',  ( -0.0000000000000000000, -1.000000000000000000, -0.0000000000000000000 ) ) ;
#112 = DIRECTION ( 'NONE',  ( 0.0000000000000000000, 0.0000000000000000000, 1.000000000000000000 ) ) ;
#113 = ORIENTED_EDGE ( 'NONE', *, *, #93, .F. ) ;
#114 = ORIENTED_EDGE ( 'NONE', *, *, #288, .F. ) ;
#115 = DIRECTION ( 'NONE',  ( 1.000000000000000000, 0.0000000000000000000, -1.224646799147353200E-016 ) ) ;
#116 = ORIENTED_EDGE ( 'NONE', *, *, #78, .F. ) ;
#117 = ORIENTED_EDGE ( 'NONE', *, *, #119, .F. ) ;
#118 = CARTESIAN_POINT ( 'NONE',  ( 2.515000000000000100, 21.75000000000000000, 0.0000000000000000000 ) ) ;
#119 = EDGE_CURVE ( 'NONE', #98, #65, #55, .T. ) ;
#120 = PRODUCT_RELATED_PRODUCT_CATEGORY ( 'part', '', ( #209 ) ) ;
#121 = EDGE_LOOP ( 'NONE', ( #105, #110, #77, #344 ) ) ;
#122 = CLOSED_SHELL ( 'NONE', ( #263, #242, #366, #291, #259, #230, #237, #243, #289, #277, #281, #274 ) ) ;
#123 = DIRECTION ( 'NONE',  ( 0.0000000000000000000, 0.0000000000000000000, -1.000000000000000000 ) ) ;
#124 = DIRECTION ( 'NONE',  ( -1.000000000000000000, 0.0000000000000000000, 0.0000000000000000000 ) ) ;
#125 = LINE ( 'NONE', #39, #133 ) ;
#126 = CARTESIAN_POINT ( 'NONE',  ( 0.0000000000000000000, 21.75000000000000000, 0.0000000000000000000 ) ) ;
#127 = AXIS2_PLACEMENT_3D ( 'NONE', #175, #182, #136 ) ;
#128 = DIRECTION ( 'NONE',  ( -0.0000000000000000000, -0.0000000000000000000, -1.000000000000000000 ) ) ;
#129 = FACE_OUTER_BOUND ( 'NONE', #351, .T. ) ;
#130 = DIRECTION ( 'NONE',  ( -1.000000000000000000, 0.0000000000000000000, 1.224646799147353500E-016 ) ) ;
#131 = CIRCLE ( 'NONE', #347, 2.665000000000000000 ) ;
#132 =( LENGTH_UNIT ( ) NAMED_UNIT ( * ) SI_UNIT ( .MILLI., .METRE. ) );
#133 = VECTOR ( 'NONE', #212, 1000.000000000000000 ) ;
#134 = STYLED_ITEM ( 'NONE', ( #299 ), #38 ) ;
#135 = EDGE_CURVE ( 'NONE', #213, #255, #19, .T. ) ;
#136 = DIRECTION ( 'NONE',  ( 0.0000000000000000000, -0.0000000000000000000, 1.000000000000000000 ) ) ;
#137 = FACE_OUTER_BOUND ( 'NONE', #370, .T. ) ;
#138 = CIRCLE ( 'NONE', #360, 2.515000000000000100 ) ;
#139 = APPLICATION_PROTOCOL_DEFINITION ( 'draft international standard', 'automotive_design', 1998, #171 ) ;
#140 = SPHERICAL_SURFACE ( 'NONE', #22, 2.426000000000000200 ) ;
#141 = CIRCLE ( 'NONE', #67, 2.515000000000000100 ) ;
#142 = CARTESIAN_POINT ( 'NONE',  ( 0.0000000000000000000, 23.54999999999999700, 0.0000000000000000000 ) ) ;
#143 = TOROIDAL_SURFACE ( 'NONE', #1, 1.658947368421053600, 1.991052631578946300 ) ;
#144 = DIRECTION ( 'NONE',  ( 1.000000000000000000, 0.0000000000000000000, -1.224646799147353200E-016 ) ) ;
#145 = FACE_OUTER_BOUND ( 'NONE', #62, .T. ) ;
#146 = CIRCLE ( 'NONE', #26, 3.598480967438468800 ) ;
#147 = DIRECTION ( 'NONE',  ( 0.0000000000000000000, 0.0000000000000000000, -1.000000000000000000 ) ) ;
#148 = DIRECTION ( 'NONE',  ( 0.0000000000000000000, 0.0000000000000000000, -1.000000000000000000 ) ) ;
#149 = AXIS2_PLACEMENT_3D ( 'NONE', #326, #317, #312 ) ;
#150 = SPHERICAL_SURFACE ( 'NONE', #49, 2.426000000000000200 ) ;
#151 = DIRECTION ( 'NONE',  ( -0.0000000000000000000, -1.000000000000000000, -0.0000000000000000000 ) ) ;
#152 = CYLINDRICAL_SURFACE ( 'NONE', #5, 2.515000000000000100 ) ;
#153 = FACE_OUTER_BOUND ( 'NONE', #161, .T. ) ;
#154 = DIRECTION ( 'NONE',  ( -0.0000000000000000000, -1.000000000000000000, -0.0000000000000000000 ) ) ;
#155 = PRESENTATION_LAYER_ASSIGNMENT (  '', '', ( #134 ) ) ;
#156 = EDGE_CURVE ( 'NONE', #98, #174, #34, .T. ) ;
#157 = FACE_OUTER_BOUND ( 'NONE', #99, .T. ) ;
#158 = ORIENTED_EDGE ( 'NONE', *, *, #208, .F. ) ;
#159 =( NAMED_UNIT ( * ) PLANE_ANGLE_UNIT ( ) SI_UNIT ( $, .RADIAN. ) );
#160 = CARTESIAN_POINT ( 'NONE',  ( 0.0000000000000000000, 0.0000000000000000000, -2.515000000000000100 ) ) ;
#161 = EDGE_LOOP ( 'NONE', ( #284, #108, #68, #102 ) ) ;
#162 = FACE_OUTER_BOUND ( 'NONE', #8, .T. ) ;
#163 = TOROIDAL_SURFACE ( 'NONE', #72, 2.665000000000000000, 2.453673611111113000 ) ;
#164 = CIRCLE ( 'NONE', #215, 1.816125505703705100 ) ;
#165 = CARTESIAN_POINT ( 'NONE',  ( 0.0000000000000000000, 5.500000000000000000, -2.515000000000000100 ) ) ;
#166 = DIRECTION ( 'NONE',  ( -0.0000000000000000000, -1.000000000000000000, -0.0000000000000000000 ) ) ;
#167 = MANIFOLD_SOLID_BREP ( 'Revolve1', #122 ) ;
#168 = FACE_OUTER_BOUND ( 'NONE', #32, .T. ) ;
#169 = CIRCLE ( 'NONE', #149, 1.991052631578946300 ) ;
#170 = FACE_OUTER_BOUND ( 'NONE', #74, .T. ) ;
#171 = APPLICATION_CONTEXT ( 'automotive_design' ) ;
#172 = ORIENTED_EDGE ( 'NONE', *, *, #295, .F. ) ;
#173 = AXIS2_PLACEMENT_3D ( 'NONE', #118, #214, #257 ) ;
#174 = VERTEX_POINT ( 'NONE', #188 ) ;
#175 = CARTESIAN_POINT ( 'NONE',  ( 2.665000000000000000, 23.54999999999999700, 0.0000000000000000000 ) ) ;
#176 = AXIS2_PLACEMENT_3D ( 'NONE', #249, #144, #305 ) ;
#177 = MECHANICAL_DESIGN_GEOMETRIC_PRESENTATION_REPRESENTATION (  '', ( #134 ), #204 ) ;
#178 = VERTEX_POINT ( 'NONE', #16 ) ;
#179 = ORIENTED_EDGE ( 'NONE', *, *, #208, .T. ) ;
#180 = FACE_OUTER_BOUND ( 'NONE', #218, .T. ) ;
#181 = EDGE_CURVE ( 'NONE', #321, #178, #125, .T. ) ;
#182 = DIRECTION ( 'NONE',  ( 0.0000000000000000000, 1.000000000000000000, 0.0000000000000000000 ) ) ;
#183 = CARTESIAN_POINT ( 'NONE',  ( 0.0000000000000000000, 2.426000000000000200, 0.0000000000000000000 ) ) ;
#184 = CARTESIAN_POINT ( 'NONE',  ( 0.0000000000000000000, 0.8175336038535145900, 0.0000000000000000000 ) ) ;
#185 = TOROIDAL_SURFACE ( 'NONE', #197, 2.665000000000000000, 2.453673611111113000 ) ;
#186 = UNCERTAINTY_MEASURE_WITH_UNIT (LENGTH_MEASURE( 1.000000000000000100E-005 ), #195, 'distance_accuracy_value', 'NONE');
#187 = DIRECTION ( 'NONE',  ( -0.0000000000000000000, -1.000000000000000000, -0.0000000000000000000 ) ) ;
#188 = CARTESIAN_POINT ( 'NONE',  ( 0.0000000000000000000, 21.75000000000000000, -5.030000000000001100 ) ) ;
#189 = TOROIDAL_SURFACE ( 'NONE', #232, 1.658947368421053600, 1.991052631578946300 ) ;
#190 = CARTESIAN_POINT ( 'NONE',  ( -1.816125505703705100, 0.8175336038535145900, 0.0000000000000000000 ) ) ;
#191 = FACE_OUTER_BOUND ( 'NONE', #278, .T. ) ;
#192 = CIRCLE ( 'NONE', #252, 5.030000000000001100 ) ;
#193 = CIRCLE ( 'NONE', #365, 1.816125505703705100 ) ;
#194 = CIRCLE ( 'NONE', #294, 2.515000000000000100 ) ;
#195 =( LENGTH_UNIT ( ) NAMED_UNIT ( * ) SI_UNIT ( .MILLI., .METRE. ) );
#196 = DIRECTION ( 'NONE',  ( -1.224646799147353200E-016, 0.0000000000000000000, -1.000000000000000000 ) ) ;
#197 = AXIS2_PLACEMENT_3D ( 'NONE', #109, #361, #334 ) ;
#198 = DIRECTION ( 'NONE',  ( 0.0000000000000000000, 0.0000000000000000000, -1.000000000000000000 ) ) ;
#199 = UNCERTAINTY_MEASURE_WITH_UNIT (LENGTH_MEASURE( 1.000000000000000100E-005 ), #81, 'distance_accuracy_value', 'NONE');
#200 = ORIENTED_EDGE ( 'NONE', *, *, #156, .F. ) ;
#201 = DIRECTION ( 'NONE',  ( 0.0000000000000000000, 0.0000000000000000000, -1.000000000000000000 ) ) ;
#202 = AXIS2_PLACEMENT_3D ( 'NONE', #28, #9, #112 ) ;
#203 = CYLINDRICAL_SURFACE ( 'NONE', #275, 2.515000000000000100 ) ;
#204 =( GEOMETRIC_REPRESENTATION_CONTEXT ( 3 ) GLOBAL_UNCERTAINTY_ASSIGNED_CONTEXT ( ( #199 ) ) GLOBAL_UNIT_ASSIGNED_CONTEXT ( ( #81, #159, #357 ) ) REPRESENTATION_CONTEXT ( 'NONE', 'WORKASPACE' ) );
#205 =( NAMED_UNIT ( * ) SI_UNIT ( $, .STERADIAN. ) SOLID_ANGLE_UNIT ( ) );
#206 = CIRCLE ( 'NONE', #352, 1.991052631578946300 ) ;
#207 = CARTESIAN_POINT ( 'NONE',  ( 2.031624584690768300E-016, 2.802372543132418200, 1.658947368421053600 ) ) ;
#208 = EDGE_CURVE ( 'NONE', #65, #98, #131, .T. ) ;
#209 = PRODUCT ( '01661-00631MIDG_16_25mm', '01661-00631MIDG_16_25mm', '', ( #265 ) ) ;
#210 = CIRCLE ( 'NONE', #336, 2.426000000000000200 ) ;
#211 = CARTESIAN_POINT ( 'NONE',  ( 1.816125505703705100, 0.8175336038535145900, -2.224112287409909900E-016 ) ) ;
#212 = DIRECTION ( 'NONE',  ( -0.0000000000000000000, -1.000000000000000000, -0.0000000000000000000 ) ) ;
#213 = VERTEX_POINT ( 'NONE', #211 ) ;
#214 = DIRECTION ( 'NONE',  ( 0.0000000000000000000, -1.000000000000000000, -0.0000000000000000000 ) ) ;
#215 = AXIS2_PLACEMENT_3D ( 'NONE', #27, #88, #339 ) ;
#216 = EDGE_LOOP ( 'NONE', ( #96, #91, #297, #103 ) ) ;
#217 = FACE_OUTER_BOUND ( 'NONE', #216, .T. ) ;
#218 = EDGE_LOOP ( 'NONE', ( #113, #179, #83, #172 ) ) ;
#219 = FACE_BOUND ( 'NONE', #303, .T. ) ;
#220 = AXIS2_PLACEMENT_3D ( 'NONE', #45, #313, #50 ) ;
#221 = CARTESIAN_POINT ( 'NONE',  ( 0.0000000000000000000, 2.802372543132418200, 0.0000000000000000000 ) ) ;
#222 = DIRECTION ( 'NONE',  ( -0.0000000000000000000, -1.000000000000000000, -0.0000000000000000000 ) ) ;
#223 = CARTESIAN_POINT ( 'NONE',  ( 0.0000000000000000000, 0.0000000000000000000, 0.0000000000000000000 ) ) ;
#224 = CARTESIAN_POINT ( 'NONE',  ( 0.0000000000000000000, 3.252372543132418400, 0.0000000000000000000 ) ) ;
#225 = CIRCLE ( 'NONE', #29, 2.515000000000000100 ) ;
#226 = AXIS2_PLACEMENT_3D ( 'NONE', #348, #340, #130 ) ;
#227 = EDGE_CURVE ( 'NONE', #178, #42, #138, .T. ) ;
#228 = VECTOR ( 'NONE', #36, 1000.000000000000000 ) ;
#229 = DIRECTION ( 'NONE',  ( 0.0000000000000000000, 0.0000000000000000000, -1.000000000000000000 ) ) ;
#230 = ADVANCED_FACE ( 'NONE', ( #137 ), #140, .T. ) ;
#231 = FILL_AREA_STYLE ('',( #236 ) ) ;
#232 = AXIS2_PLACEMENT_3D ( 'NONE', #221, #154, #335 ) ;
#233 = CARTESIAN_POINT ( 'NONE',  ( 0.0000000000000000000, 0.0000000000000000000, 0.0000000000000000000 ) ) ;
#234 = AXIS2_PLACEMENT_3D ( 'NONE', #264, #356, #330 ) ;
#235 = TOROIDAL_SURFACE ( 'NONE', #46, 1.658947368421053600, 1.991052631578946300 ) ;
#236 = FILL_AREA_STYLE_COLOUR ( '', #292 ) ;
#237 = ADVANCED_FACE ( 'NONE', ( #145 ), #235, .T. ) ;
#238 = DIRECTION ( 'NONE',  ( 0.0000000000000000000, 0.0000000000000000000, -1.000000000000000000 ) ) ;
#239 = DIRECTION ( 'NONE',  ( 0.0000000000000000000, 0.0000000000000000000, -1.000000000000000000 ) ) ;
#240 = LINE ( 'NONE', #160, #228 ) ;
#241 = FACE_OUTER_BOUND ( 'NONE', #121, .T. ) ;
#242 = ADVANCED_FACE ( 'NONE', ( #153 ), #152, .T. ) ;
#243 = ADVANCED_FACE ( 'NONE', ( #129 ), #143, .T. ) ;
#244 = CIRCLE ( 'NONE', #11, 1.816125505703705100 ) ;
#245 = DIRECTION ( 'NONE',  ( 0.0000000000000000000, 0.0000000000000000000, -1.000000000000000000 ) ) ;
#246 = FILL_AREA_STYLE_COLOUR ( '', #332 ) ;
#247 = TOROIDAL_SURFACE ( 'NONE', #79, 1.658947368421053600, 1.991052631578946300 ) ;
#248 = SHAPE_DEFINITION_REPRESENTATION ( #47, #38 ) ;
#249 = CARTESIAN_POINT ( 'NONE',  ( 3.263683719727696100E-016, 21.09632638888888300, 2.665000000000000000 ) ) ;
#250 = CIRCLE ( 'NONE', #56, 1.991052631578946300 ) ;
#251 = CARTESIAN_POINT ( 'NONE',  ( 0.0000000000000000000, 5.500000000000000000, 0.0000000000000000000 ) ) ;
#252 = AXIS2_PLACEMENT_3D ( 'NONE', #310, #100, #12 ) ;
#253 = EDGE_CURVE ( 'NONE', #42, #178, #141, .T. ) ;
#254 = DIRECTION ( 'NONE',  ( 1.000000000000000000, 0.0000000000000000000, 0.0000000000000000000 ) ) ;
#255 = VERTEX_POINT ( 'NONE', #69 ) ;
#256 = AXIS2_PLACEMENT_3D ( 'NONE', #23, #333, #95 ) ;
#257 = DIRECTION ( 'NONE',  ( 0.0000000000000000000, 0.0000000000000000000, -1.000000000000000000 ) ) ;
#258 = ORIENTED_EDGE ( 'NONE', *, *, #10, .F. ) ;
#259 = ADVANCED_FACE ( 'NONE', ( #157 ), #150, .T. ) ;
#260 = SURFACE_STYLE_USAGE ( .BOTH. , #311 ) ;
#261 = CARTESIAN_POINT ( 'NONE',  ( 0.0000000000000000000, 2.802372543132418200, 0.0000000000000000000 ) ) ;
#262 = DIRECTION ( 'NONE',  ( 0.0000000000000000000, 0.0000000000000000000, -1.000000000000000000 ) ) ;
#263 = ADVANCED_FACE ( 'NONE', ( #168 ), #163, .T. ) ;
#264 = CARTESIAN_POINT ( 'NONE',  ( 0.0000000000000000000, 0.8175336038535145900, 0.0000000000000000000 ) ) ;
#265 = PRODUCT_CONTEXT ( 'NONE', #171, 'mechanical' ) ;
#266 = AXIS2_PLACEMENT_3D ( 'NONE', #307, #187, #198 ) ;
#267 = EDGE_CURVE ( 'NONE', #287, #52, #146, .T. ) ;
#268 = DIRECTION ( 'NONE',  ( 0.0000000000000000000, 0.0000000000000000000, -1.000000000000000000 ) ) ;
#269 = DIRECTION ( 'NONE',  ( -0.0000000000000000000, -0.0000000000000000000, -1.000000000000000000 ) ) ;
#270 = CARTESIAN_POINT ( 'NONE',  ( 2.031624584690768300E-016, 3.702372543132418100, 1.658947368421053600 ) ) ;
#271 = APPLICATION_PROTOCOL_DEFINITION ( 'draft international standard', 'automotive_design', 1998, #51 ) ;
#272 = DIRECTION ( 'NONE',  ( -0.0000000000000000000, -1.000000000000000000, -0.0000000000000000000 ) ) ;
#273 = CARTESIAN_POINT ( 'NONE',  ( 0.0000000000000000000, 2.426000000000000200, 0.0000000000000000000 ) ) ;
#274 = ADVANCED_FACE ( 'NONE', ( #162 ), #58, .T. ) ;
#275 = AXIS2_PLACEMENT_3D ( 'NONE', #84, #302, #229 ) ;
#276 = DIRECTION ( 'NONE',  ( -0.0000000000000000000, -1.000000000000000000, -0.0000000000000000000 ) ) ;
#277 = ADVANCED_FACE ( 'NONE', ( #170, #219 ), #33, .T. ) ;
#278 = EDGE_LOOP ( 'NONE', ( #25, #17, #350, #114, #66 ) ) ;
#279 = ORIENTED_EDGE ( 'NONE', *, *, #316, .F. ) ;
#280 = STYLED_ITEM ( 'NONE', ( #86 ), #167 ) ;
#281 = ADVANCED_FACE ( 'NONE', ( #180 ), #185, .T. ) ;
#282 = CARTESIAN_POINT ( 'NONE',  ( 0.0000000000000000000, 21.09632638888888300, 0.0000000000000000000 ) ) ;
#283 = CARTESIAN_POINT ( 'NONE',  ( 0.0000000000000000000, 3.252372543132418400, -3.598480967438468800 ) ) ;
#284 = ORIENTED_EDGE ( 'NONE', *, *, #309, .T. ) ;
#285 = EDGE_CURVE ( 'NONE', #42, #287, #169, .T. ) ;
#286 = SURFACE_SIDE_STYLE ('',( #44 ) ) ;
#287 = VERTEX_POINT ( 'NONE', #283 ) ;
#288 = EDGE_CURVE ( 'NONE', #296, #213, #164, .T. ) ;
#289 = ADVANCED_FACE ( 'NONE', ( #217 ), #203, .T. ) ;
#290 = DIRECTION ( 'NONE',  ( -0.0000000000000000000, 0.0000000000000000000, 1.000000000000000000 ) ) ;
#291 = ADVANCED_FACE ( 'NONE', ( #191 ), #189, .T. ) ;
#292 = COLOUR_RGB ( '',0.7921568627450980000, 0.8196078431372548800, 0.9333333333333333500 ) ;
#293 = SURFACE_STYLE_FILL_AREA ( #231 ) ;
#294 = AXIS2_PLACEMENT_3D ( 'NONE', #2, #85, #73 ) ;
#295 = EDGE_CURVE ( 'NONE', #342, #174, #192, .T. ) ;
#296 = VERTEX_POINT ( 'NONE', #70 ) ;
#297 = ORIENTED_EDGE ( 'NONE', *, *, #354, .T. ) ;
#298 = CIRCLE ( 'NONE', #176, 2.453673611111113000 ) ;
#299 = PRESENTATION_STYLE_ASSIGNMENT (( #260 ) ) ;
#300 = CARTESIAN_POINT ( 'NONE',  ( 6.159973399711187500E-016, 21.75000000000000000, 5.030000000000001100 ) ) ;
#301 = PRESENTATION_LAYER_ASSIGNMENT (  '', '', ( #280 ) ) ;
#302 = DIRECTION ( 'NONE',  ( -0.0000000000000000000, -1.000000000000000000, -0.0000000000000000000 ) ) ;
#303 = EDGE_LOOP ( 'NONE', ( #75, #64 ) ) ;
#304 = ORIENTED_EDGE ( 'NONE', *, *, #227, .T. ) ;
#305 = DIRECTION ( 'NONE',  ( -1.224646799147353200E-016, 0.0000000000000000000, -1.000000000000000000 ) ) ;
#306 = DIRECTION ( 'NONE',  ( -0.0000000000000000000, -1.000000000000000000, -0.0000000000000000000 ) ) ;
#307 = CARTESIAN_POINT ( 'NONE',  ( 0.0000000000000000000, 3.252372543132418400, 0.0000000000000000000 ) ) ;
#308 = CARTESIAN_POINT ( 'NONE',  ( -1.485496567365739700E-016, 0.0000000000000000000, 0.0000000000000000000 ) ) ;
#309 = EDGE_CURVE ( 'NONE', #341, #321, #194, .T. ) ;
#310 = CARTESIAN_POINT ( 'NONE',  ( 0.0000000000000000000, 21.75000000000000000, 0.0000000000000000000 ) ) ;
#311 = SURFACE_SIDE_STYLE ('',( #293 ) ) ;
#312 = DIRECTION ( 'NONE',  ( 0.0000000000000000000, 0.0000000000000000000, 1.000000000000000000 ) ) ;
#313 = DIRECTION ( 'NONE',  ( -0.0000000000000000000, -1.000000000000000000, -0.0000000000000000000 ) ) ;
#314 = CARTESIAN_POINT ( 'NONE',  ( 3.079986699855593800E-016, 21.75000000000000000, 2.515000000000000100 ) ) ;
#315 = ORIENTED_EDGE ( 'NONE', *, *, #57, .T. ) ;
#316 = EDGE_CURVE ( 'NONE', #369, #3, #210, .T. ) ;
#317 = DIRECTION ( 'NONE',  ( -1.000000000000000000, 0.0000000000000000000, 0.0000000000000000000 ) ) ;
#318 = DIRECTION ( 'NONE',  ( 1.000000000000000000, 0.0000000000000000000, 0.0000000000000000000 ) ) ;
#319 = MECHANICAL_DESIGN_GEOMETRIC_PRESENTATION_REPRESENTATION (  '', ( #280 ), #329 ) ;
#320 = CARTESIAN_POINT ( 'NONE',  ( 0.0000000000000000000, 3.702372543132418100, 0.0000000000000000000 ) ) ;
#321 = VERTEX_POINT ( 'NONE', #314 ) ;
#322 = DIRECTION ( 'NONE',  ( -0.0000000000000000000, -1.000000000000000000, -0.0000000000000000000 ) ) ;
#323 = DIRECTION ( 'NONE',  ( -1.000000000000000000, 0.0000000000000000000, 0.0000000000000000000 ) ) ;
#324 = ORIENTED_EDGE ( 'NONE', *, *, #78, .T. ) ;
#325 = CARTESIAN_POINT ( 'NONE',  ( 4.406868198566191100E-016, 3.252372543132418400, 3.598480967438468800 ) ) ;
#326 = CARTESIAN_POINT ( 'NONE',  ( 0.0000000000000000000, 3.702372543132418100, -1.658947368421053600 ) ) ;
#327 = EDGE_CURVE ( 'NONE', #178, #52, #206, .T. ) ;
#328 = CARTESIAN_POINT ( 'NONE',  ( 0.0000000000000000000, 0.8175336038535145900, 0.0000000000000000000 ) ) ;
#329 =( GEOMETRIC_REPRESENTATION_CONTEXT ( 3 ) GLOBAL_UNCERTAINTY_ASSIGNED_CONTEXT ( ( #71 ) ) GLOBAL_UNIT_ASSIGNED_CONTEXT ( ( #132, #20, #76 ) ) REPRESENTATION_CONTEXT ( 'NONE', 'WORKASPACE' ) );
#330 = DIRECTION ( 'NONE',  ( 0.0000000000000000000, 0.0000000000000000000, -1.000000000000000000 ) ) ;
#331 = DIRECTION ( 'NONE',  ( -0.0000000000000000000, -1.000000000000000000, -0.0000000000000000000 ) ) ;
#332 = COLOUR_RGB ( '',0.7921568627450980000, 0.8196078431372548800, 0.9333333333333333500 ) ;
#333 = DIRECTION ( 'NONE',  ( -1.000000000000000000, 0.0000000000000000000, 0.0000000000000000000 ) ) ;
#334 = DIRECTION ( 'NONE',  ( 0.0000000000000000000, 0.0000000000000000000, -1.000000000000000000 ) ) ;
#335 = DIRECTION ( 'NONE',  ( 0.0000000000000000000, 0.0000000000000000000, -1.000000000000000000 ) ) ;
#336 = AXIS2_PLACEMENT_3D ( 'NONE', #7, #290, #318 ) ;
#337 = CIRCLE ( 'NONE', #226, 2.426000000000000200 ) ;
#338 = EDGE_CURVE ( 'NONE', #369, #296, #193, .T. ) ;
#339 = DIRECTION ( 'NONE',  ( 0.0000000000000000000, 0.0000000000000000000, -1.000000000000000000 ) ) ;
#340 = DIRECTION ( 'NONE',  ( -1.224646799147353200E-016, 0.0000000000000000000, -1.000000000000000000 ) ) ;
#341 = VERTEX_POINT ( 'NONE', #61 ) ;
#342 = VERTEX_POINT ( 'NONE', #300 ) ;
#343 =( NAMED_UNIT ( * ) PLANE_ANGLE_UNIT ( ) SI_UNIT ( $, .RADIAN. ) );
#344 = ORIENTED_EDGE ( 'NONE', *, *, #285, .F. ) ;
#345 = ORIENTED_EDGE ( 'NONE', *, *, #135, .T. ) ;
#346 = DIRECTION ( 'NONE',  ( 1.000000000000000000, 0.0000000000000000000, -1.224646799147353200E-016 ) ) ;
#347 = AXIS2_PLACEMENT_3D ( 'NONE', #142, #151, #148 ) ;
#348 = CARTESIAN_POINT ( 'NONE',  ( 0.0000000000000000000, 2.426000000000000200, 0.0000000000000000000 ) ) ;
#349 = DIRECTION ( 'NONE',  ( -0.0000000000000000000, -1.000000000000000000, -0.0000000000000000000 ) ) ;
#350 = ORIENTED_EDGE ( 'NONE', *, *, #135, .F. ) ;
#351 = EDGE_LOOP ( 'NONE', ( #60, #304, #82, #258 ) ) ;
#352 = AXIS2_PLACEMENT_3D ( 'NONE', #270, #346, #196 ) ;
#353 = ORIENTED_EDGE ( 'NONE', *, *, #93, .T. ) ;
#354 = EDGE_CURVE ( 'NONE', #341, #42, #240, .T. ) ;
#355 = DIRECTION ( 'NONE',  ( -0.0000000000000000000, -1.000000000000000000, -0.0000000000000000000 ) ) ;
#356 = DIRECTION ( 'NONE',  ( -0.0000000000000000000, -1.000000000000000000, -0.0000000000000000000 ) ) ;
#357 =( NAMED_UNIT ( * ) SI_UNIT ( $, .STERADIAN. ) SOLID_ANGLE_UNIT ( ) );
#358 = DIRECTION ( 'NONE',  ( 0.0000000000000000000, 0.0000000000000000000, -1.000000000000000000 ) ) ;
#359 = EDGE_CURVE ( 'NONE', #255, #369, #244, .T. ) ;
#360 = AXIS2_PLACEMENT_3D ( 'NONE', #251, #222, #372 ) ;
#361 = DIRECTION ( 'NONE',  ( -0.0000000000000000000, -1.000000000000000000, -0.0000000000000000000 ) ) ;
#362 = ORIENTED_EDGE ( 'NONE', *, *, #288, .T. ) ;
#363 = CARTESIAN_POINT ( 'NONE',  ( 0.0000000000000000000, 23.54999999999999700, -2.665000000000000000 ) ) ;
#364 = EDGE_CURVE ( 'NONE', #321, #341, #225, .T. ) ;
#365 = AXIS2_PLACEMENT_3D ( 'NONE', #328, #111, #238 ) ;
#366 = ADVANCED_FACE ( 'NONE', ( #241 ), #247, .T. ) ;
#367 = EDGE_CURVE ( 'NONE', #52, #255, #250, .T. ) ;
#368 = SURFACE_STYLE_USAGE ( .BOTH. , #286 ) ;
#369 = VERTEX_POINT ( 'NONE', #190 ) ;
#370 = EDGE_LOOP ( 'NONE', ( #6, #345, #35, #41 ) ) ;
#371 = ORIENTED_EDGE ( 'NONE', *, *, #338, .T. ) ;
#372 = DIRECTION ( 'NONE',  ( 0.0000000000000000000, 0.0000000000000000000, -1.000000000000000000 ) ) ;
ENDSEC;
END-ISO-10303-21;
