ISO-10303-21;
HEADER;
FILE_DESCRIPTION (( 'STEP AP214' ),
    '1' );
FILE_NAME ('01661-00631MAXG_19_80mm.STEP',
    '2016-04-28T09:06:07',
    ( '' ),
    ( '' ),
    'SwSTEP 2.0',
    'SolidWorks 2015',
    '' );
FILE_SCHEMA (( 'AUTOMOTIVE_DESIGN' ));
ENDSEC;

DATA;
#1 = SURFACE_STYLE_USAGE ( .BOTH. , #305 ) ;
#2 = CIRCLE ( 'NONE', #102, 2.426000000000000200 ) ;
#3 = VERTEX_POINT ( 'NONE', #269 ) ;
#4 = EDGE_CURVE ( 'NONE', #67, #213, #209, .T. ) ;
#5 = CARTESIAN_POINT ( 'NONE',  ( 0.0000000000000000000, 24.64632638888889100, 0.0000000000000000000 ) ) ;
#6 = DIRECTION ( 'NONE',  ( 0.0000000000000000000, 0.0000000000000000000, 1.000000000000000000 ) ) ;
#7 = CIRCLE ( 'NONE', #83, 5.030000000000001100 ) ;
#8 = CIRCLE ( 'NONE', #21, 2.515000000000000100 ) ;
#9 = TOROIDAL_SURFACE ( 'NONE', #248, 1.658947368421053600, 1.991052631578946300 ) ;
#10 = PRODUCT_RELATED_PRODUCT_CATEGORY ( 'part', '', ( #306 ) ) ;
#11 =( NAMED_UNIT ( * ) PLANE_ANGLE_UNIT ( ) SI_UNIT ( $, .RADIAN. ) );
#12 = EDGE_CURVE ( 'NONE', #106, #144, #287, .T. ) ;
#13 = FACE_OUTER_BOUND ( 'NONE', #202, .T. ) ;
#14 = UNCERTAINTY_MEASURE_WITH_UNIT (LENGTH_MEASURE( 1.000000000000000100E-005 ), #311, 'distance_accuracy_value', 'NONE');
#15 = VERTEX_POINT ( 'NONE', #263 ) ;
#16 = VERTEX_POINT ( 'NONE', #282 ) ;
#17 = DIRECTION ( 'NONE',  ( 0.0000000000000000000, 0.0000000000000000000, -1.000000000000000000 ) ) ;
#18 = ADVANCED_FACE ( 'NONE', ( #236 ), #32, .T. ) ;
#19 = DIRECTION ( 'NONE',  ( -0.0000000000000000000, -1.000000000000000000, -0.0000000000000000000 ) ) ;
#20 = CARTESIAN_POINT ( 'NONE',  ( 0.0000000000000000000, 5.500000000000000000, 0.0000000000000000000 ) ) ;
#21 = AXIS2_PLACEMENT_3D ( 'NONE', #20, #19, #349 ) ;
#22 =( NAMED_UNIT ( * ) SI_UNIT ( $, .STERADIAN. ) SOLID_ANGLE_UNIT ( ) );
#23 = EDGE_CURVE ( 'NONE', #187, #162, #370, .T. ) ;
#24 =( GEOMETRIC_REPRESENTATION_CONTEXT ( 3 ) GLOBAL_UNCERTAINTY_ASSIGNED_CONTEXT ( ( #354 ) ) GLOBAL_UNIT_ASSIGNED_CONTEXT ( ( #55, #70, #82 ) ) REPRESENTATION_CONTEXT ( 'NONE', 'WORKASPACE' ) );
#25 = FILL_AREA_STYLE ('',( #34 ) ) ;
#26 = ORIENTED_EDGE ( 'NONE', *, *, #160, .F. ) ;
#27 = DIRECTION ( 'NONE',  ( -1.224646799147353200E-016, 0.0000000000000000000, -1.000000000000000000 ) ) ;
#28 = AXIS2_PLACEMENT_3D ( 'NONE', #169, #173, #149 ) ;
#29 = EDGE_CURVE ( 'NONE', #15, #135, #294, .T. ) ;
#30 = UNCERTAINTY_MEASURE_WITH_UNIT (LENGTH_MEASURE( 1.000000000000000100E-005 ), #308, 'distance_accuracy_value', 'NONE');
#31 = APPLICATION_PROTOCOL_DEFINITION ( 'draft international standard', 'automotive_design', 1998, #93 ) ;
#32 = TOROIDAL_SURFACE ( 'NONE', #262, 2.665000000000000000, 2.453673611111113000 ) ;
#33 = DIRECTION ( 'NONE',  ( 1.000000000000000000, 0.0000000000000000000, -1.224646799147353200E-016 ) ) ;
#34 = FILL_AREA_STYLE_COLOUR ( '', #44 ) ;
#35 = EDGE_CURVE ( 'NONE', #106, #50, #76, .T. ) ;
#36 = FACE_OUTER_BOUND ( 'NONE', #285, .T. ) ;
#37 = EDGE_LOOP ( 'NONE', ( #291, #164, #195, #154, #148 ) ) ;
#38 = DIRECTION ( 'NONE',  ( 0.0000000000000000000, 0.0000000000000000000, -1.000000000000000000 ) ) ;
#39 = AXIS2_PLACEMENT_3D ( 'NONE', #80, #75, #177 ) ;
#40 = AXIS2_PLACEMENT_3D ( 'NONE', #5, #315, #249 ) ;
#41 = EDGE_LOOP ( 'NONE', ( #203, #299, #100, #105 ) ) ;
#42 = FACE_OUTER_BOUND ( 'NONE', #270, .T. ) ;
#43 = EDGE_LOOP ( 'NONE', ( #110, #94, #71, #26 ) ) ;
#44 = COLOUR_RGB ( '',0.7921568627450980000, 0.8196078431372548800, 0.9333333333333333500 ) ;
#45 = CARTESIAN_POINT ( 'NONE',  ( 6.159973399711187500E-016, 25.30000000000000400, 5.030000000000001100 ) ) ;
#46 = DIRECTION ( 'NONE',  ( 1.000000000000000000, 0.0000000000000000000, 0.0000000000000000000 ) ) ;
#47 = EDGE_CURVE ( 'NONE', #135, #162, #276, .T. ) ;
#48 = CIRCLE ( 'NONE', #128, 1.991052631578946300 ) ;
#49 = CARTESIAN_POINT ( 'NONE',  ( 0.0000000000000000000, 25.30000000000000400, 0.0000000000000000000 ) ) ;
#50 = VERTEX_POINT ( 'NONE', #180 ) ;
#51 = FACE_OUTER_BOUND ( 'NONE', #41, .T. ) ;
#52 = SPHERICAL_SURFACE ( 'NONE', #346, 2.426000000000000200 ) ;
#53 = EDGE_CURVE ( 'NONE', #3, #16, #95, .T. ) ;
#54 = CARTESIAN_POINT ( 'NONE',  ( 2.665000000000000000, 27.10000000000000100, 0.0000000000000000000 ) ) ;
#55 =( LENGTH_UNIT ( ) NAMED_UNIT ( * ) SI_UNIT ( .MILLI., .METRE. ) );
#56 = ORIENTED_EDGE ( 'NONE', *, *, #274, .F. ) ;
#57 = DIRECTION ( 'NONE',  ( 0.0000000000000000000, 0.0000000000000000000, 1.000000000000000000 ) ) ;
#58 = AXIS2_PLACEMENT_3D ( 'NONE', #125, #314, #275 ) ;
#59 = AXIS2_PLACEMENT_3D ( 'NONE', #265, #225, #301 ) ;
#60 = DIRECTION ( 'NONE',  ( -1.000000000000000000, 0.0000000000000000000, 0.0000000000000000000 ) ) ;
#61 = EDGE_CURVE ( 'NONE', #16, #106, #360, .T. ) ;
#62 = FILL_AREA_STYLE_COLOUR ( '', #307 ) ;
#63 = ORIENTED_EDGE ( 'NONE', *, *, #231, .T. ) ;
#64 = TOROIDAL_SURFACE ( 'NONE', #40, 2.665000000000000000, 2.453673611111113000 ) ;
#65 = PRESENTATION_LAYER_ASSIGNMENT (  '', '', ( #351 ) ) ;
#66 = VERTEX_POINT ( 'NONE', #365 ) ;
#67 = VERTEX_POINT ( 'NONE', #116 ) ;
#68 = DIRECTION ( 'NONE',  ( -0.0000000000000000000, -1.000000000000000000, -0.0000000000000000000 ) ) ;
#69 =( NAMED_UNIT ( * ) SI_UNIT ( $, .STERADIAN. ) SOLID_ANGLE_UNIT ( ) );
#70 =( NAMED_UNIT ( * ) PLANE_ANGLE_UNIT ( ) SI_UNIT ( $, .RADIAN. ) );
#71 = ORIENTED_EDGE ( 'NONE', *, *, #362, .F. ) ;
#72 = EDGE_CURVE ( 'NONE', #258, #98, #7, .T. ) ;
#73 = CARTESIAN_POINT ( 'NONE',  ( 0.0000000000000000000, 2.802372543132418200, -1.658947368421053600 ) ) ;
#74 = CARTESIAN_POINT ( 'NONE',  ( 0.0000000000000000000, 0.0000000000000000000, 0.0000000000000000000 ) ) ;
#75 = DIRECTION ( 'NONE',  ( -0.0000000000000000000, -1.000000000000000000, -0.0000000000000000000 ) ) ;
#76 = CIRCLE ( 'NONE', #28, 1.816125505703705100 ) ;
#77 = EDGE_LOOP ( 'NONE', ( #121, #368, #117, #122 ) ) ;
#78 = CARTESIAN_POINT ( 'NONE',  ( 3.079986699855593800E-016, 25.30000000000000400, 2.515000000000000100 ) ) ;
#79 = FACE_OUTER_BOUND ( 'NONE', #153, .T. ) ;
#80 = CARTESIAN_POINT ( 'NONE',  ( 0.0000000000000000000, 0.8175336038535145900, 0.0000000000000000000 ) ) ;
#81 = DIRECTION ( 'NONE',  ( 0.0000000000000000000, 0.0000000000000000000, -1.000000000000000000 ) ) ;
#82 =( NAMED_UNIT ( * ) SI_UNIT ( $, .STERADIAN. ) SOLID_ANGLE_UNIT ( ) );
#83 = AXIS2_PLACEMENT_3D ( 'NONE', #49, #167, #321 ) ;
#84 = AXIS2_PLACEMENT_3D ( 'NONE', #130, #33, #27 ) ;
#85 = DIRECTION ( 'NONE',  ( 1.000000000000000000, 0.0000000000000000000, 0.0000000000000000000 ) ) ;
#86 = ORIENTED_EDGE ( 'NONE', *, *, #47, .F. ) ;
#87 = DIRECTION ( 'NONE',  ( 0.0000000000000000000, 0.0000000000000000000, -1.000000000000000000 ) ) ;
#88 = CIRCLE ( 'NONE', #297, 2.665000000000000000 ) ;
#89 = MECHANICAL_DESIGN_GEOMETRIC_PRESENTATION_REPRESENTATION (  '', ( #351 ), #109 ) ;
#90 = DIRECTION ( 'NONE',  ( -1.224646799147353200E-016, 0.0000000000000000000, -1.000000000000000000 ) ) ;
#91 = PRODUCT_DEFINITION_SHAPE ( 'NONE', 'NONE',  #199 ) ;
#92 = EDGE_CURVE ( 'NONE', #3, #144, #2, .T. ) ;
#93 = APPLICATION_CONTEXT ( 'automotive_design' ) ;
#94 = ORIENTED_EDGE ( 'NONE', *, *, #329, .T. ) ;
#95 = CIRCLE ( 'NONE', #39, 1.816125505703705100 ) ;
#96 = DIRECTION ( 'NONE',  ( 0.0000000000000000000, -1.000000000000000000, -0.0000000000000000000 ) ) ;
#97 = DIRECTION ( 'NONE',  ( 0.0000000000000000000, 0.0000000000000000000, 1.000000000000000000 ) ) ;
#98 = VERTEX_POINT ( 'NONE', #302 ) ;
#99 = CIRCLE ( 'NONE', #150, 2.515000000000000100 ) ;
#100 = ORIENTED_EDGE ( 'NONE', *, *, #23, .F. ) ;
#101 = APPLICATION_PROTOCOL_DEFINITION ( 'draft international standard', 'automotive_design', 1998, #343 ) ;
#102 = AXIS2_PLACEMENT_3D ( 'NONE', #261, #342, #46 ) ;
#103 = AXIS2_PLACEMENT_3D ( 'NONE', #74, #68, #268 ) ;
#104 = VERTEX_POINT ( 'NONE', #184 ) ;
#105 = ORIENTED_EDGE ( 'NONE', *, *, #295, .F. ) ;
#106 = VERTEX_POINT ( 'NONE', #338 ) ;
#107 = EDGE_CURVE ( 'NONE', #187, #67, #48, .T. ) ;
#108 = CARTESIAN_POINT ( 'NONE',  ( 0.0000000000000000000, 3.252372543132418400, 0.0000000000000000000 ) ) ;
#109 =( GEOMETRIC_REPRESENTATION_CONTEXT ( 3 ) GLOBAL_UNCERTAINTY_ASSIGNED_CONTEXT ( ( #14 ) ) GLOBAL_UNIT_ASSIGNED_CONTEXT ( ( #311, #372, #69 ) ) REPRESENTATION_CONTEXT ( 'NONE', 'WORKASPACE' ) );
#110 = ORIENTED_EDGE ( 'NONE', *, *, #219, .T. ) ;
#111 = ORIENTED_EDGE ( 'NONE', *, *, #362, .T. ) ;
#112 = ORIENTED_EDGE ( 'NONE', *, *, #107, .T. ) ;
#113 = DIRECTION ( 'NONE',  ( 0.0000000000000000000, 0.0000000000000000000, -1.000000000000000000 ) ) ;
#114 = DIRECTION ( 'NONE',  ( 0.0000000000000000000, 0.0000000000000000000, -1.000000000000000000 ) ) ;
#115 = CARTESIAN_POINT ( 'NONE',  ( 0.0000000000000000000, 3.702372543132418100, -1.658947368421053600 ) ) ;
#116 = CARTESIAN_POINT ( 'NONE',  ( 0.0000000000000000000, 3.252372543132418400, -3.598480967438468800 ) ) ;
#117 = ORIENTED_EDGE ( 'NONE', *, *, #4, .F. ) ;
#118 = ORIENTED_EDGE ( 'NONE', *, *, #131, .F. ) ;
#119 = DIRECTION ( 'NONE',  ( -0.0000000000000000000, -1.000000000000000000, -0.0000000000000000000 ) ) ;
#120 = CARTESIAN_POINT ( 'NONE',  ( 0.0000000000000000000, 25.30000000000000400, 0.0000000000000000000 ) ) ;
#121 = ORIENTED_EDGE ( 'NONE', *, *, #23, .T. ) ;
#122 = ORIENTED_EDGE ( 'NONE', *, *, #107, .F. ) ;
#123 = PLANE ( 'NONE',  #309 ) ;
#124 = ORIENTED_EDGE ( 'NONE', *, *, #197, .T. ) ;
#125 = CARTESIAN_POINT ( 'NONE',  ( 0.0000000000000000000, 0.8175336038535145900, 0.0000000000000000000 ) ) ;
#126 = CARTESIAN_POINT ( 'NONE',  ( 0.0000000000000000000, 0.8175336038535145900, 0.0000000000000000000 ) ) ;
#127 = ORIENTED_EDGE ( 'NONE', *, *, #4, .T. ) ;
#128 = AXIS2_PLACEMENT_3D ( 'NONE', #115, #355, #247 ) ;
#129 = STYLED_ITEM ( 'NONE', ( #327 ), #277 ) ;
#130 = CARTESIAN_POINT ( 'NONE',  ( 2.031624584690768300E-016, 3.702372543132418100, 1.658947368421053600 ) ) ;
#131 = EDGE_CURVE ( 'NONE', #135, #15, #99, .T. ) ;
#132 = EDGE_LOOP ( 'NONE', ( #155, #359, #181, #186 ) ) ;
#133 = ORIENTED_EDGE ( 'NONE', *, *, #329, .F. ) ;
#134 = ORIENTED_EDGE ( 'NONE', *, *, #12, .F. ) ;
#135 = VERTEX_POINT ( 'NONE', #78 ) ;
#136 = EDGE_CURVE ( 'NONE', #213, #67, #182, .T. ) ;
#137 = ORIENTED_EDGE ( 'NONE', *, *, #231, .F. ) ;
#138 = ORIENTED_EDGE ( 'NONE', *, *, #35, .F. ) ;
#139 = DIRECTION ( 'NONE',  ( 1.000000000000000000, 0.0000000000000000000, -1.224646799147353200E-016 ) ) ;
#140 = ORIENTED_EDGE ( 'NONE', *, *, #152, .F. ) ;
#141 = SURFACE_STYLE_USAGE ( .BOTH. , #348 ) ;
#142 = FACE_OUTER_BOUND ( 'NONE', #204, .T. ) ;
#143 = ORIENTED_EDGE ( 'NONE', *, *, #219, .F. ) ;
#144 = VERTEX_POINT ( 'NONE', #240 ) ;
#145 = CARTESIAN_POINT ( 'NONE',  ( 2.515000000000000100, 25.30000000000000400, 0.0000000000000000000 ) ) ;
#146 = ORIENTED_EDGE ( 'NONE', *, *, #274, .T. ) ;
#147 = CARTESIAN_POINT ( 'NONE',  ( 0.0000000000000000000, 2.802372543132418200, 0.0000000000000000000 ) ) ;
#148 = ORIENTED_EDGE ( 'NONE', *, *, #312, .F. ) ;
#149 = DIRECTION ( 'NONE',  ( 0.0000000000000000000, 0.0000000000000000000, -1.000000000000000000 ) ) ;
#150 = AXIS2_PLACEMENT_3D ( 'NONE', #347, #227, #332 ) ;
#151 = PRESENTATION_LAYER_ASSIGNMENT (  '', '', ( #129 ) ) ;
#152 = EDGE_CURVE ( 'NONE', #67, #16, #288, .T. ) ;
#153 = EDGE_LOOP ( 'NONE', ( #111, #165 ) ) ;
#154 = ORIENTED_EDGE ( 'NONE', *, *, #53, .F. ) ;
#155 = ORIENTED_EDGE ( 'NONE', *, *, #53, .T. ) ;
#156 = DIRECTION ( 'NONE',  ( -0.0000000000000000000, -1.000000000000000000, -0.0000000000000000000 ) ) ;
#157 = PRODUCT_CONTEXT ( 'NONE', #93, 'mechanical' ) ;
#158 = ORIENTED_EDGE ( 'NONE', *, *, #267, .F. ) ;
#159 = ORIENTED_EDGE ( 'NONE', *, *, #35, .T. ) ;
#160 = EDGE_CURVE ( 'NONE', #104, #98, #300, .T. ) ;
#161 = DIRECTION ( 'NONE',  ( -1.224646799147353200E-016, 0.0000000000000000000, -1.000000000000000000 ) ) ;
#162 = VERTEX_POINT ( 'NONE', #205 ) ;
#163 = DIRECTION ( 'NONE',  ( 0.0000000000000000000, 0.0000000000000000000, -1.000000000000000000 ) ) ;
#164 = ORIENTED_EDGE ( 'NONE', *, *, #136, .T. ) ;
#165 = ORIENTED_EDGE ( 'NONE', *, *, #72, .T. ) ;
#166 = ORIENTED_EDGE ( 'NONE', *, *, #160, .T. ) ;
#167 = DIRECTION ( 'NONE',  ( -0.0000000000000000000, -1.000000000000000000, -0.0000000000000000000 ) ) ;
#168 = ORIENTED_EDGE ( 'NONE', *, *, #72, .F. ) ;
#169 = CARTESIAN_POINT ( 'NONE',  ( 0.0000000000000000000, 0.8175336038535145900, 0.0000000000000000000 ) ) ;
#170 = AXIS2_PLACEMENT_3D ( 'NONE', #108, #224, #222 ) ;
#171 = MECHANICAL_DESIGN_GEOMETRIC_PRESENTATION_REPRESENTATION (  '', ( #129 ), #194 ) ;
#172 = ADVANCED_FACE ( 'NONE', ( #322 ), #9, .T. ) ;
#173 = DIRECTION ( 'NONE',  ( -0.0000000000000000000, -1.000000000000000000, -0.0000000000000000000 ) ) ;
#174 = CIRCLE ( 'NONE', #84, 1.991052631578946300 ) ;
#175 = SURFACE_STYLE_FILL_AREA ( #25 ) ;
#176 = ORIENTED_EDGE ( 'NONE', *, *, #29, .F. ) ;
#177 = DIRECTION ( 'NONE',  ( 0.0000000000000000000, 0.0000000000000000000, -1.000000000000000000 ) ) ;
#178 = AXIS2_PLACEMENT_3D ( 'NONE', #256, #97, #85 ) ;
#179 = CARTESIAN_POINT ( 'NONE',  ( 0.0000000000000000000, 3.252372543132418400, 0.0000000000000000000 ) ) ;
#180 = CARTESIAN_POINT ( 'NONE',  ( 3.315490242988051200E-016, 0.8175336038535145900, 1.816125505703705100 ) ) ;
#181 = ORIENTED_EDGE ( 'NONE', *, *, #12, .T. ) ;
#182 = CIRCLE ( 'NONE', #170, 3.598480967438468800 ) ;
#183 = CARTESIAN_POINT ( 'NONE',  ( 0.0000000000000000000, 2.426000000000000200, 0.0000000000000000000 ) ) ;
#184 = CARTESIAN_POINT ( 'NONE',  ( 0.0000000000000000000, 27.10000000000000100, -2.665000000000000000 ) ) ;
#185 = CARTESIAN_POINT ( 'NONE',  ( 2.031624584690768300E-016, 2.802372543132418200, 1.658947368421053600 ) ) ;
#186 = ORIENTED_EDGE ( 'NONE', *, *, #92, .F. ) ;
#187 = VERTEX_POINT ( 'NONE', #334 ) ;
#188 = DIRECTION ( 'NONE',  ( 0.0000000000000000000, 0.0000000000000000000, -1.000000000000000000 ) ) ;
#189 = ADVANCED_FACE ( 'NONE', ( #254 ), #260, .T. ) ;
#190 = PLANE ( 'NONE',  #317 ) ;
#191 = ORIENTED_EDGE ( 'NONE', *, *, #61, .F. ) ;
#192 = DIRECTION ( 'NONE',  ( -0.0000000000000000000, -1.000000000000000000, -0.0000000000000000000 ) ) ;
#193 = AXIS2_PLACEMENT_3D ( 'NONE', #73, #60, #57 ) ;
#194 =( GEOMETRIC_REPRESENTATION_CONTEXT ( 3 ) GLOBAL_UNCERTAINTY_ASSIGNED_CONTEXT ( ( #30 ) ) GLOBAL_UNIT_ASSIGNED_CONTEXT ( ( #308, #11, #22 ) ) REPRESENTATION_CONTEXT ( 'NONE', 'WORKASPACE' ) );
#195 = ORIENTED_EDGE ( 'NONE', *, *, #152, .T. ) ;
#196 = DIRECTION ( 'NONE',  ( -0.0000000000000000000, -1.000000000000000000, -0.0000000000000000000 ) ) ;
#197 = EDGE_CURVE ( 'NONE', #213, #50, #259, .T. ) ;
#198 = DIRECTION ( 'NONE',  ( -0.0000000000000000000, -0.0000000000000000000, -1.000000000000000000 ) ) ;
#199 = PRODUCT_DEFINITION ( 'UNKNOWN', '', #221, #292 ) ;
#200 = DIRECTION ( 'NONE',  ( -0.0000000000000000000, -1.000000000000000000, -0.0000000000000000000 ) ) ;
#201 = EDGE_LOOP ( 'NONE', ( #143, #137 ) ) ;
#202 = EDGE_LOOP ( 'NONE', ( #158, #146, #112, #271 ) ) ;
#203 = ORIENTED_EDGE ( 'NONE', *, *, #29, .T. ) ;
#204 = EDGE_LOOP ( 'NONE', ( #86, #207, #341, #56 ) ) ;
#205 = CARTESIAN_POINT ( 'NONE',  ( 3.743427449210892900E-016, 5.500000000000000000, 2.515000000000000100 ) ) ;
#206 = CARTESIAN_POINT ( 'NONE',  ( 0.0000000000000000000, 24.64632638888889100, -2.665000000000000000 ) ) ;
#207 = ORIENTED_EDGE ( 'NONE', *, *, #131, .T. ) ;
#208 = DIRECTION ( 'NONE',  ( -0.0000000000000000000, -1.000000000000000000, -0.0000000000000000000 ) ) ;
#209 = CIRCLE ( 'NONE', #325, 3.598480967438468800 ) ;
#210 = DIRECTION ( 'NONE',  ( 0.0000000000000000000, 1.000000000000000000, 0.0000000000000000000 ) ) ;
#211 = ADVANCED_FACE ( 'NONE', ( #79, #220 ), #190, .T. ) ;
#212 = DIRECTION ( 'NONE',  ( -1.000000000000000000, 0.0000000000000000000, 0.0000000000000000000 ) ) ;
#213 = VERTEX_POINT ( 'NONE', #331 ) ;
#214 = CIRCLE ( 'NONE', #217, 1.816125505703705100 ) ;
#215 = AXIS2_PLACEMENT_3D ( 'NONE', #206, #212, #6 ) ;
#216 = ADVANCED_FACE ( 'NONE', ( #36 ), #52, .T. ) ;
#217 = AXIS2_PLACEMENT_3D ( 'NONE', #126, #316, #255 ) ;
#218 = FILL_AREA_STYLE ('',( #62 ) ) ;
#219 = EDGE_CURVE ( 'NONE', #104, #66, #88, .T. ) ;
#220 = FACE_BOUND ( 'NONE', #286, .T. ) ;
#221 = PRODUCT_DEFINITION_FORMATION_WITH_SPECIFIED_SOURCE ( 'ANY', '', #306, .NOT_KNOWN. ) ;
#222 = DIRECTION ( 'NONE',  ( 0.0000000000000000000, 0.0000000000000000000, -1.000000000000000000 ) ) ;
#223 = CARTESIAN_POINT ( 'NONE',  ( 0.0000000000000000000, 0.0000000000000000000, -2.515000000000000100 ) ) ;
#224 = DIRECTION ( 'NONE',  ( -0.0000000000000000000, -1.000000000000000000, -0.0000000000000000000 ) ) ;
#225 = DIRECTION ( 'NONE',  ( -0.0000000000000000000, -1.000000000000000000, -0.0000000000000000000 ) ) ;
#226 = DIRECTION ( 'NONE',  ( -0.0000000000000000000, -1.000000000000000000, -0.0000000000000000000 ) ) ;
#227 = DIRECTION ( 'NONE',  ( -0.0000000000000000000, -1.000000000000000000, -0.0000000000000000000 ) ) ;
#228 = AXIS2_PLACEMENT_3D ( 'NONE', #185, #139, #161 ) ;
#229 = AXIS2_PLACEMENT_3D ( 'NONE', #335, #336, #340 ) ;
#230 = LINE ( 'NONE', #223, #235 ) ;
#231 = EDGE_CURVE ( 'NONE', #66, #104, #233, .T. ) ;
#232 = DIRECTION ( 'NONE',  ( -1.000000000000000000, 0.0000000000000000000, 0.0000000000000000000 ) ) ;
#233 = CIRCLE ( 'NONE', #366, 2.665000000000000000 ) ;
#234 = ADVANCED_FACE ( 'NONE', ( #42 ), #64, .T. ) ;
#235 = VECTOR ( 'NONE', #200, 1000.000000000000000 ) ;
#236 = FACE_OUTER_BOUND ( 'NONE', #43, .T. ) ;
#237 = DIRECTION ( 'NONE',  ( -0.0000000000000000000, -0.0000000000000000000, -1.000000000000000000 ) ) ;
#238 = ADVANCED_BREP_SHAPE_REPRESENTATION ( '01661-00631MAXG_19_80mm', ( #277, #178 ), #24 ) ;
#239 = CIRCLE ( 'NONE', #229, 2.453673611111113000 ) ;
#240 = CARTESIAN_POINT ( 'NONE',  ( -1.485496567365739700E-016, 0.0000000000000000000, 0.0000000000000000000 ) ) ;
#241 = TOROIDAL_SURFACE ( 'NONE', #59, 1.658947368421053600, 1.991052631578946300 ) ;
#242 = DIRECTION ( 'NONE',  ( 0.0000000000000000000, 0.0000000000000000000, -1.000000000000000000 ) ) ;
#243 = FACE_OUTER_BOUND ( 'NONE', #251, .T. ) ;
#244 = DIRECTION ( 'NONE',  ( 0.0000000000000000000, 0.0000000000000000000, -1.000000000000000000 ) ) ;
#245 = CYLINDRICAL_SURFACE ( 'NONE', #273, 2.515000000000000100 ) ;
#246 = ADVANCED_FACE ( 'NONE', ( #13 ), #241, .T. ) ;
#247 = DIRECTION ( 'NONE',  ( 0.0000000000000000000, 0.0000000000000000000, 1.000000000000000000 ) ) ;
#248 = AXIS2_PLACEMENT_3D ( 'NONE', #147, #192, #114 ) ;
#249 = DIRECTION ( 'NONE',  ( 0.0000000000000000000, 0.0000000000000000000, -1.000000000000000000 ) ) ;
#250 = CIRCLE ( 'NONE', #324, 5.030000000000001100 ) ;
#251 = EDGE_LOOP ( 'NONE', ( #127, #124, #138, #191, #140 ) ) ;
#252 = DIRECTION ( 'NONE',  ( -0.0000000000000000000, -1.000000000000000000, -0.0000000000000000000 ) ) ;
#253 = CARTESIAN_POINT ( 'NONE',  ( 0.0000000000000000000, 3.702372543132418100, 0.0000000000000000000 ) ) ;
#254 = FACE_OUTER_BOUND ( 'NONE', #132, .T. ) ;
#255 = DIRECTION ( 'NONE',  ( 0.0000000000000000000, 0.0000000000000000000, -1.000000000000000000 ) ) ;
#256 = CARTESIAN_POINT ( 'NONE',  ( 0.0000000000000000000, 0.0000000000000000000, 0.0000000000000000000 ) ) ;
#257 = ADVANCED_FACE ( 'NONE', ( #142 ), #323, .T. ) ;
#258 = VERTEX_POINT ( 'NONE', #45 ) ;
#259 = CIRCLE ( 'NONE', #228, 1.991052631578946300 ) ;
#260 = SPHERICAL_SURFACE ( 'NONE', #272, 2.426000000000000200 ) ;
#261 = CARTESIAN_POINT ( 'NONE',  ( 0.0000000000000000000, 2.426000000000000200, 0.0000000000000000000 ) ) ;
#262 = AXIS2_PLACEMENT_3D ( 'NONE', #296, #318, #81 ) ;
#263 = CARTESIAN_POINT ( 'NONE',  ( 0.0000000000000000000, 25.30000000000000400, -2.515000000000000100 ) ) ;
#264 = ORIENTED_EDGE ( 'NONE', *, *, #92, .T. ) ;
#265 = CARTESIAN_POINT ( 'NONE',  ( 0.0000000000000000000, 3.702372543132418100, 0.0000000000000000000 ) ) ;
#266 = ORIENTED_EDGE ( 'NONE', *, *, #312, .T. ) ;
#267 = EDGE_CURVE ( 'NONE', #162, #213, #174, .T. ) ;
#268 = DIRECTION ( 'NONE',  ( 0.0000000000000000000, 0.0000000000000000000, -1.000000000000000000 ) ) ;
#269 = CARTESIAN_POINT ( 'NONE',  ( -1.816125505703705100, 0.8175336038535145900, 0.0000000000000000000 ) ) ;
#270 = EDGE_LOOP ( 'NONE', ( #133, #63, #166, #168 ) ) ;
#271 = ORIENTED_EDGE ( 'NONE', *, *, #136, .F. ) ;
#272 = AXIS2_PLACEMENT_3D ( 'NONE', #320, #237, #232 ) ;
#273 = AXIS2_PLACEMENT_3D ( 'NONE', #283, #196, #87 ) ;
#274 = EDGE_CURVE ( 'NONE', #162, #187, #8, .T. ) ;
#275 = DIRECTION ( 'NONE',  ( 0.0000000000000000000, 0.0000000000000000000, -1.000000000000000000 ) ) ;
#276 = LINE ( 'NONE', #281, #330 ) ;
#277 = MANIFOLD_SOLID_BREP ( 'Revolve1', #289 ) ;
#278 = DIRECTION ( 'NONE',  ( 0.0000000000000000000, -0.0000000000000000000, 1.000000000000000000 ) ) ;
#279 = TOROIDAL_SURFACE ( 'NONE', #371, 1.658947368421053600, 1.991052631578946300 ) ;
#280 = SURFACE_STYLE_FILL_AREA ( #218 ) ;
#281 = CARTESIAN_POINT ( 'NONE',  ( 3.079986699855593800E-016, 0.0000000000000000000, 2.515000000000000100 ) ) ;
#282 = CARTESIAN_POINT ( 'NONE',  ( 0.0000000000000000000, 0.8175336038535145900, -1.816125505703705100 ) ) ;
#283 = CARTESIAN_POINT ( 'NONE',  ( 0.0000000000000000000, 0.0000000000000000000, 0.0000000000000000000 ) ) ;
#284 = SHAPE_DEFINITION_REPRESENTATION ( #91, #238 ) ;
#285 = EDGE_LOOP ( 'NONE', ( #134, #159, #266, #264 ) ) ;
#286 = EDGE_LOOP ( 'NONE', ( #176, #118 ) ) ;
#287 = CIRCLE ( 'NONE', #352, 2.426000000000000200 ) ;
#288 = CIRCLE ( 'NONE', #193, 1.991052631578946300 ) ;
#289 = CLOSED_SHELL ( 'NONE', ( #18, #319, #369, #350, #189, #216, #172, #246, #257, #211, #234, #328 ) ) ;
#290 = TOROIDAL_SURFACE ( 'NONE', #339, 1.658947368421053600, 1.991052631578946300 ) ;
#291 = ORIENTED_EDGE ( 'NONE', *, *, #197, .F. ) ;
#292 = PRODUCT_DEFINITION_CONTEXT ( 'detailed design', #343, 'design' ) ;
#293 = AXIS2_PLACEMENT_3D ( 'NONE', #120, #119, #163 ) ;
#294 = CIRCLE ( 'NONE', #293, 2.515000000000000100 ) ;
#295 = EDGE_CURVE ( 'NONE', #15, #187, #230, .T. ) ;
#296 = CARTESIAN_POINT ( 'NONE',  ( 0.0000000000000000000, 24.64632638888889100, 0.0000000000000000000 ) ) ;
#297 = AXIS2_PLACEMENT_3D ( 'NONE', #345, #226, #242 ) ;
#298 = FACE_OUTER_BOUND ( 'NONE', #77, .T. ) ;
#299 = ORIENTED_EDGE ( 'NONE', *, *, #47, .T. ) ;
#300 = CIRCLE ( 'NONE', #215, 2.453673611111113000 ) ;
#301 = DIRECTION ( 'NONE',  ( 0.0000000000000000000, 0.0000000000000000000, -1.000000000000000000 ) ) ;
#302 = CARTESIAN_POINT ( 'NONE',  ( 0.0000000000000000000, 25.30000000000000400, -5.030000000000001100 ) ) ;
#303 = CARTESIAN_POINT ( 'NONE',  ( 0.0000000000000000000, 2.802372543132418200, 0.0000000000000000000 ) ) ;
#304 = PRESENTATION_STYLE_ASSIGNMENT (( #141 ) ) ;
#305 = SURFACE_SIDE_STYLE ('',( #175 ) ) ;
#306 = PRODUCT ( '01661-00631MAXG_19_80mm', '01661-00631MAXG_19_80mm', '', ( #157 ) ) ;
#307 = COLOUR_RGB ( '',0.7921568627450980000, 0.8196078431372548800, 0.9333333333333333500 ) ;
#308 =( LENGTH_UNIT ( ) NAMED_UNIT ( * ) SI_UNIT ( .MILLI., .METRE. ) );
#309 = AXIS2_PLACEMENT_3D ( 'NONE', #54, #210, #278 ) ;
#310 = AXIS2_PLACEMENT_3D ( 'NONE', #363, #358, #344 ) ;
#311 =( LENGTH_UNIT ( ) NAMED_UNIT ( * ) SI_UNIT ( .MILLI., .METRE. ) );
#312 = EDGE_CURVE ( 'NONE', #50, #3, #214, .T. ) ;
#313 = DIRECTION ( 'NONE',  ( -1.000000000000000000, 0.0000000000000000000, 0.0000000000000000000 ) ) ;
#314 = DIRECTION ( 'NONE',  ( -0.0000000000000000000, -1.000000000000000000, -0.0000000000000000000 ) ) ;
#315 = DIRECTION ( 'NONE',  ( -0.0000000000000000000, -1.000000000000000000, -0.0000000000000000000 ) ) ;
#316 = DIRECTION ( 'NONE',  ( -0.0000000000000000000, -1.000000000000000000, -0.0000000000000000000 ) ) ;
#317 = AXIS2_PLACEMENT_3D ( 'NONE', #145, #96, #17 ) ;
#318 = DIRECTION ( 'NONE',  ( -0.0000000000000000000, -1.000000000000000000, -0.0000000000000000000 ) ) ;
#319 = ADVANCED_FACE ( 'NONE', ( #51 ), #245, .T. ) ;
#320 = CARTESIAN_POINT ( 'NONE',  ( 0.0000000000000000000, 2.426000000000000200, 0.0000000000000000000 ) ) ;
#321 = DIRECTION ( 'NONE',  ( 0.0000000000000000000, 0.0000000000000000000, -1.000000000000000000 ) ) ;
#322 = FACE_OUTER_BOUND ( 'NONE', #37, .T. ) ;
#323 = CYLINDRICAL_SURFACE ( 'NONE', #103, 2.515000000000000100 ) ;
#324 = AXIS2_PLACEMENT_3D ( 'NONE', #356, #361, #364 ) ;
#325 = AXIS2_PLACEMENT_3D ( 'NONE', #179, #252, #244 ) ;
#326 = DIRECTION ( 'NONE',  ( -0.0000000000000000000, -1.000000000000000000, -0.0000000000000000000 ) ) ;
#327 = PRESENTATION_STYLE_ASSIGNMENT (( #1 ) ) ;
#328 = ADVANCED_FACE ( 'NONE', ( #333 ), #123, .T. ) ;
#329 = EDGE_CURVE ( 'NONE', #66, #258, #239, .T. ) ;
#330 = VECTOR ( 'NONE', #156, 1000.000000000000000 ) ;
#331 = CARTESIAN_POINT ( 'NONE',  ( 4.406868198566191100E-016, 3.252372543132418400, 3.598480967438468800 ) ) ;
#332 = DIRECTION ( 'NONE',  ( 0.0000000000000000000, 0.0000000000000000000, -1.000000000000000000 ) ) ;
#333 = FACE_OUTER_BOUND ( 'NONE', #201, .T. ) ;
#334 = CARTESIAN_POINT ( 'NONE',  ( 0.0000000000000000000, 5.500000000000000000, -2.515000000000000100 ) ) ;
#335 = CARTESIAN_POINT ( 'NONE',  ( 3.263683719727696100E-016, 24.64632638888889100, 2.665000000000000000 ) ) ;
#336 = DIRECTION ( 'NONE',  ( 1.000000000000000000, 0.0000000000000000000, -1.224646799147353200E-016 ) ) ;
#337 = DIRECTION ( 'NONE',  ( -1.000000000000000000, 0.0000000000000000000, 1.224646799147353500E-016 ) ) ;
#338 = CARTESIAN_POINT ( 'NONE',  ( 1.816125505703705100, 0.8175336038535145900, -2.224112287409909900E-016 ) ) ;
#339 = AXIS2_PLACEMENT_3D ( 'NONE', #303, #326, #188 ) ;
#340 = DIRECTION ( 'NONE',  ( -1.224646799147353200E-016, 0.0000000000000000000, -1.000000000000000000 ) ) ;
#341 = ORIENTED_EDGE ( 'NONE', *, *, #295, .T. ) ;
#342 = DIRECTION ( 'NONE',  ( -0.0000000000000000000, 0.0000000000000000000, 1.000000000000000000 ) ) ;
#343 = APPLICATION_CONTEXT ( 'automotive_design' ) ;
#344 = DIRECTION ( 'NONE',  ( 0.0000000000000000000, 0.0000000000000000000, -1.000000000000000000 ) ) ;
#345 = CARTESIAN_POINT ( 'NONE',  ( 0.0000000000000000000, 27.10000000000000100, 0.0000000000000000000 ) ) ;
#346 = AXIS2_PLACEMENT_3D ( 'NONE', #183, #198, #313 ) ;
#347 = CARTESIAN_POINT ( 'NONE',  ( 0.0000000000000000000, 25.30000000000000400, 0.0000000000000000000 ) ) ;
#348 = SURFACE_SIDE_STYLE ('',( #280 ) ) ;
#349 = DIRECTION ( 'NONE',  ( 0.0000000000000000000, 0.0000000000000000000, -1.000000000000000000 ) ) ;
#350 = ADVANCED_FACE ( 'NONE', ( #243 ), #290, .T. ) ;
#351 = STYLED_ITEM ( 'NONE', ( #304 ), #238 ) ;
#352 = AXIS2_PLACEMENT_3D ( 'NONE', #357, #90, #337 ) ;
#353 = DIRECTION ( 'NONE',  ( -0.0000000000000000000, -1.000000000000000000, -0.0000000000000000000 ) ) ;
#354 = UNCERTAINTY_MEASURE_WITH_UNIT (LENGTH_MEASURE( 1.000000000000000100E-005 ), #55, 'distance_accuracy_value', 'NONE');
#355 = DIRECTION ( 'NONE',  ( -1.000000000000000000, 0.0000000000000000000, 0.0000000000000000000 ) ) ;
#356 = CARTESIAN_POINT ( 'NONE',  ( 0.0000000000000000000, 25.30000000000000400, 0.0000000000000000000 ) ) ;
#357 = CARTESIAN_POINT ( 'NONE',  ( 0.0000000000000000000, 2.426000000000000200, 0.0000000000000000000 ) ) ;
#358 = DIRECTION ( 'NONE',  ( -0.0000000000000000000, -1.000000000000000000, -0.0000000000000000000 ) ) ;
#359 = ORIENTED_EDGE ( 'NONE', *, *, #61, .T. ) ;
#360 = CIRCLE ( 'NONE', #58, 1.816125505703705100 ) ;
#361 = DIRECTION ( 'NONE',  ( -0.0000000000000000000, -1.000000000000000000, -0.0000000000000000000 ) ) ;
#362 = EDGE_CURVE ( 'NONE', #98, #258, #250, .T. ) ;
#363 = CARTESIAN_POINT ( 'NONE',  ( 0.0000000000000000000, 5.500000000000000000, 0.0000000000000000000 ) ) ;
#364 = DIRECTION ( 'NONE',  ( 0.0000000000000000000, 0.0000000000000000000, -1.000000000000000000 ) ) ;
#365 = CARTESIAN_POINT ( 'NONE',  ( 4.711828559719441600E-016, 27.10000000000000100, 2.665000000000000000 ) ) ;
#366 = AXIS2_PLACEMENT_3D ( 'NONE', #367, #208, #113 ) ;
#367 = CARTESIAN_POINT ( 'NONE',  ( 0.0000000000000000000, 27.10000000000000100, 0.0000000000000000000 ) ) ;
#368 = ORIENTED_EDGE ( 'NONE', *, *, #267, .T. ) ;
#369 = ADVANCED_FACE ( 'NONE', ( #298 ), #279, .T. ) ;
#370 = CIRCLE ( 'NONE', #310, 2.515000000000000100 ) ;
#371 = AXIS2_PLACEMENT_3D ( 'NONE', #253, #353, #38 ) ;
#372 =( NAMED_UNIT ( * ) PLANE_ANGLE_UNIT ( ) SI_UNIT ( $, .RADIAN. ) );
ENDSEC;
END-ISO-10303-21;
