ISO-10303-21;
HEADER;
FILE_DESCRIPTION (( 'STEP AP214' ),
    '1' );
FILE_NAME ('01661-00631.STEP',
    '2016-04-05T09:31:14',
    ( '' ),
    ( '' ),
    'SwSTEP 2.0',
    'SolidWorks 2015',
    '' );
FILE_SCHEMA (( 'AUTOMOTIVE_DESIGN' ));
ENDSEC;

DATA;
#1 = DIRECTION ( 'NONE',  ( 0.0000000000000000000, 0.0000000000000000000, -1.000000000000000000 ) ) ;
#2 = CIRCLE ( 'NONE', #93, 1.415999999999999900 ) ;
#3 = VECTOR ( 'NONE', #56, 1000.000000000000000 ) ;
#4 = CARTESIAN_POINT ( 'NONE',  ( 0.0000000000000000000, 55.49999999999999300, -0.8499999999999999800 ) ) ;
#5 = FACE_BOUND ( 'NONE', #192, .T. ) ;
#6 = CARTESIAN_POINT ( 'NONE',  ( 0.0000000000000000000, 28.19999999999999900, 0.0000000000000000000 ) ) ;
#7 = DIRECTION ( 'NONE',  ( -0.0000000000000000000, -1.000000000000000000, -0.0000000000000000000 ) ) ;
#8 = CARTESIAN_POINT ( 'NONE',  ( -1.485496567365739700E-016, 0.0000000000000000000, 0.0000000000000000000 ) ) ;
#9 =( GEOMETRIC_REPRESENTATION_CONTEXT ( 3 ) GLOBAL_UNCERTAINTY_ASSIGNED_CONTEXT ( ( #384 ) ) GLOBAL_UNIT_ASSIGNED_CONTEXT ( ( #377, #380, #383 ) ) REPRESENTATION_CONTEXT ( 'NONE', 'WORKASPACE' ) );
#10 = ADVANCED_FACE ( 'NONE', ( #248, #5 ), #197, .T. ) ;
#11 = SURFACE_STYLE_FILL_AREA ( #373 ) ;
#12 = AXIS2_PLACEMENT_3D ( 'NONE', #355, #385, #387 ) ;
#13 = CARTESIAN_POINT ( 'NONE',  ( 0.0000000000000000000, 0.0000000000000000000, 0.0000000000000000000 ) ) ;
#14 = DIRECTION ( 'NONE',  ( 0.0000000000000000000, 0.0000000000000000000, -1.000000000000000000 ) ) ;
#15 = EDGE_LOOP ( 'NONE', ( #307, #72, #52, #60 ) ) ;
#16 = VECTOR ( 'NONE', #145, 1000.000000000000000 ) ;
#17 = DIRECTION ( 'NONE',  ( -0.0000000000000000000, -1.000000000000000000, -0.0000000000000000000 ) ) ;
#18 = ADVANCED_FACE ( 'NONE', ( #243 ), #251, .T. ) ;
#19 = MECHANICAL_DESIGN_GEOMETRIC_PRESENTATION_REPRESENTATION (  '', ( #42 ), #9 ) ;
#20 = CARTESIAN_POINT ( 'NONE',  ( 1.734099867592652200E-016, 54.13355512369679400, 1.416000000000000100 ) ) ;
#21 = PRESENTATION_LAYER_ASSIGNMENT (  '', '', ( #42 ) ) ;
#22 = SHAPE_DEFINITION_REPRESENTATION ( #47, #305 ) ;
#23 = FILL_AREA_STYLE_COLOUR ( '', #289 ) ;
#24 = VERTEX_POINT ( 'NONE', #288 ) ;
#25 = VERTEX_POINT ( 'NONE', #357 ) ;
#26 = DIRECTION ( 'NONE',  ( 0.0000000000000000000, -0.0000000000000000000, 1.000000000000000000 ) ) ;
#27 = CARTESIAN_POINT ( 'NONE',  ( 2.970993134731479500E-016, 0.0000000000000000000, 2.426000000000000200 ) ) ;
#28 = ORIENTED_EDGE ( 'NONE', *, *, #267, .F. ) ;
#29 = CARTESIAN_POINT ( 'NONE',  ( 0.0000000000000000000, 28.19999999999999900, 0.0000000000000000000 ) ) ;
#30 = FACE_OUTER_BOUND ( 'NONE', #15, .T. ) ;
#31 =( GEOMETRIC_REPRESENTATION_CONTEXT ( 3 ) GLOBAL_UNCERTAINTY_ASSIGNED_CONTEXT ( ( #199 ) ) GLOBAL_UNIT_ASSIGNED_CONTEXT ( ( #365, #366, #367 ) ) REPRESENTATION_CONTEXT ( 'NONE', 'WORKASPACE' ) );
#32 = PLANE ( 'NONE',  #186 ) ;
#33 = PRODUCT_DEFINITION ( 'UNKNOWN', '', #54, #205 ) ;
#34 = CLOSED_SHELL ( 'NONE', ( #310, #179, #41, #218, #43, #18, #379, #10, #397, #102, #38, #395, #142 ) ) ;
#35 = DIRECTION ( 'NONE',  ( 0.0000000000000000000, 0.0000000000000000000, -1.000000000000000000 ) ) ;
#36 = AXIS2_PLACEMENT_3D ( 'NONE', #350, #311, #361 ) ;
#37 = ORIENTED_EDGE ( 'NONE', *, *, #351, .F. ) ;
#38 = ADVANCED_FACE ( 'NONE', ( #253 ), #266, .T. ) ;
#39 = VERTEX_POINT ( 'NONE', #354 ) ;
#40 = CARTESIAN_POINT ( 'NONE',  ( 0.0000000000000000000, 2.426000000000000200, 0.0000000000000000000 ) ) ;
#41 = ADVANCED_FACE ( 'NONE', ( #264 ), #259, .T. ) ;
#42 = STYLED_ITEM ( 'NONE', ( #79 ), #305 ) ;
#43 = ADVANCED_FACE ( 'NONE', ( #269 ), #249, .T. ) ;
#44 = ORIENTED_EDGE ( 'NONE', *, *, #247, .F. ) ;
#45 = AXIS2_PLACEMENT_3D ( 'NONE', #331, #299, #309 ) ;
#46 = CARTESIAN_POINT ( 'NONE',  ( 0.0000000000000000000, 2.426000000000000200, -2.426000000000000200 ) ) ;
#47 = PRODUCT_DEFINITION_SHAPE ( 'NONE', 'NONE',  #33 ) ;
#48 = DIRECTION ( 'NONE',  ( 0.0000000000000000000, 0.0000000000000000000, -1.000000000000000000 ) ) ;
#49 = AXIS2_PLACEMENT_3D ( 'NONE', #332, #333, #336 ) ;
#50 = DIRECTION ( 'NONE',  ( 0.0000000000000000000, 1.000000000000000000, 0.0000000000000000000 ) ) ;
#51 = CARTESIAN_POINT ( 'NONE',  ( 0.0000000000000000000, 2.426000000000000200, 0.0000000000000000000 ) ) ;
#52 = ORIENTED_EDGE ( 'NONE', *, *, #303, .T. ) ;
#53 = AXIS2_PLACEMENT_3D ( 'NONE', #291, #260, #252 ) ;
#54 = PRODUCT_DEFINITION_FORMATION_WITH_SPECIFIED_SOURCE ( 'ANY', '', #293, .NOT_KNOWN. ) ;
#55 = DIRECTION ( 'NONE',  ( 1.000000000000000000, 0.0000000000000000000, 0.0000000000000000000 ) ) ;
#56 = DIRECTION ( 'NONE',  ( -0.0000000000000000000, -1.000000000000000000, -0.0000000000000000000 ) ) ;
#57 = VERTEX_POINT ( 'NONE', #62 ) ;
#58 = AXIS2_PLACEMENT_3D ( 'NONE', #301, #304, #306 ) ;
#59 = AXIS2_PLACEMENT_3D ( 'NONE', #314, #319, #325 ) ;
#60 = ORIENTED_EDGE ( 'NONE', *, *, #292, .F. ) ;
#61 = AXIS2_PLACEMENT_3D ( 'NONE', #294, #297, #349 ) ;
#62 = CARTESIAN_POINT ( 'NONE',  ( 0.0000000000000000000, 54.13355512369679400, -1.416000000000000100 ) ) ;
#63 = UNCERTAINTY_MEASURE_WITH_UNIT (LENGTH_MEASURE( 1.000000000000000100E-005 ), #112, 'distance_accuracy_value', 'NONE');
#64 = AXIS2_PLACEMENT_3D ( 'NONE', #280, #283, #290 ) ;
#65 = ORIENTED_EDGE ( 'NONE', *, *, #327, .T. ) ;
#66 = CARTESIAN_POINT ( 'NONE',  ( 0.0000000000000000000, 2.426000000000000200, 0.0000000000000000000 ) ) ;
#67 = LINE ( 'NONE', #231, #261 ) ;
#68 = DIRECTION ( 'NONE',  ( -0.0000000000000000000, -1.000000000000000000, -0.0000000000000000000 ) ) ;
#69 = AXIS2_PLACEMENT_3D ( 'NONE', #268, #262, #265 ) ;
#70 = CARTESIAN_POINT ( 'NONE',  ( 0.0000000000000000000, 0.0000000000000000000, 0.0000000000000000000 ) ) ;
#71 = DIRECTION ( 'NONE',  ( -0.0000000000000000000, -1.000000000000000000, -0.0000000000000000000 ) ) ;
#72 = ORIENTED_EDGE ( 'NONE', *, *, #267, .T. ) ;
#73 = VERTEX_POINT ( 'NONE', #117 ) ;
#74 = DIRECTION ( 'NONE',  ( 0.0000000000000000000, -0.0000000000000000000, 1.000000000000000000 ) ) ;
#75 = DIRECTION ( 'NONE',  ( -0.0000000000000000000, -1.000000000000000000, -0.0000000000000000000 ) ) ;
#76 = AXIS2_PLACEMENT_3D ( 'NONE', #254, #256, #257 ) ;
#77 = PRODUCT_RELATED_PRODUCT_CATEGORY ( 'part', '', ( #293 ) ) ;
#78 = DIRECTION ( 'NONE',  ( 0.0000000000000000000, 0.0000000000000000000, -1.000000000000000000 ) ) ;
#79 = PRESENTATION_STYLE_ASSIGNMENT (( #376 ) ) ;
#80 = DIRECTION ( 'NONE',  ( -0.0000000000000000000, -1.000000000000000000, -0.0000000000000000000 ) ) ;
#81 = ORIENTED_EDGE ( 'NONE', *, *, #163, .F. ) ;
#82 = CARTESIAN_POINT ( 'NONE',  ( 0.0000000000000000000, 28.19999999999999900, 0.0000000000000000000 ) ) ;
#83 = AXIS2_PLACEMENT_3D ( 'NONE', #204, #216, #168 ) ;
#84 = DIRECTION ( 'NONE',  ( -1.000000000000000000, 0.0000000000000000000, 0.0000000000000000000 ) ) ;
#85 = VERTEX_POINT ( 'NONE', #46 ) ;
#86 = ORIENTED_EDGE ( 'NONE', *, *, #278, .T. ) ;
#87 = ORIENTED_EDGE ( 'NONE', *, *, #163, .T. ) ;
#88 = AXIS2_PLACEMENT_3D ( 'NONE', #188, #190, #202 ) ;
#89 = CARTESIAN_POINT ( 'NONE',  ( 0.0000000000000000000, 2.426000000000000200, 0.0000000000000000000 ) ) ;
#90 = DIRECTION ( 'NONE',  ( -0.0000000000000000000, -1.000000000000000000, -0.0000000000000000000 ) ) ;
#91 = AXIS2_PLACEMENT_3D ( 'NONE', #174, #68, #181 ) ;
#92 = DIRECTION ( 'NONE',  ( -0.0000000000000000000, -1.000000000000000000, -0.0000000000000000000 ) ) ;
#93 = AXIS2_PLACEMENT_3D ( 'NONE', #147, #148, #151 ) ;
#94 = DIRECTION ( 'NONE',  ( 0.0000000000000000000, 0.0000000000000000000, -1.000000000000000000 ) ) ;
#95 = PLANE ( 'NONE',  #154 ) ;
#96 = ORIENTED_EDGE ( 'NONE', *, *, #144, .T. ) ;
#97 = FILL_AREA_STYLE ('',( #23 ) ) ;
#98 = AXIS2_PLACEMENT_3D ( 'NONE', #129, #130, #131 ) ;
#99 = SURFACE_SIDE_STYLE ('',( #286 ) ) ;
#100 = CIRCLE ( 'NONE', #59, 2.426000000000000200 ) ;
#101 = AXIS2_PLACEMENT_3D ( 'NONE', #104, #106, #107 ) ;
#102 = ADVANCED_FACE ( 'NONE', ( #270, #263 ), #32, .T. ) ;
#103 = SURFACE_STYLE_USAGE ( .BOTH. , #99 ) ;
#104 = CARTESIAN_POINT ( 'NONE',  ( 0.0000000000000000000, 30.00000000000000000, 0.0000000000000000000 ) ) ;
#105 = AXIS2_PLACEMENT_3D ( 'NONE', #89, #92, #94 ) ;
#106 = DIRECTION ( 'NONE',  ( -0.0000000000000000000, -1.000000000000000000, -0.0000000000000000000 ) ) ;
#107 = DIRECTION ( 'NONE',  ( 0.0000000000000000000, 0.0000000000000000000, -1.000000000000000000 ) ) ;
#108 = ORIENTED_EDGE ( 'NONE', *, *, #368, .T. ) ;
#109 = CARTESIAN_POINT ( 'NONE',  ( 1.387524823433951200E-016, 55.49999999999999300, 0.8499999999999999800 ) ) ;
#110 = AXIS2_PLACEMENT_3D ( 'NONE', #160, #75, #78 ) ;
#111 = CONICAL_SURFACE ( 'NONE', #83, 1.416000000000000100, 0.3926990816987174800 ) ;
#112 =( LENGTH_UNIT ( ) NAMED_UNIT ( * ) SI_UNIT ( .MILLI., .METRE. ) );
#113 = AXIS2_PLACEMENT_3D ( 'NONE', #66, #71, #227 ) ;
#114 = EDGE_LOOP ( 'NONE', ( #276, #272, #369, #158 ) ) ;
#115 = CARTESIAN_POINT ( 'NONE',  ( 1.734099867592652000E-016, 30.00000000000000000, 1.415999999999999900 ) ) ;
#116 = AXIS2_PLACEMENT_3D ( 'NONE', #51, #363, #55 ) ;
#117 = CARTESIAN_POINT ( 'NONE',  ( 0.0000000000000000000, 30.00000000000000000, -2.729565258478300600 ) ) ;
#118 = CARTESIAN_POINT ( 'NONE',  ( 1.415999999999999900, 30.00000000000000000, 0.0000000000000000000 ) ) ;
#119 = ORIENTED_EDGE ( 'NONE', *, *, #282, .F. ) ;
#120 = ORIENTED_EDGE ( 'NONE', *, *, #292, .T. ) ;
#121 = ORIENTED_EDGE ( 'NONE', *, *, #386, .F. ) ;
#122 = DIRECTION ( 'NONE',  ( 0.0000000000000000000, -1.000000000000000000, -0.0000000000000000000 ) ) ;
#123 = AXIS2_PLACEMENT_3D ( 'NONE', #70, #136, #1 ) ;
#124 = VECTOR ( 'NONE', #223, 1000.000000000000200 ) ;
#125 = AXIS2_PLACEMENT_3D ( 'NONE', #13, #152, #48 ) ;
#126 = ORIENTED_EDGE ( 'NONE', *, *, #240, .T. ) ;
#127 = VERTEX_POINT ( 'NONE', #20 ) ;
#128 = ORIENTED_EDGE ( 'NONE', *, *, #392, .T. ) ;
#129 = CARTESIAN_POINT ( 'NONE',  ( 0.0000000000000000000, 55.49999999999999300, 0.0000000000000000000 ) ) ;
#130 = DIRECTION ( 'NONE',  ( -0.0000000000000000000, -1.000000000000000000, -0.0000000000000000000 ) ) ;
#131 = DIRECTION ( 'NONE',  ( 0.0000000000000000000, 0.0000000000000000000, -1.000000000000000000 ) ) ;
#132 = ORIENTED_EDGE ( 'NONE', *, *, #255, .F. ) ;
#133 = ORIENTED_EDGE ( 'NONE', *, *, #274, .T. ) ;
#134 = ORIENTED_EDGE ( 'NONE', *, *, #144, .F. ) ;
#135 = AXIS2_PLACEMENT_3D ( 'NONE', #29, #375, #35 ) ;
#136 = DIRECTION ( 'NONE',  ( -0.0000000000000000000, -1.000000000000000000, -0.0000000000000000000 ) ) ;
#137 = AXIS2_PLACEMENT_3D ( 'NONE', #6, #7, #14 ) ;
#138 = CARTESIAN_POINT ( 'NONE',  ( 0.0000000000000000000, 0.0000000000000000000, -1.416000000000000100 ) ) ;
#139 = MANIFOLD_SOLID_BREP ( 'Revolve1', #34 ) ;
#140 = VERTEX_POINT ( 'NONE', #8 ) ;
#141 = ORIENTED_EDGE ( 'NONE', *, *, #296, .T. ) ;
#142 = ADVANCED_FACE ( 'NONE', ( #316 ), #95, .T. ) ;
#143 = VERTEX_POINT ( 'NONE', #194 ) ;
#144 = EDGE_CURVE ( 'NONE', #143, #170, #340, .T. ) ;
#145 = DIRECTION ( 'NONE',  ( -0.0000000000000000000, -1.000000000000000000, -0.0000000000000000000 ) ) ;
#146 = AXIS2_PLACEMENT_3D ( 'NONE', #381, #17, #337 ) ;
#147 = CARTESIAN_POINT ( 'NONE',  ( 0.0000000000000000000, 30.00000000000000000, 0.0000000000000000000 ) ) ;
#148 = DIRECTION ( 'NONE',  ( -0.0000000000000000000, -1.000000000000000000, -0.0000000000000000000 ) ) ;
#149 = ORIENTED_EDGE ( 'NONE', *, *, #386, .T. ) ;
#150 = ORIENTED_EDGE ( 'NONE', *, *, #222, .F. ) ;
#151 = DIRECTION ( 'NONE',  ( 0.0000000000000000000, 0.0000000000000000000, -1.000000000000000000 ) ) ;
#152 = DIRECTION ( 'NONE',  ( -0.0000000000000000000, -1.000000000000000000, -0.0000000000000000000 ) ) ;
#153 = CIRCLE ( 'NONE', #76, 1.416000000000000100 ) ;
#154 = AXIS2_PLACEMENT_3D ( 'NONE', #324, #241, #74 ) ;
#155 = ORIENTED_EDGE ( 'NONE', *, *, #229, .F. ) ;
#156 = AXIS2_PLACEMENT_3D ( 'NONE', #82, #80, #228 ) ;
#157 = CARTESIAN_POINT ( 'NONE',  ( 1.734099867592652200E-016, 0.0000000000000000000, 1.416000000000000100 ) ) ;
#158 = ORIENTED_EDGE ( 'NONE', *, *, #240, .F. ) ;
#159 = CIRCLE ( 'NONE', #91, 1.416000000000000100 ) ;
#160 = CARTESIAN_POINT ( 'NONE',  ( 0.0000000000000000000, 55.49999999999999300, 0.0000000000000000000 ) ) ;
#161 = LINE ( 'NONE', #157, #312 ) ;
#162 = VERTEX_POINT ( 'NONE', #287 ) ;
#163 = EDGE_CURVE ( 'NONE', #183, #39, #326, .T. ) ;
#164 = ORIENTED_EDGE ( 'NONE', *, *, #378, .F. ) ;
#165 = ORIENTED_EDGE ( 'NONE', *, *, #391, .F. ) ;
#166 = ORIENTED_EDGE ( 'NONE', *, *, #368, .F. ) ;
#167 =( GEOMETRIC_REPRESENTATION_CONTEXT ( 3 ) GLOBAL_UNCERTAINTY_ASSIGNED_CONTEXT ( ( #63 ) ) GLOBAL_UNIT_ASSIGNED_CONTEXT ( ( #112, #313, #315 ) ) REPRESENTATION_CONTEXT ( 'NONE', 'WORKASPACE' ) );
#168 = DIRECTION ( 'NONE',  ( 0.0000000000000000000, 0.0000000000000000000, -1.000000000000000000 ) ) ;
#169 = MECHANICAL_DESIGN_GEOMETRIC_PRESENTATION_REPRESENTATION (  '', ( #195 ), #167 ) ;
#170 = VERTEX_POINT ( 'NONE', #343 ) ;
#171 = CIRCLE ( 'NONE', #69, 5.030000000000000200 ) ;
#172 = DIRECTION ( 'NONE',  ( -0.0000000000000000000, -0.0000000000000000000, -1.000000000000000000 ) ) ;
#173 = VERTEX_POINT ( 'NONE', #115 ) ;
#174 = CARTESIAN_POINT ( 'NONE',  ( 0.0000000000000000000, 54.13355512369679400, 0.0000000000000000000 ) ) ;
#175 = EDGE_LOOP ( 'NONE', ( #44, #28 ) ) ;
#176 = PRESENTATION_LAYER_ASSIGNMENT (  '', '', ( #195 ) ) ;
#177 = ORIENTED_EDGE ( 'NONE', *, *, #247, .T. ) ;
#178 = CARTESIAN_POINT ( 'NONE',  ( 0.0000000000000000000, 27.62999999999999500, 0.0000000000000000000 ) ) ;
#179 = ADVANCED_FACE ( 'NONE', ( #317 ), #341, .T. ) ;
#180 = COLOUR_RGB ( '',0.7921568627450980000, 0.8196078431372548800, 0.9333333333333333500 ) ;
#181 = DIRECTION ( 'NONE',  ( 0.0000000000000000000, 0.0000000000000000000, -1.000000000000000000 ) ) ;
#182 = EDGE_LOOP ( 'NONE', ( #273, #120, #86, #334 ) ) ;
#183 = VERTEX_POINT ( 'NONE', #209 ) ;
#184 = CARTESIAN_POINT ( 'NONE',  ( 0.0000000000000000000, 54.13355512369679400, -1.416000000000000100 ) ) ;
#185 = DIRECTION ( 'NONE',  ( 0.0000000000000000000, 0.0000000000000000000, -1.000000000000000000 ) ) ;
#186 = AXIS2_PLACEMENT_3D ( 'NONE', #118, #50, #26 ) ;
#187 = DIRECTION ( 'NONE',  ( 0.0000000000000000000, -0.9238795325112892900, -0.3826834323650836200 ) ) ;
#188 = CARTESIAN_POINT ( 'NONE',  ( 0.0000000000000000000, 27.62999999999999500, -2.729565258478300600 ) ) ;
#189 = ORIENTED_EDGE ( 'NONE', *, *, #282, .T. ) ;
#190 = DIRECTION ( 'NONE',  ( -1.000000000000000000, 0.0000000000000000000, 0.0000000000000000000 ) ) ;
#191 = EDGE_LOOP ( 'NONE', ( #132, #121 ) ) ;
#192 = EDGE_LOOP ( 'NONE', ( #155, #150 ) ) ;
#193 = EDGE_LOOP ( 'NONE', ( #133, #128 ) ) ;
#194 = CARTESIAN_POINT ( 'NONE',  ( 6.159973399711187500E-016, 28.19999999999999900, 5.030000000000001100 ) ) ;
#195 = STYLED_ITEM ( 'NONE', ( #285 ), #139 ) ;
#196 = DIRECTION ( 'NONE',  ( -0.0000000000000000000, -1.000000000000000000, -0.0000000000000000000 ) ) ;
#197 = PLANE ( 'NONE',  #217 ) ;
#198 = VECTOR ( 'NONE', #187, 1000.000000000000200 ) ;
#199 = UNCERTAINTY_MEASURE_WITH_UNIT (LENGTH_MEASURE( 1.000000000000000100E-005 ), #365, 'distance_accuracy_value', 'NONE');
#200 = AXIS2_PLACEMENT_3D ( 'NONE', #40, #172, #84 ) ;
#201 = ORIENTED_EDGE ( 'NONE', *, *, #351, .T. ) ;
#202 = DIRECTION ( 'NONE',  ( 0.0000000000000000000, 0.0000000000000000000, 1.000000000000000000 ) ) ;
#203 = AXIS2_PLACEMENT_3D ( 'NONE', #208, #90, #358 ) ;
#204 = CARTESIAN_POINT ( 'NONE',  ( 0.0000000000000000000, 54.13355512369679400, 0.0000000000000000000 ) ) ;
#205 = PRODUCT_DEFINITION_CONTEXT ( 'detailed design', #393, 'design' ) ;
#206 = ORIENTED_EDGE ( 'NONE', *, *, #244, .F. ) ;
#207 = EDGE_LOOP ( 'NONE', ( #164, #328, #87, #126 ) ) ;
#208 = CARTESIAN_POINT ( 'NONE',  ( 0.0000000000000000000, 0.0000000000000000000, 0.0000000000000000000 ) ) ;
#209 = CARTESIAN_POINT ( 'NONE',  ( 2.970993134731479500E-016, 2.426000000000000200, 2.426000000000000200 ) ) ;
#210 = CONICAL_SURFACE ( 'NONE', #45, 1.416000000000000100, 0.3926990816987174800 ) ;
#211 = EDGE_LOOP ( 'NONE', ( #220, #189, #206, #335, #281 ) ) ;
#212 = EDGE_LOOP ( 'NONE', ( #201, #96 ) ) ;
#213 = AXIS2_PLACEMENT_3D ( 'NONE', #275, #279, #258 ) ;
#214 = ORIENTED_EDGE ( 'NONE', *, *, #330, .T. ) ;
#215 = VERTEX_POINT ( 'NONE', #109 ) ;
#216 = DIRECTION ( 'NONE',  ( -0.0000000000000000000, -1.000000000000000000, -0.0000000000000000000 ) ) ;
#217 = AXIS2_PLACEMENT_3D ( 'NONE', #277, #122, #246 ) ;
#218 = ADVANCED_FACE ( 'NONE', ( #298 ), #348, .T. ) ;
#219 = ORIENTED_EDGE ( 'NONE', *, *, #278, .F. ) ;
#220 = ORIENTED_EDGE ( 'NONE', *, *, #229, .T. ) ;
#221 = AXIS2_PLACEMENT_3D ( 'NONE', #178, #196, #185 ) ;
#222 = EDGE_CURVE ( 'NONE', #226, #24, #321, .T. ) ;
#223 = DIRECTION ( 'NONE',  ( 4.686520405326222800E-017, -0.9238795325112892900, 0.3826834323650836200 ) ) ;
#224 = EDGE_LOOP ( 'NONE', ( #166, #149, #141, #134 ) ) ;
#225 = EDGE_LOOP ( 'NONE', ( #177, #214, #342, #271 ) ) ;
#226 = VERTEX_POINT ( 'NONE', #390 ) ;
#227 = DIRECTION ( 'NONE',  ( 0.0000000000000000000, 0.0000000000000000000, -1.000000000000000000 ) ) ;
#228 = DIRECTION ( 'NONE',  ( 0.0000000000000000000, 0.0000000000000000000, -1.000000000000000000 ) ) ;
#229 = EDGE_CURVE ( 'NONE', #24, #226, #322, .T. ) ;
#230 = LINE ( 'NONE', #236, #124 ) ;
#231 = CARTESIAN_POINT ( 'NONE',  ( 0.0000000000000000000, 0.0000000000000000000, -2.426000000000000200 ) ) ;
#232 = EDGE_LOOP ( 'NONE', ( #119, #302, #308, #165, #81 ) ) ;
#233 = VERTEX_POINT ( 'NONE', #4 ) ;
#234 = EDGE_LOOP ( 'NONE', ( #329, #108, #37, #284 ) ) ;
#235 = DIRECTION ( 'NONE',  ( -0.0000000000000000000, -1.000000000000000000, -0.0000000000000000000 ) ) ;
#236 = CARTESIAN_POINT ( 'NONE',  ( 1.734099867592652200E-016, 54.13355512369679400, 1.416000000000000100 ) ) ;
#237 = ORIENTED_EDGE ( 'NONE', *, *, #274, .F. ) ;
#238 = ORIENTED_EDGE ( 'NONE', *, *, #339, .T. ) ;
#239 = DIRECTION ( 'NONE',  ( -0.0000000000000000000, -1.000000000000000000, -0.0000000000000000000 ) ) ;
#240 = EDGE_CURVE ( 'NONE', #39, #140, #344, .T. ) ;
#241 = DIRECTION ( 'NONE',  ( 0.0000000000000000000, 1.000000000000000000, 0.0000000000000000000 ) ) ;
#242 = EDGE_LOOP ( 'NONE', ( #238, #65, #237, #219 ) ) ;
#243 = FACE_OUTER_BOUND ( 'NONE', #207, .T. ) ;
#244 = EDGE_CURVE ( 'NONE', #162, #183, #318, .T. ) ;
#245 = VERTEX_POINT ( 'NONE', #346 ) ;
#246 = DIRECTION ( 'NONE',  ( 0.0000000000000000000, 0.0000000000000000000, -1.000000000000000000 ) ) ;
#247 = EDGE_CURVE ( 'NONE', #233, #215, #347, .T. ) ;
#248 = FACE_OUTER_BOUND ( 'NONE', #212, .T. ) ;
#249 = SPHERICAL_SURFACE ( 'NONE', #200, 2.426000000000000200 ) ;
#250 = EDGE_CURVE ( 'NONE', #85, #162, #359, .T. ) ;
#251 = SPHERICAL_SURFACE ( 'NONE', #213, 2.426000000000000200 ) ;
#252 = DIRECTION ( 'NONE',  ( 0.0000000000000000000, 0.0000000000000000000, -1.000000000000000000 ) ) ;
#253 = FACE_OUTER_BOUND ( 'NONE', #182, .T. ) ;
#254 = CARTESIAN_POINT ( 'NONE',  ( 0.0000000000000000000, 54.13355512369679400, 0.0000000000000000000 ) ) ;
#255 = EDGE_CURVE ( 'NONE', #73, #25, #352, .T. ) ;
#256 = DIRECTION ( 'NONE',  ( -0.0000000000000000000, -1.000000000000000000, -0.0000000000000000000 ) ) ;
#257 = DIRECTION ( 'NONE',  ( 0.0000000000000000000, 0.0000000000000000000, -1.000000000000000000 ) ) ;
#258 = DIRECTION ( 'NONE',  ( -1.000000000000000000, 0.0000000000000000000, 0.0000000000000000000 ) ) ;
#259 = TOROIDAL_SURFACE ( 'NONE', #221, 2.729565258478300600, 2.370000000000003700 ) ;
#260 = DIRECTION ( 'NONE',  ( -0.0000000000000000000, -1.000000000000000000, -0.0000000000000000000 ) ) ;
#261 = VECTOR ( 'NONE', #235, 1000.000000000000000 ) ;
#262 = DIRECTION ( 'NONE',  ( -0.0000000000000000000, -1.000000000000000000, -0.0000000000000000000 ) ) ;
#263 = FACE_OUTER_BOUND ( 'NONE', #191, .T. ) ;
#264 = FACE_OUTER_BOUND ( 'NONE', #234, .T. ) ;
#265 = DIRECTION ( 'NONE',  ( 0.0000000000000000000, 0.0000000000000000000, -1.000000000000000000 ) ) ;
#266 = CYLINDRICAL_SURFACE ( 'NONE', #203, 1.416000000000000100 ) ;
#267 = EDGE_CURVE ( 'NONE', #215, #233, #353, .T. ) ;
#268 = CARTESIAN_POINT ( 'NONE',  ( 0.0000000000000000000, 28.19999999999999900, 0.0000000000000000000 ) ) ;
#269 = FACE_OUTER_BOUND ( 'NONE', #114, .T. ) ;
#270 = FACE_BOUND ( 'NONE', #193, .T. ) ;
#271 = ORIENTED_EDGE ( 'NONE', *, *, #303, .F. ) ;
#272 = ORIENTED_EDGE ( 'NONE', *, *, #250, .T. ) ;
#273 = ORIENTED_EDGE ( 'NONE', *, *, #327, .F. ) ;
#274 = EDGE_CURVE ( 'NONE', #245, #173, #2, .T. ) ;
#275 = CARTESIAN_POINT ( 'NONE',  ( 0.0000000000000000000, 2.426000000000000200, 0.0000000000000000000 ) ) ;
#276 = ORIENTED_EDGE ( 'NONE', *, *, #391, .T. ) ;
#277 = CARTESIAN_POINT ( 'NONE',  ( 2.426000000000000200, 28.19999999999999900, 0.0000000000000000000 ) ) ;
#278 = EDGE_CURVE ( 'NONE', #57, #245, #362, .T. ) ;
#279 = DIRECTION ( 'NONE',  ( -0.0000000000000000000, -0.0000000000000000000, -1.000000000000000000 ) ) ;
#280 = CARTESIAN_POINT ( 'NONE',  ( 3.342753356859268700E-016, 27.62999999999999500, 2.729565258478300600 ) ) ;
#281 = ORIENTED_EDGE ( 'NONE', *, *, #323, .F. ) ;
#282 = EDGE_CURVE ( 'NONE', #226, #183, #360, .T. ) ;
#283 = DIRECTION ( 'NONE',  ( 1.000000000000000000, 0.0000000000000000000, -1.224646799147353200E-016 ) ) ;
#284 = ORIENTED_EDGE ( 'NONE', *, *, #296, .F. ) ;
#285 = PRESENTATION_STYLE_ASSIGNMENT (( #103 ) ) ;
#286 = SURFACE_STYLE_FILL_AREA ( #97 ) ;
#287 = CARTESIAN_POINT ( 'NONE',  ( 2.426000000000000200, 2.426000000000000200, -2.970993134731479500E-016 ) ) ;
#288 = CARTESIAN_POINT ( 'NONE',  ( 0.0000000000000000000, 28.19999999999999900, -2.426000000000000200 ) ) ;
#289 = COLOUR_RGB ( '',0.7921568627450980000, 0.8196078431372548800, 0.9333333333333333500 ) ;
#290 = DIRECTION ( 'NONE',  ( -1.224646799147353200E-016, 0.0000000000000000000, -1.000000000000000000 ) ) ;
#291 = CARTESIAN_POINT ( 'NONE',  ( 0.0000000000000000000, 0.0000000000000000000, 0.0000000000000000000 ) ) ;
#292 = EDGE_CURVE ( 'NONE', #127, #57, #159, .T. ) ;
#293 = PRODUCT ( '01661-00631', '01661-00631', '', ( #388 ) ) ;
#294 = CARTESIAN_POINT ( 'NONE',  ( 0.0000000000000000000, 2.426000000000000200, 0.0000000000000000000 ) ) ;
#295 = CIRCLE ( 'NONE', #88, 2.370000000000003700 ) ;
#296 = EDGE_CURVE ( 'NONE', #73, #170, #295, .T. ) ;
#297 = DIRECTION ( 'NONE',  ( -1.224646799147353200E-016, 0.0000000000000000000, -1.000000000000000000 ) ) ;
#298 = FACE_OUTER_BOUND ( 'NONE', #211, .T. ) ;
#299 = DIRECTION ( 'NONE',  ( -0.0000000000000000000, -1.000000000000000000, -0.0000000000000000000 ) ) ;
#300 = CIRCLE ( 'NONE', #64, 2.370000000000003700 ) ;
#301 = CARTESIAN_POINT ( 'NONE',  ( 0.0000000000000000000, 30.00000000000000000, 0.0000000000000000000 ) ) ;
#302 = ORIENTED_EDGE ( 'NONE', *, *, #222, .T. ) ;
#303 = EDGE_CURVE ( 'NONE', #233, #57, #389, .T. ) ;
#304 = DIRECTION ( 'NONE',  ( -0.0000000000000000000, -1.000000000000000000, -0.0000000000000000000 ) ) ;
#305 = ADVANCED_BREP_SHAPE_REPRESENTATION ( '01661-00631', ( #139, #12 ), #31 ) ;
#306 = DIRECTION ( 'NONE',  ( 0.0000000000000000000, 0.0000000000000000000, -1.000000000000000000 ) ) ;
#307 = ORIENTED_EDGE ( 'NONE', *, *, #330, .F. ) ;
#308 = ORIENTED_EDGE ( 'NONE', *, *, #323, .T. ) ;
#309 = DIRECTION ( 'NONE',  ( 0.0000000000000000000, 0.0000000000000000000, -1.000000000000000000 ) ) ;
#310 = ADVANCED_FACE ( 'NONE', ( #364 ), #111, .T. ) ;
#311 = DIRECTION ( 'NONE',  ( -0.0000000000000000000, -1.000000000000000000, -0.0000000000000000000 ) ) ;
#312 = VECTOR ( 'NONE', #239, 1000.000000000000000 ) ;
#313 =( NAMED_UNIT ( * ) PLANE_ANGLE_UNIT ( ) SI_UNIT ( $, .RADIAN. ) );
#314 = CARTESIAN_POINT ( 'NONE',  ( 0.0000000000000000000, 2.426000000000000200, 0.0000000000000000000 ) ) ;
#315 =( NAMED_UNIT ( * ) SI_UNIT ( $, .STERADIAN. ) SOLID_ANGLE_UNIT ( ) );
#316 = FACE_OUTER_BOUND ( 'NONE', #175, .T. ) ;
#317 = FACE_OUTER_BOUND ( 'NONE', #242, .T. ) ;
#318 = CIRCLE ( 'NONE', #113, 2.426000000000000200 ) ;
#319 = DIRECTION ( 'NONE',  ( -0.0000000000000000000, -1.000000000000000000, -0.0000000000000000000 ) ) ;
#320 = CIRCLE ( 'NONE', #61, 2.426000000000000200 ) ;
#321 = CIRCLE ( 'NONE', #137, 2.426000000000000200 ) ;
#322 = CIRCLE ( 'NONE', #135, 2.426000000000000200 ) ;
#323 = EDGE_CURVE ( 'NONE', #24, #85, #67, .T. ) ;
#324 = CARTESIAN_POINT ( 'NONE',  ( 0.8499999999999999800, 55.49999999999999300, 0.0000000000000000000 ) ) ;
#325 = DIRECTION ( 'NONE',  ( 0.0000000000000000000, 0.0000000000000000000, -1.000000000000000000 ) ) ;
#326 = CIRCLE ( 'NONE', #146, 2.426000000000000200 ) ;
#327 = EDGE_CURVE ( 'NONE', #127, #173, #161, .T. ) ;
#328 = ORIENTED_EDGE ( 'NONE', *, *, #244, .T. ) ;
#329 = ORIENTED_EDGE ( 'NONE', *, *, #255, .T. ) ;
#330 = EDGE_CURVE ( 'NONE', #215, #127, #230, .T. ) ;
#331 = CARTESIAN_POINT ( 'NONE',  ( 0.0000000000000000000, 54.13355512369679400, 0.0000000000000000000 ) ) ;
#332 = CARTESIAN_POINT ( 'NONE',  ( 0.0000000000000000000, 30.00000000000000000, 0.0000000000000000000 ) ) ;
#333 = DIRECTION ( 'NONE',  ( -0.0000000000000000000, -1.000000000000000000, -0.0000000000000000000 ) ) ;
#334 = ORIENTED_EDGE ( 'NONE', *, *, #392, .F. ) ;
#335 = ORIENTED_EDGE ( 'NONE', *, *, #250, .F. ) ;
#336 = DIRECTION ( 'NONE',  ( 0.0000000000000000000, 0.0000000000000000000, -1.000000000000000000 ) ) ;
#337 = DIRECTION ( 'NONE',  ( 0.0000000000000000000, 0.0000000000000000000, -1.000000000000000000 ) ) ;
#338 = FACE_OUTER_BOUND ( 'NONE', #232, .T. ) ;
#339 = EDGE_CURVE ( 'NONE', #57, #127, #153, .T. ) ;
#340 = CIRCLE ( 'NONE', #156, 5.030000000000000200 ) ;
#341 = CYLINDRICAL_SURFACE ( 'NONE', #125, 1.416000000000000100 ) ;
#342 = ORIENTED_EDGE ( 'NONE', *, *, #339, .F. ) ;
#343 = CARTESIAN_POINT ( 'NONE',  ( 0.0000000000000000000, 28.19999999999999900, -5.030000000000001100 ) ) ;
#344 = CIRCLE ( 'NONE', #116, 2.426000000000000200 ) ;
#345 = CIRCLE ( 'NONE', #49, 1.415999999999999900 ) ;
#346 = CARTESIAN_POINT ( 'NONE',  ( 0.0000000000000000000, 30.00000000000000000, -1.415999999999999900 ) ) ;
#347 = CIRCLE ( 'NONE', #110, 0.8499999999999999800 ) ;
#348 = CYLINDRICAL_SURFACE ( 'NONE', #123, 2.426000000000000200 ) ;
#349 = DIRECTION ( 'NONE',  ( -1.000000000000000000, 0.0000000000000000000, 1.224646799147353500E-016 ) ) ;
#350 = CARTESIAN_POINT ( 'NONE',  ( 0.0000000000000000000, 27.62999999999999500, 0.0000000000000000000 ) ) ;
#351 = EDGE_CURVE ( 'NONE', #170, #143, #171, .T. ) ;
#352 = CIRCLE ( 'NONE', #101, 2.729565258478300600 ) ;
#353 = CIRCLE ( 'NONE', #98, 0.8499999999999999800 ) ;
#354 = CARTESIAN_POINT ( 'NONE',  ( -2.426000000000000200, 2.426000000000000200, 0.0000000000000000000 ) ) ;
#355 = CARTESIAN_POINT ( 'NONE',  ( 0.0000000000000000000, 0.0000000000000000000, 0.0000000000000000000 ) ) ;
#356 = FACE_OUTER_BOUND ( 'NONE', #224, .T. ) ;
#357 = CARTESIAN_POINT ( 'NONE',  ( 4.751363378285228300E-016, 30.00000000000000000, 2.729565258478300600 ) ) ;
#358 = DIRECTION ( 'NONE',  ( 0.0000000000000000000, 0.0000000000000000000, -1.000000000000000000 ) ) ;
#359 = CIRCLE ( 'NONE', #105, 2.426000000000000200 ) ;
#360 = LINE ( 'NONE', #27, #3 ) ;
#361 = DIRECTION ( 'NONE',  ( 0.0000000000000000000, 0.0000000000000000000, -1.000000000000000000 ) ) ;
#362 = LINE ( 'NONE', #138, #16 ) ;
#363 = DIRECTION ( 'NONE',  ( -0.0000000000000000000, 0.0000000000000000000, 1.000000000000000000 ) ) ;
#364 = FACE_OUTER_BOUND ( 'NONE', #225, .T. ) ;
#365 =( LENGTH_UNIT ( ) NAMED_UNIT ( * ) SI_UNIT ( .MILLI., .METRE. ) );
#366 =( NAMED_UNIT ( * ) PLANE_ANGLE_UNIT ( ) SI_UNIT ( $, .RADIAN. ) );
#367 =( NAMED_UNIT ( * ) SI_UNIT ( $, .STERADIAN. ) SOLID_ANGLE_UNIT ( ) );
#368 = EDGE_CURVE ( 'NONE', #25, #143, #300, .T. ) ;
#369 = ORIENTED_EDGE ( 'NONE', *, *, #378, .T. ) ;
#370 = APPLICATION_PROTOCOL_DEFINITION ( 'draft international standard', 'automotive_design', 1998, #371 ) ;
#371 = APPLICATION_CONTEXT ( 'automotive_design' ) ;
#372 = FILL_AREA_STYLE_COLOUR ( '', #180 ) ;
#373 = FILL_AREA_STYLE ('',( #372 ) ) ;
#374 = SURFACE_SIDE_STYLE ('',( #11 ) ) ;
#375 = DIRECTION ( 'NONE',  ( -0.0000000000000000000, -1.000000000000000000, -0.0000000000000000000 ) ) ;
#376 = SURFACE_STYLE_USAGE ( .BOTH. , #374 ) ;
#377 =( LENGTH_UNIT ( ) NAMED_UNIT ( * ) SI_UNIT ( .MILLI., .METRE. ) );
#378 = EDGE_CURVE ( 'NONE', #162, #140, #320, .T. ) ;
#379 = ADVANCED_FACE ( 'NONE', ( #338 ), #398, .T. ) ;
#380 =( NAMED_UNIT ( * ) PLANE_ANGLE_UNIT ( ) SI_UNIT ( $, .RADIAN. ) );
#381 = CARTESIAN_POINT ( 'NONE',  ( 0.0000000000000000000, 2.426000000000000200, 0.0000000000000000000 ) ) ;
#382 = CIRCLE ( 'NONE', #58, 2.729565258478300600 ) ;
#383 =( NAMED_UNIT ( * ) SI_UNIT ( $, .STERADIAN. ) SOLID_ANGLE_UNIT ( ) );
#384 = UNCERTAINTY_MEASURE_WITH_UNIT (LENGTH_MEASURE( 1.000000000000000100E-005 ), #377, 'distance_accuracy_value', 'NONE');
#385 = DIRECTION ( 'NONE',  ( 0.0000000000000000000, 0.0000000000000000000, 1.000000000000000000 ) ) ;
#386 = EDGE_CURVE ( 'NONE', #25, #73, #382, .T. ) ;
#387 = DIRECTION ( 'NONE',  ( 1.000000000000000000, 0.0000000000000000000, 0.0000000000000000000 ) ) ;
#388 = PRODUCT_CONTEXT ( 'NONE', #371, 'mechanical' ) ;
#389 = LINE ( 'NONE', #184, #198 ) ;
#390 = CARTESIAN_POINT ( 'NONE',  ( 2.970993134731479500E-016, 28.19999999999999900, 2.426000000000000200 ) ) ;
#391 = EDGE_CURVE ( 'NONE', #39, #85, #100, .T. ) ;
#392 = EDGE_CURVE ( 'NONE', #173, #245, #345, .T. ) ;
#393 = APPLICATION_CONTEXT ( 'automotive_design' ) ;
#394 = TOROIDAL_SURFACE ( 'NONE', #36, 2.729565258478300600, 2.370000000000003700 ) ;
#395 = ADVANCED_FACE ( 'NONE', ( #30 ), #210, .T. ) ;
#396 = APPLICATION_PROTOCOL_DEFINITION ( 'draft international standard', 'automotive_design', 1998, #393 ) ;
#397 = ADVANCED_FACE ( 'NONE', ( #356 ), #394, .T. ) ;
#398 = CYLINDRICAL_SURFACE ( 'NONE', #53, 2.426000000000000200 ) ;
ENDSEC;
END-ISO-10303-21;
