ISO-10303-21;
HEADER;
FILE_DESCRIPTION (( 'STEP AP214' ),
    '1' );
FILE_NAME ('01661-00621MING_04_80mm.STEP',
    '2016-04-28T09:05:29',
    ( '' ),
    ( '' ),
    'SwSTEP 2.0',
    'SolidWorks 2015',
    '' );
FILE_SCHEMA (( 'AUTOMOTIVE_DESIGN' ));
ENDSEC;

DATA;
#1 = DIRECTION ( 'NONE',  ( -1.000000000000000000, 0.0000000000000000000, 0.0000000000000000000 ) ) ;
#2 = VERTEX_POINT ( 'NONE', #70 ) ;
#3 = ORIENTED_EDGE ( 'NONE', *, *, #291, .F. ) ;
#4 = EDGE_CURVE ( 'NONE', #60, #164, #157, .T. ) ;
#5 = AXIS2_PLACEMENT_3D ( 'NONE', #120, #22, #180 ) ;
#6 = DIRECTION ( 'NONE',  ( -0.0000000000000000000, -1.000000000000000000, -0.0000000000000000000 ) ) ;
#7 = VERTEX_POINT ( 'NONE', #177 ) ;
#8 = VERTEX_POINT ( 'NONE', #103 ) ;
#9 = ADVANCED_FACE ( 'NONE', ( #175 ), #17, .T. ) ;
#10 = VERTEX_POINT ( 'NONE', #208 ) ;
#11 = AXIS2_PLACEMENT_3D ( 'NONE', #48, #283, #287 ) ;
#12 =( GEOMETRIC_REPRESENTATION_CONTEXT ( 3 ) GLOBAL_UNCERTAINTY_ASSIGNED_CONTEXT ( ( #217 ) ) GLOBAL_UNIT_ASSIGNED_CONTEXT ( ( #20, #149, #153 ) ) REPRESENTATION_CONTEXT ( 'NONE', 'WORKASPACE' ) );
#13 = ORIENTED_EDGE ( 'NONE', *, *, #257, .F. ) ;
#14 = DIRECTION ( 'NONE',  ( -0.0000000000000000000, -1.000000000000000000, -0.0000000000000000000 ) ) ;
#15 = MANIFOLD_SOLID_BREP ( 'Revolve1', #24 ) ;
#16 = ORIENTED_EDGE ( 'NONE', *, *, #92, .F. ) ;
#17 = TOROIDAL_SURFACE ( 'NONE', #35, 1.658947368421053600, 1.991052631578946300 ) ;
#18 = CARTESIAN_POINT ( 'NONE',  ( 0.0000000000000000000, 12.10000000000000000, 0.0000000000000000000 ) ) ;
#19 = DIRECTION ( 'NONE',  ( 0.0000000000000000000, 0.0000000000000000000, -1.000000000000000000 ) ) ;
#20 =( LENGTH_UNIT ( ) NAMED_UNIT ( * ) SI_UNIT ( .MILLI., .METRE. ) );
#21 = VERTEX_POINT ( 'NONE', #326 ) ;
#22 = DIRECTION ( 'NONE',  ( -1.000000000000000000, 0.0000000000000000000, 0.0000000000000000000 ) ) ;
#23 = DIRECTION ( 'NONE',  ( 0.0000000000000000000, 0.0000000000000000000, -1.000000000000000000 ) ) ;
#24 = CLOSED_SHELL ( 'NONE', ( #245, #191, #277, #225, #253, #188, #275, #9, #221, #250, #219, #256 ) ) ;
#25 = CIRCLE ( 'NONE', #30, 2.426000000000000200 ) ;
#26 = ORIENTED_EDGE ( 'NONE', *, *, #68, .F. ) ;
#27 = CARTESIAN_POINT ( 'NONE',  ( 0.0000000000000000000, 5.500000000000000000, 0.0000000000000000000 ) ) ;
#28 = EDGE_CURVE ( 'NONE', #41, #8, #285, .T. ) ;
#29 = ADVANCED_BREP_SHAPE_REPRESENTATION ( '01661-00621MING_04_80mm', ( #15, #75 ), #293 ) ;
#30 = AXIS2_PLACEMENT_3D ( 'NONE', #88, #80, #67 ) ;
#31 = DIRECTION ( 'NONE',  ( -0.0000000000000000000, -0.0000000000000000000, -1.000000000000000000 ) ) ;
#32 = ORIENTED_EDGE ( 'NONE', *, *, #271, .T. ) ;
#33 = ORIENTED_EDGE ( 'NONE', *, *, #47, .F. ) ;
#34 = CARTESIAN_POINT ( 'NONE',  ( 0.0000000000000000000, 0.8175336038535145900, 0.0000000000000000000 ) ) ;
#35 = AXIS2_PLACEMENT_3D ( 'NONE', #190, #349, #82 ) ;
#36 = SURFACE_STYLE_FILL_AREA ( #292 ) ;
#37 = AXIS2_PLACEMENT_3D ( 'NONE', #165, #235, #269 ) ;
#38 = ORIENTED_EDGE ( 'NONE', *, *, #271, .F. ) ;
#39 = ORIENTED_EDGE ( 'NONE', *, *, #365, .F. ) ;
#40 = ORIENTED_EDGE ( 'NONE', *, *, #28, .T. ) ;
#41 = VERTEX_POINT ( 'NONE', #139 ) ;
#42 = VERTEX_POINT ( 'NONE', #362 ) ;
#43 = ORIENTED_EDGE ( 'NONE', *, *, #306, .F. ) ;
#44 = VERTEX_POINT ( 'NONE', #105 ) ;
#45 = ORIENTED_EDGE ( 'NONE', *, *, #28, .F. ) ;
#46 = ORIENTED_EDGE ( 'NONE', *, *, #73, .F. ) ;
#47 = EDGE_CURVE ( 'NONE', #60, #85, #341, .T. ) ;
#48 = CARTESIAN_POINT ( 'NONE',  ( 0.0000000000000000000, 10.30000000000000100, 0.0000000000000000000 ) ) ;
#49 = ORIENTED_EDGE ( 'NONE', *, *, #323, .F. ) ;
#50 = AXIS2_PLACEMENT_3D ( 'NONE', #27, #142, #23 ) ;
#51 = ORIENTED_EDGE ( 'NONE', *, *, #68, .T. ) ;
#52 = CIRCLE ( 'NONE', #5, 1.991052631578946300 ) ;
#53 = CIRCLE ( 'NONE', #272, 1.991052631578946300 ) ;
#54 = EDGE_CURVE ( 'NONE', #69, #343, #264, .T. ) ;
#55 = CARTESIAN_POINT ( 'NONE',  ( 0.0000000000000000000, 2.426000000000000200, 0.0000000000000000000 ) ) ;
#56 = ORIENTED_EDGE ( 'NONE', *, *, #237, .F. ) ;
#57 = AXIS2_PLACEMENT_3D ( 'NONE', #352, #239, #278 ) ;
#58 = UNCERTAINTY_MEASURE_WITH_UNIT (LENGTH_MEASURE( 1.000000000000000100E-005 ), #321, 'distance_accuracy_value', 'NONE');
#59 = APPLICATION_CONTEXT ( 'automotive_design' ) ;
#60 = VERTEX_POINT ( 'NONE', #353 ) ;
#61 = ORIENTED_EDGE ( 'NONE', *, *, #4, .F. ) ;
#62 = EDGE_LOOP ( 'NONE', ( #261, #244, #3, #282, #39 ) ) ;
#63 = ORIENTED_EDGE ( 'NONE', *, *, #87, .T. ) ;
#64 = ORIENTED_EDGE ( 'NONE', *, *, #73, .T. ) ;
#65 = CARTESIAN_POINT ( 'NONE',  ( 0.0000000000000000000, 0.8175336038535145900, 0.0000000000000000000 ) ) ;
#66 = DIRECTION ( 'NONE',  ( 0.0000000000000000000, 0.0000000000000000000, 1.000000000000000000 ) ) ;
#67 = DIRECTION ( 'NONE',  ( -1.000000000000000000, 0.0000000000000000000, 1.224646799147353500E-016 ) ) ;
#68 = EDGE_CURVE ( 'NONE', #86, #42, #179, .T. ) ;
#69 = VERTEX_POINT ( 'NONE', #338 ) ;
#70 = CARTESIAN_POINT ( 'NONE',  ( 3.315490242988051200E-016, 0.8175336038535145900, 1.816125505703705100 ) ) ;
#71 = COLOUR_RGB ( '',0.7921568627450980000, 0.8196078431372548800, 0.9333333333333333500 ) ;
#72 = ORIENTED_EDGE ( 'NONE', *, *, #4, .T. ) ;
#73 = EDGE_CURVE ( 'NONE', #164, #21, #172, .T. ) ;
#74 = CARTESIAN_POINT ( 'NONE',  ( 1.816125505703705100, 0.8175336038535145900, -2.224112287409909900E-016 ) ) ;
#75 = AXIS2_PLACEMENT_3D ( 'NONE', #242, #274, #121 ) ;
#76 = AXIS2_PLACEMENT_3D ( 'NONE', #216, #218, #223 ) ;
#77 = DIRECTION ( 'NONE',  ( -0.0000000000000000000, -1.000000000000000000, -0.0000000000000000000 ) ) ;
#78 = CIRCLE ( 'NONE', #37, 2.426000000000000200 ) ;
#79 = DIRECTION ( 'NONE',  ( 0.0000000000000000000, 0.0000000000000000000, -1.000000000000000000 ) ) ;
#80 = DIRECTION ( 'NONE',  ( -1.224646799147353200E-016, 0.0000000000000000000, -1.000000000000000000 ) ) ;
#81 = DIRECTION ( 'NONE',  ( 0.0000000000000000000, 0.0000000000000000000, -1.000000000000000000 ) ) ;
#82 = DIRECTION ( 'NONE',  ( 0.0000000000000000000, 0.0000000000000000000, -1.000000000000000000 ) ) ;
#83 = DIRECTION ( 'NONE',  ( 0.0000000000000000000, 0.0000000000000000000, -1.000000000000000000 ) ) ;
#84 = ORIENTED_EDGE ( 'NONE', *, *, #351, .T. ) ;
#85 = VERTEX_POINT ( 'NONE', #276 ) ;
#86 = VERTEX_POINT ( 'NONE', #112 ) ;
#87 = EDGE_CURVE ( 'NONE', #44, #7, #78, .T. ) ;
#88 = CARTESIAN_POINT ( 'NONE',  ( 0.0000000000000000000, 2.426000000000000200, 0.0000000000000000000 ) ) ;
#89 = DIRECTION ( 'NONE',  ( 0.0000000000000000000, -1.000000000000000000, -0.0000000000000000000 ) ) ;
#90 = ORIENTED_EDGE ( 'NONE', *, *, #152, .T. ) ;
#91 = DIRECTION ( 'NONE',  ( 0.0000000000000000000, 1.000000000000000000, 0.0000000000000000000 ) ) ;
#92 = EDGE_CURVE ( 'NONE', #8, #86, #176, .T. ) ;
#93 = CARTESIAN_POINT ( 'NONE',  ( 0.0000000000000000000, 0.0000000000000000000, 0.0000000000000000000 ) ) ;
#94 = PRODUCT_DEFINITION ( 'UNKNOWN', '', #116, #200 ) ;
#95 = AXIS2_PLACEMENT_3D ( 'NONE', #228, #210, #114 ) ;
#96 = ORIENTED_EDGE ( 'NONE', *, *, #306, .T. ) ;
#97 = CARTESIAN_POINT ( 'NONE',  ( 0.0000000000000000000, 9.646326388888887500, 0.0000000000000000000 ) ) ;
#98 = ORIENTED_EDGE ( 'NONE', *, *, #237, .T. ) ;
#99 = FACE_OUTER_BOUND ( 'NONE', #62, .T. ) ;
#100 = FACE_OUTER_BOUND ( 'NONE', #288, .T. ) ;
#101 = FACE_OUTER_BOUND ( 'NONE', #202, .T. ) ;
#102 = CYLINDRICAL_SURFACE ( 'NONE', #167, 2.515000000000000100 ) ;
#103 = CARTESIAN_POINT ( 'NONE',  ( 4.711828559719440600E-016, 12.10000000000000000, 2.665000000000000000 ) ) ;
#104 = TOROIDAL_SURFACE ( 'NONE', #118, 2.665000000000000000, 2.453673611111111300 ) ;
#105 = CARTESIAN_POINT ( 'NONE',  ( -1.816125505703705100, 0.8175336038535145900, 0.0000000000000000000 ) ) ;
#106 = FACE_OUTER_BOUND ( 'NONE', #312, .T. ) ;
#107 = TOROIDAL_SURFACE ( 'NONE', #158, 1.658947368421053600, 1.991052631578946300 ) ;
#108 = DIRECTION ( 'NONE',  ( 0.0000000000000000000, -0.0000000000000000000, 1.000000000000000000 ) ) ;
#109 = DIRECTION ( 'NONE',  ( 0.0000000000000000000, 0.0000000000000000000, -1.000000000000000000 ) ) ;
#110 = FACE_OUTER_BOUND ( 'NONE', #364, .T. ) ;
#111 = CYLINDRICAL_SURFACE ( 'NONE', #207, 2.515000000000000100 ) ;
#112 = CARTESIAN_POINT ( 'NONE',  ( 6.159973399711187500E-016, 10.30000000000000100, 5.029999999999999400 ) ) ;
#113 = CIRCLE ( 'NONE', #186, 2.515000000000000100 ) ;
#114 = DIRECTION ( 'NONE',  ( 0.0000000000000000000, 0.0000000000000000000, -1.000000000000000000 ) ) ;
#115 = FACE_OUTER_BOUND ( 'NONE', #335, .T. ) ;
#116 = PRODUCT_DEFINITION_FORMATION_WITH_SPECIFIED_SOURCE ( 'ANY', '', #193, .NOT_KNOWN. ) ;
#117 = TOROIDAL_SURFACE ( 'NONE', #247, 2.665000000000000000, 2.453673611111111300 ) ;
#118 = AXIS2_PLACEMENT_3D ( 'NONE', #97, #317, #178 ) ;
#119 = CIRCLE ( 'NONE', #229, 1.816125505703705100 ) ;
#120 = CARTESIAN_POINT ( 'NONE',  ( 0.0000000000000000000, 3.702372543132418100, -1.658947368421053600 ) ) ;
#121 = DIRECTION ( 'NONE',  ( 1.000000000000000000, 0.0000000000000000000, 0.0000000000000000000 ) ) ;
#122 = CARTESIAN_POINT ( 'NONE',  ( 0.0000000000000000000, 0.8175336038535145900, 0.0000000000000000000 ) ) ;
#123 = DIRECTION ( 'NONE',  ( 0.0000000000000000000, 0.0000000000000000000, 1.000000000000000000 ) ) ;
#124 = ORIENTED_EDGE ( 'NONE', *, *, #284, .F. ) ;
#125 = SHAPE_DEFINITION_REPRESENTATION ( #295, #29 ) ;
#126 = FACE_BOUND ( 'NONE', #347, .T. ) ;
#127 = DIRECTION ( 'NONE',  ( -0.0000000000000000000, -1.000000000000000000, -0.0000000000000000000 ) ) ;
#128 = DIRECTION ( 'NONE',  ( 0.0000000000000000000, 0.0000000000000000000, -1.000000000000000000 ) ) ;
#129 = EDGE_CURVE ( 'NONE', #10, #331, #371, .T. ) ;
#130 = FACE_OUTER_BOUND ( 'NONE', #337, .T. ) ;
#131 = SPHERICAL_SURFACE ( 'NONE', #160, 2.426000000000000200 ) ;
#132 = CARTESIAN_POINT ( 'NONE',  ( 0.0000000000000000000, 9.646326388888887500, -2.665000000000000000 ) ) ;
#133 = CARTESIAN_POINT ( 'NONE',  ( 3.079986699855593800E-016, 0.0000000000000000000, 2.515000000000000100 ) ) ;
#134 = CARTESIAN_POINT ( 'NONE',  ( 0.0000000000000000000, 5.500000000000000000, 0.0000000000000000000 ) ) ;
#135 = FACE_OUTER_BOUND ( 'NONE', #236, .T. ) ;
#136 = CIRCLE ( 'NONE', #209, 3.598480967438468800 ) ;
#137 = DIRECTION ( 'NONE',  ( 0.0000000000000000000, 0.0000000000000000000, -1.000000000000000000 ) ) ;
#138 = CIRCLE ( 'NONE', #169, 1.991052631578946300 ) ;
#139 = CARTESIAN_POINT ( 'NONE',  ( 0.0000000000000000000, 12.10000000000000000, -2.665000000000000000 ) ) ;
#140 = PRODUCT_RELATED_PRODUCT_CATEGORY ( 'part', '', ( #193 ) ) ;
#141 = AXIS2_PLACEMENT_3D ( 'NONE', #224, #31, #1 ) ;
#142 = DIRECTION ( 'NONE',  ( -0.0000000000000000000, -1.000000000000000000, -0.0000000000000000000 ) ) ;
#143 = CIRCLE ( 'NONE', #251, 1.991052631578946300 ) ;
#144 = FACE_OUTER_BOUND ( 'NONE', #265, .T. ) ;
#145 = TOROIDAL_SURFACE ( 'NONE', #268, 1.658947368421053600, 1.991052631578946300 ) ;
#146 = TOROIDAL_SURFACE ( 'NONE', #286, 1.658947368421053600, 1.991052631578946300 ) ;
#147 = CIRCLE ( 'NONE', #324, 2.453673611111111300 ) ;
#148 = CARTESIAN_POINT ( 'NONE',  ( 0.0000000000000000000, 10.30000000000000100, -2.515000000000000100 ) ) ;
#149 =( NAMED_UNIT ( * ) PLANE_ANGLE_UNIT ( ) SI_UNIT ( $, .RADIAN. ) );
#150 = CIRCLE ( 'NONE', #307, 1.816125505703705100 ) ;
#151 = FACE_OUTER_BOUND ( 'NONE', #314, .T. ) ;
#152 = EDGE_CURVE ( 'NONE', #42, #86, #174, .T. ) ;
#153 =( NAMED_UNIT ( * ) SI_UNIT ( $, .STERADIAN. ) SOLID_ANGLE_UNIT ( ) );
#154 = PRODUCT_CONTEXT ( 'NONE', #308, 'mechanical' ) ;
#155 = CIRCLE ( 'NONE', #360, 1.816125505703705100 ) ;
#156 = CIRCLE ( 'NONE', #345, 2.515000000000000100 ) ;
#157 = CIRCLE ( 'NONE', #11, 2.515000000000000100 ) ;
#158 = AXIS2_PLACEMENT_3D ( 'NONE', #161, #354, #315 ) ;
#159 = CIRCLE ( 'NONE', #50, 2.515000000000000100 ) ;
#160 = AXIS2_PLACEMENT_3D ( 'NONE', #55, #359, #346 ) ;
#161 = CARTESIAN_POINT ( 'NONE',  ( 0.0000000000000000000, 2.802372543132418200, 0.0000000000000000000 ) ) ;
#162 = DIRECTION ( 'NONE',  ( -0.0000000000000000000, -1.000000000000000000, -0.0000000000000000000 ) ) ;
#163 = ORIENTED_EDGE ( 'NONE', *, *, #257, .T. ) ;
#164 = VERTEX_POINT ( 'NONE', #148 ) ;
#165 = CARTESIAN_POINT ( 'NONE',  ( 0.0000000000000000000, 2.426000000000000200, 0.0000000000000000000 ) ) ;
#166 = ORIENTED_EDGE ( 'NONE', *, *, #87, .F. ) ;
#167 = AXIS2_PLACEMENT_3D ( 'NONE', #93, #185, #19 ) ;
#168 = VECTOR ( 'NONE', #270, 1000.000000000000000 ) ;
#169 = AXIS2_PLACEMENT_3D ( 'NONE', #249, #222, #192 ) ;
#170 = DIRECTION ( 'NONE',  ( -0.0000000000000000000, -1.000000000000000000, -0.0000000000000000000 ) ) ;
#171 = DIRECTION ( 'NONE',  ( -0.0000000000000000000, -1.000000000000000000, -0.0000000000000000000 ) ) ;
#172 = LINE ( 'NONE', #266, #168 ) ;
#173 = ORIENTED_EDGE ( 'NONE', *, *, #329, .F. ) ;
#174 = CIRCLE ( 'NONE', #95, 5.029999999999999400 ) ;
#175 = FACE_OUTER_BOUND ( 'NONE', #297, .T. ) ;
#176 = CIRCLE ( 'NONE', #57, 2.453673611111111300 ) ;
#177 = CARTESIAN_POINT ( 'NONE',  ( -1.485496567365739700E-016, 0.0000000000000000000, 0.0000000000000000000 ) ) ;
#178 = DIRECTION ( 'NONE',  ( 0.0000000000000000000, 0.0000000000000000000, -1.000000000000000000 ) ) ;
#179 = CIRCLE ( 'NONE', #206, 5.029999999999999400 ) ;
#180 = DIRECTION ( 'NONE',  ( 0.0000000000000000000, 0.0000000000000000000, 1.000000000000000000 ) ) ;
#181 = DIRECTION ( 'NONE',  ( 0.0000000000000000000, 0.0000000000000000000, -1.000000000000000000 ) ) ;
#182 = SPHERICAL_SURFACE ( 'NONE', #141, 2.426000000000000200 ) ;
#183 = ORIENTED_EDGE ( 'NONE', *, *, #54, .T. ) ;
#184 = FACE_OUTER_BOUND ( 'NONE', #318, .T. ) ;
#185 = DIRECTION ( 'NONE',  ( -0.0000000000000000000, -1.000000000000000000, -0.0000000000000000000 ) ) ;
#186 = AXIS2_PLACEMENT_3D ( 'NONE', #240, #358, #109 ) ;
#187 = AXIS2_PLACEMENT_3D ( 'NONE', #201, #91, #108 ) ;
#188 = ADVANCED_FACE ( 'NONE', ( #100 ), #182, .T. ) ;
#189 = DIRECTION ( 'NONE',  ( 0.0000000000000000000, 0.0000000000000000000, -1.000000000000000000 ) ) ;
#190 = CARTESIAN_POINT ( 'NONE',  ( 0.0000000000000000000, 3.702372543132418100, 0.0000000000000000000 ) ) ;
#191 = ADVANCED_FACE ( 'NONE', ( #106 ), #102, .T. ) ;
#192 = DIRECTION ( 'NONE',  ( -1.224646799147353200E-016, 0.0000000000000000000, -1.000000000000000000 ) ) ;
#193 = PRODUCT ( '01661-00621MING_04_80mm', '01661-00621MING_04_80mm', '', ( #154 ) ) ;
#194 = CIRCLE ( 'NONE', #233, 2.665000000000000000 ) ;
#195 = CARTESIAN_POINT ( 'NONE',  ( 0.0000000000000000000, 3.702372543132418100, 0.0000000000000000000 ) ) ;
#196 = ORIENTED_EDGE ( 'NONE', *, *, #351, .F. ) ;
#197 = DIRECTION ( 'NONE',  ( 0.0000000000000000000, 0.0000000000000000000, -1.000000000000000000 ) ) ;
#198 = COLOUR_RGB ( '',0.7921568627450980000, 0.8196078431372548800, 0.9333333333333333500 ) ;
#199 =( NAMED_UNIT ( * ) SI_UNIT ( $, .STERADIAN. ) SOLID_ANGLE_UNIT ( ) );
#200 = PRODUCT_DEFINITION_CONTEXT ( 'detailed design', #59, 'design' ) ;
#201 = CARTESIAN_POINT ( 'NONE',  ( 2.665000000000000000, 12.10000000000000000, 0.0000000000000000000 ) ) ;
#202 = EDGE_LOOP ( 'NONE', ( #16, #32, #96, #26 ) ) ;
#203 = ORIENTED_EDGE ( 'NONE', *, *, #267, .T. ) ;
#204 = SURFACE_STYLE_FILL_AREA ( #304 ) ;
#205 = PRESENTATION_STYLE_ASSIGNMENT (( #238 ) ) ;
#206 = AXIS2_PLACEMENT_3D ( 'NONE', #211, #162, #81 ) ;
#207 = AXIS2_PLACEMENT_3D ( 'NONE', #325, #259, #327 ) ;
#208 = CARTESIAN_POINT ( 'NONE',  ( 0.0000000000000000000, 3.252372543132418400, -3.598480967438468800 ) ) ;
#209 = AXIS2_PLACEMENT_3D ( 'NONE', #372, #246, #254 ) ;
#210 = DIRECTION ( 'NONE',  ( -0.0000000000000000000, -1.000000000000000000, -0.0000000000000000000 ) ) ;
#211 = CARTESIAN_POINT ( 'NONE',  ( 0.0000000000000000000, 10.30000000000000100, 0.0000000000000000000 ) ) ;
#212 = CARTESIAN_POINT ( 'NONE',  ( 0.0000000000000000000, 0.8175336038535145900, 0.0000000000000000000 ) ) ;
#213 = ORIENTED_EDGE ( 'NONE', *, *, #248, .F. ) ;
#214 = STYLED_ITEM ( 'NONE', ( #322 ), #15 ) ;
#215 = ORIENTED_EDGE ( 'NONE', *, *, #152, .F. ) ;
#216 = CARTESIAN_POINT ( 'NONE',  ( 0.0000000000000000000, 3.252372543132418400, 0.0000000000000000000 ) ) ;
#217 = UNCERTAINTY_MEASURE_WITH_UNIT (LENGTH_MEASURE( 1.000000000000000100E-005 ), #20, 'distance_accuracy_value', 'NONE');
#218 = DIRECTION ( 'NONE',  ( -0.0000000000000000000, -1.000000000000000000, -0.0000000000000000000 ) ) ;
#219 = ADVANCED_FACE ( 'NONE', ( #101 ), #104, .T. ) ;
#220 = ORIENTED_EDGE ( 'NONE', *, *, #365, .T. ) ;
#221 = ADVANCED_FACE ( 'NONE', ( #184 ), #111, .T. ) ;
#222 = DIRECTION ( 'NONE',  ( 1.000000000000000000, 0.0000000000000000000, -1.224646799147353200E-016 ) ) ;
#223 = DIRECTION ( 'NONE',  ( 0.0000000000000000000, 0.0000000000000000000, -1.000000000000000000 ) ) ;
#224 = CARTESIAN_POINT ( 'NONE',  ( 0.0000000000000000000, 2.426000000000000200, 0.0000000000000000000 ) ) ;
#225 = ADVANCED_FACE ( 'NONE', ( #99 ), #107, .T. ) ;
#226 = CARTESIAN_POINT ( 'NONE',  ( 2.031624584690768300E-016, 2.802372543132418200, 1.658947368421053600 ) ) ;
#227 = SURFACE_SIDE_STYLE ('',( #36 ) ) ;
#228 = CARTESIAN_POINT ( 'NONE',  ( 0.0000000000000000000, 10.30000000000000100, 0.0000000000000000000 ) ) ;
#229 = AXIS2_PLACEMENT_3D ( 'NONE', #34, #14, #340 ) ;
#230 = CARTESIAN_POINT ( 'NONE',  ( 0.0000000000000000000, 2.802372543132418200, -1.658947368421053600 ) ) ;
#231 = ORIENTED_EDGE ( 'NONE', *, *, #348, .T. ) ;
#232 = ORIENTED_EDGE ( 'NONE', *, *, #92, .T. ) ;
#233 = AXIS2_PLACEMENT_3D ( 'NONE', #334, #255, #137 ) ;
#234 = DIRECTION ( 'NONE',  ( 0.0000000000000000000, 0.0000000000000000000, -1.000000000000000000 ) ) ;
#235 = DIRECTION ( 'NONE',  ( -0.0000000000000000000, 0.0000000000000000000, 1.000000000000000000 ) ) ;
#236 = EDGE_LOOP ( 'NONE', ( #45, #38 ) ) ;
#237 = EDGE_CURVE ( 'NONE', #164, #60, #113, .T. ) ;
#238 = SURFACE_STYLE_USAGE ( .BOTH. , #263 ) ;
#239 = DIRECTION ( 'NONE',  ( 1.000000000000000000, 0.0000000000000000000, -1.224646799147353200E-016 ) ) ;
#240 = CARTESIAN_POINT ( 'NONE',  ( 0.0000000000000000000, 10.30000000000000100, 0.0000000000000000000 ) ) ;
#241 = DIRECTION ( 'NONE',  ( 0.0000000000000000000, 0.0000000000000000000, -1.000000000000000000 ) ) ;
#242 = CARTESIAN_POINT ( 'NONE',  ( 0.0000000000000000000, 0.0000000000000000000, 0.0000000000000000000 ) ) ;
#243 =( GEOMETRIC_REPRESENTATION_CONTEXT ( 3 ) GLOBAL_UNCERTAINTY_ASSIGNED_CONTEXT ( ( #258 ) ) GLOBAL_UNIT_ASSIGNED_CONTEXT ( ( #339, #366, #199 ) ) REPRESENTATION_CONTEXT ( 'NONE', 'WORKASPACE' ) );
#244 = ORIENTED_EDGE ( 'NONE', *, *, #284, .T. ) ;
#245 = ADVANCED_FACE ( 'NONE', ( #115 ), #117, .T. ) ;
#246 = DIRECTION ( 'NONE',  ( -0.0000000000000000000, -1.000000000000000000, -0.0000000000000000000 ) ) ;
#247 = AXIS2_PLACEMENT_3D ( 'NONE', #309, #170, #83 ) ;
#248 = EDGE_CURVE ( 'NONE', #2, #44, #119, .T. ) ;
#249 = CARTESIAN_POINT ( 'NONE',  ( 2.031624584690768300E-016, 3.702372543132418100, 1.658947368421053600 ) ) ;
#250 = ADVANCED_FACE ( 'NONE', ( #110, #126 ), #262, .T. ) ;
#251 = AXIS2_PLACEMENT_3D ( 'NONE', #226, #313, #319 ) ;
#252 = FILL_AREA_STYLE_COLOUR ( '', #71 ) ;
#253 = ADVANCED_FACE ( 'NONE', ( #130 ), #131, .T. ) ;
#254 = DIRECTION ( 'NONE',  ( 0.0000000000000000000, 0.0000000000000000000, -1.000000000000000000 ) ) ;
#255 = DIRECTION ( 'NONE',  ( -0.0000000000000000000, -1.000000000000000000, -0.0000000000000000000 ) ) ;
#256 = ADVANCED_FACE ( 'NONE', ( #135 ), #332, .T. ) ;
#257 = EDGE_CURVE ( 'NONE', #85, #331, #138, .T. ) ;
#258 = UNCERTAINTY_MEASURE_WITH_UNIT (LENGTH_MEASURE( 1.000000000000000100E-005 ), #339, 'distance_accuracy_value', 'NONE');
#259 = DIRECTION ( 'NONE',  ( -0.0000000000000000000, -1.000000000000000000, -0.0000000000000000000 ) ) ;
#260 = ORIENTED_EDGE ( 'NONE', *, *, #291, .T. ) ;
#261 = ORIENTED_EDGE ( 'NONE', *, *, #129, .T. ) ;
#262 = PLANE ( 'NONE',  #305 ) ;
#263 = SURFACE_SIDE_STYLE ('',( #204 ) ) ;
#264 = CIRCLE ( 'NONE', #281, 1.816125505703705100 ) ;
#265 = EDGE_LOOP ( 'NONE', ( #124, #203, #220, #173, #213 ) ) ;
#266 = CARTESIAN_POINT ( 'NONE',  ( 0.0000000000000000000, 0.0000000000000000000, -2.515000000000000100 ) ) ;
#267 = EDGE_CURVE ( 'NONE', #331, #10, #136, .T. ) ;
#268 = AXIS2_PLACEMENT_3D ( 'NONE', #299, #279, #128 ) ;
#269 = DIRECTION ( 'NONE',  ( 1.000000000000000000, 0.0000000000000000000, 0.0000000000000000000 ) ) ;
#270 = DIRECTION ( 'NONE',  ( -0.0000000000000000000, -1.000000000000000000, -0.0000000000000000000 ) ) ;
#271 = EDGE_CURVE ( 'NONE', #8, #41, #194, .T. ) ;
#272 = AXIS2_PLACEMENT_3D ( 'NONE', #230, #357, #66 ) ;
#273 = ORIENTED_EDGE ( 'NONE', *, *, #344, .F. ) ;
#274 = DIRECTION ( 'NONE',  ( 0.0000000000000000000, 0.0000000000000000000, 1.000000000000000000 ) ) ;
#275 = ADVANCED_FACE ( 'NONE', ( #144 ), #145, .T. ) ;
#276 = CARTESIAN_POINT ( 'NONE',  ( 3.743427449210892900E-016, 5.500000000000000000, 2.515000000000000100 ) ) ;
#277 = ADVANCED_FACE ( 'NONE', ( #151 ), #146, .T. ) ;
#278 = DIRECTION ( 'NONE',  ( -1.224646799147353500E-016, 0.0000000000000000000, -1.000000000000000000 ) ) ;
#279 = DIRECTION ( 'NONE',  ( -0.0000000000000000000, -1.000000000000000000, -0.0000000000000000000 ) ) ;
#280 = APPLICATION_PROTOCOL_DEFINITION ( 'draft international standard', 'automotive_design', 1998, #308 ) ;
#281 = AXIS2_PLACEMENT_3D ( 'NONE', #122, #369, #241 ) ;
#282 = ORIENTED_EDGE ( 'NONE', *, *, #54, .F. ) ;
#283 = DIRECTION ( 'NONE',  ( -0.0000000000000000000, -1.000000000000000000, -0.0000000000000000000 ) ) ;
#284 = EDGE_CURVE ( 'NONE', #331, #2, #143, .T. ) ;
#285 = CIRCLE ( 'NONE', #302, 2.665000000000000000 ) ;
#286 = AXIS2_PLACEMENT_3D ( 'NONE', #195, #303, #234 ) ;
#287 = DIRECTION ( 'NONE',  ( 0.0000000000000000000, 0.0000000000000000000, -1.000000000000000000 ) ) ;
#288 = EDGE_LOOP ( 'NONE', ( #330, #260, #300, #63 ) ) ;
#289 =( NAMED_UNIT ( * ) PLANE_ANGLE_UNIT ( ) SI_UNIT ( $, .RADIAN. ) );
#290 = DIRECTION ( 'NONE',  ( 0.0000000000000000000, 0.0000000000000000000, -1.000000000000000000 ) ) ;
#291 = EDGE_CURVE ( 'NONE', #343, #2, #150, .T. ) ;
#292 = FILL_AREA_STYLE ('',( #252 ) ) ;
#293 =( GEOMETRIC_REPRESENTATION_CONTEXT ( 3 ) GLOBAL_UNCERTAINTY_ASSIGNED_CONTEXT ( ( #58 ) ) GLOBAL_UNIT_ASSIGNED_CONTEXT ( ( #321, #289, #333 ) ) REPRESENTATION_CONTEXT ( 'NONE', 'WORKASPACE' ) );
#294 = APPLICATION_PROTOCOL_DEFINITION ( 'draft international standard', 'automotive_design', 1998, #59 ) ;
#295 = PRODUCT_DEFINITION_SHAPE ( 'NONE', 'NONE',  #94 ) ;
#296 = DIRECTION ( 'NONE',  ( -1.000000000000000000, 0.0000000000000000000, 0.0000000000000000000 ) ) ;
#297 = EDGE_LOOP ( 'NONE', ( #13, #342, #298, #301 ) ) ;
#298 = ORIENTED_EDGE ( 'NONE', *, *, #344, .T. ) ;
#299 = CARTESIAN_POINT ( 'NONE',  ( 0.0000000000000000000, 2.802372543132418200, 0.0000000000000000000 ) ) ;
#300 = ORIENTED_EDGE ( 'NONE', *, *, #248, .T. ) ;
#301 = ORIENTED_EDGE ( 'NONE', *, *, #267, .F. ) ;
#302 = AXIS2_PLACEMENT_3D ( 'NONE', #18, #77, #197 ) ;
#303 = DIRECTION ( 'NONE',  ( -0.0000000000000000000, -1.000000000000000000, -0.0000000000000000000 ) ) ;
#304 = FILL_AREA_STYLE ('',( #361 ) ) ;
#305 = AXIS2_PLACEMENT_3D ( 'NONE', #336, #89, #79 ) ;
#306 = EDGE_CURVE ( 'NONE', #41, #42, #147, .T. ) ;
#307 = AXIS2_PLACEMENT_3D ( 'NONE', #65, #6, #290 ) ;
#308 = APPLICATION_CONTEXT ( 'automotive_design' ) ;
#309 = CARTESIAN_POINT ( 'NONE',  ( 0.0000000000000000000, 9.646326388888887500, 0.0000000000000000000 ) ) ;
#310 = SURFACE_STYLE_USAGE ( .BOTH. , #227 ) ;
#311 = ORIENTED_EDGE ( 'NONE', *, *, #329, .T. ) ;
#312 = EDGE_LOOP ( 'NONE', ( #98, #368, #196, #46 ) ) ;
#313 = DIRECTION ( 'NONE',  ( 1.000000000000000000, 0.0000000000000000000, -1.224646799147353200E-016 ) ) ;
#314 = EDGE_LOOP ( 'NONE', ( #84, #163, #370, #273 ) ) ;
#315 = DIRECTION ( 'NONE',  ( 0.0000000000000000000, 0.0000000000000000000, -1.000000000000000000 ) ) ;
#316 = CARTESIAN_POINT ( 'NONE',  ( 4.406868198566191100E-016, 3.252372543132418400, 3.598480967438468800 ) ) ;
#317 = DIRECTION ( 'NONE',  ( -0.0000000000000000000, -1.000000000000000000, -0.0000000000000000000 ) ) ;
#318 = EDGE_LOOP ( 'NONE', ( #33, #72, #64, #49 ) ) ;
#319 = DIRECTION ( 'NONE',  ( -1.224646799147353200E-016, 0.0000000000000000000, -1.000000000000000000 ) ) ;
#320 = MECHANICAL_DESIGN_GEOMETRIC_PRESENTATION_REPRESENTATION (  '', ( #214 ), #243 ) ;
#321 =( LENGTH_UNIT ( ) NAMED_UNIT ( * ) SI_UNIT ( .MILLI., .METRE. ) );
#322 = PRESENTATION_STYLE_ASSIGNMENT (( #310 ) ) ;
#323 = EDGE_CURVE ( 'NONE', #85, #21, #156, .T. ) ;
#324 = AXIS2_PLACEMENT_3D ( 'NONE', #132, #296, #123 ) ;
#325 = CARTESIAN_POINT ( 'NONE',  ( 0.0000000000000000000, 0.0000000000000000000, 0.0000000000000000000 ) ) ;
#326 = CARTESIAN_POINT ( 'NONE',  ( 0.0000000000000000000, 5.500000000000000000, -2.515000000000000100 ) ) ;
#327 = DIRECTION ( 'NONE',  ( 0.0000000000000000000, 0.0000000000000000000, -1.000000000000000000 ) ) ;
#328 = STYLED_ITEM ( 'NONE', ( #205 ), #29 ) ;
#329 = EDGE_CURVE ( 'NONE', #44, #69, #155, .T. ) ;
#330 = ORIENTED_EDGE ( 'NONE', *, *, #348, .F. ) ;
#331 = VERTEX_POINT ( 'NONE', #316 ) ;
#332 = PLANE ( 'NONE',  #187 ) ;
#333 =( NAMED_UNIT ( * ) SI_UNIT ( $, .STERADIAN. ) SOLID_ANGLE_UNIT ( ) );
#334 = CARTESIAN_POINT ( 'NONE',  ( 0.0000000000000000000, 12.10000000000000000, 0.0000000000000000000 ) ) ;
#335 = EDGE_LOOP ( 'NONE', ( #40, #232, #215, #43 ) ) ;
#336 = CARTESIAN_POINT ( 'NONE',  ( 2.515000000000000100, 10.30000000000000100, 0.0000000000000000000 ) ) ;
#337 = EDGE_LOOP ( 'NONE', ( #311, #183, #231, #166 ) ) ;
#338 = CARTESIAN_POINT ( 'NONE',  ( 0.0000000000000000000, 0.8175336038535145900, -1.816125505703705100 ) ) ;
#339 =( LENGTH_UNIT ( ) NAMED_UNIT ( * ) SI_UNIT ( .MILLI., .METRE. ) );
#340 = DIRECTION ( 'NONE',  ( 0.0000000000000000000, 0.0000000000000000000, -1.000000000000000000 ) ) ;
#341 = LINE ( 'NONE', #133, #363 ) ;
#342 = ORIENTED_EDGE ( 'NONE', *, *, #323, .T. ) ;
#343 = VERTEX_POINT ( 'NONE', #74 ) ;
#344 = EDGE_CURVE ( 'NONE', #21, #10, #52, .T. ) ;
#345 = AXIS2_PLACEMENT_3D ( 'NONE', #134, #127, #181 ) ;
#346 = DIRECTION ( 'NONE',  ( -1.000000000000000000, 0.0000000000000000000, 0.0000000000000000000 ) ) ;
#347 = EDGE_LOOP ( 'NONE', ( #56, #61 ) ) ;
#348 = EDGE_CURVE ( 'NONE', #343, #7, #25, .T. ) ;
#349 = DIRECTION ( 'NONE',  ( -0.0000000000000000000, -1.000000000000000000, -0.0000000000000000000 ) ) ;
#350 = PRESENTATION_LAYER_ASSIGNMENT (  '', '', ( #328 ) ) ;
#351 = EDGE_CURVE ( 'NONE', #21, #85, #159, .T. ) ;
#352 = CARTESIAN_POINT ( 'NONE',  ( 3.263683719727696100E-016, 9.646326388888887500, 2.665000000000000000 ) ) ;
#353 = CARTESIAN_POINT ( 'NONE',  ( 3.079986699855593800E-016, 10.30000000000000100, 2.515000000000000100 ) ) ;
#354 = DIRECTION ( 'NONE',  ( -0.0000000000000000000, -1.000000000000000000, -0.0000000000000000000 ) ) ;
#355 = PRESENTATION_LAYER_ASSIGNMENT (  '', '', ( #214 ) ) ;
#356 = DIRECTION ( 'NONE',  ( -0.0000000000000000000, -1.000000000000000000, -0.0000000000000000000 ) ) ;
#357 = DIRECTION ( 'NONE',  ( -1.000000000000000000, 0.0000000000000000000, 0.0000000000000000000 ) ) ;
#358 = DIRECTION ( 'NONE',  ( -0.0000000000000000000, -1.000000000000000000, -0.0000000000000000000 ) ) ;
#359 = DIRECTION ( 'NONE',  ( -0.0000000000000000000, -0.0000000000000000000, -1.000000000000000000 ) ) ;
#360 = AXIS2_PLACEMENT_3D ( 'NONE', #212, #171, #189 ) ;
#361 = FILL_AREA_STYLE_COLOUR ( '', #198 ) ;
#362 = CARTESIAN_POINT ( 'NONE',  ( 0.0000000000000000000, 10.30000000000000100, -5.029999999999999400 ) ) ;
#363 = VECTOR ( 'NONE', #356, 1000.000000000000000 ) ;
#364 = EDGE_LOOP ( 'NONE', ( #90, #51 ) ) ;
#365 = EDGE_CURVE ( 'NONE', #10, #69, #53, .T. ) ;
#366 =( NAMED_UNIT ( * ) PLANE_ANGLE_UNIT ( ) SI_UNIT ( $, .RADIAN. ) );
#367 = MECHANICAL_DESIGN_GEOMETRIC_PRESENTATION_REPRESENTATION (  '', ( #328 ), #12 ) ;
#368 = ORIENTED_EDGE ( 'NONE', *, *, #47, .T. ) ;
#369 = DIRECTION ( 'NONE',  ( -0.0000000000000000000, -1.000000000000000000, -0.0000000000000000000 ) ) ;
#370 = ORIENTED_EDGE ( 'NONE', *, *, #129, .F. ) ;
#371 = CIRCLE ( 'NONE', #76, 3.598480967438468800 ) ;
#372 = CARTESIAN_POINT ( 'NONE',  ( 0.0000000000000000000, 3.252372543132418400, 0.0000000000000000000 ) ) ;
ENDSEC;
END-ISO-10303-21;
