ISO-10303-21;
HEADER;
FILE_DESCRIPTION (( 'STEP AP214' ),
    '1' );
FILE_NAME ('01661-00621MIDG_08_75mm.STEP',
    '2016-04-28T09:04:47',
    ( '' ),
    ( '' ),
    'SwSTEP 2.0',
    'SolidWorks 2015',
    '' );
FILE_SCHEMA (( 'AUTOMOTIVE_DESIGN' ));
ENDSEC;

DATA;
#1 = SURFACE_STYLE_FILL_AREA ( #19 ) ;
#2 = SURFACE_SIDE_STYLE ('',( #159 ) ) ;
#3 =( NAMED_UNIT ( * ) SI_UNIT ( $, .STERADIAN. ) SOLID_ANGLE_UNIT ( ) );
#4 = VERTEX_POINT ( 'NONE', #197 ) ;
#5 = ORIENTED_EDGE ( 'NONE', *, *, #275, .F. ) ;
#6 = CYLINDRICAL_SURFACE ( 'NONE', #93, 2.515000000000000100 ) ;
#7 = AXIS2_PLACEMENT_3D ( 'NONE', #257, #288, #293 ) ;
#8 =( NAMED_UNIT ( * ) PLANE_ANGLE_UNIT ( ) SI_UNIT ( $, .RADIAN. ) );
#9 =( LENGTH_UNIT ( ) NAMED_UNIT ( * ) SI_UNIT ( .MILLI., .METRE. ) );
#10 = SURFACE_STYLE_USAGE ( .BOTH. , #15 ) ;
#11 = AXIS2_PLACEMENT_3D ( 'NONE', #182, #181, #179 ) ;
#12 = CIRCLE ( 'NONE', #312, 5.029999999999999400 ) ;
#13 = DIRECTION ( 'NONE',  ( -0.0000000000000000000, -1.000000000000000000, -0.0000000000000000000 ) ) ;
#14 = ORIENTED_EDGE ( 'NONE', *, *, #258, .T. ) ;
#15 = SURFACE_SIDE_STYLE ('',( #1 ) ) ;
#16 = EDGE_LOOP ( 'NONE', ( #176, #97, #188, #216 ) ) ;
#17 = ORIENTED_EDGE ( 'NONE', *, *, #241, .F. ) ;
#18 = VECTOR ( 'NONE', #89, 1000.000000000000000 ) ;
#19 = FILL_AREA_STYLE ('',( #49 ) ) ;
#20 = EDGE_CURVE ( 'NONE', #28, #174, #158, .T. ) ;
#21 =( GEOMETRIC_REPRESENTATION_CONTEXT ( 3 ) GLOBAL_UNCERTAINTY_ASSIGNED_CONTEXT ( ( #166 ) ) GLOBAL_UNIT_ASSIGNED_CONTEXT ( ( #352, #272, #324 ) ) REPRESENTATION_CONTEXT ( 'NONE', 'WORKASPACE' ) );
#22 = PRODUCT_DEFINITION_SHAPE ( 'NONE', 'NONE',  #281 ) ;
#23 = LINE ( 'NONE', #133, #186 ) ;
#24 = FACE_OUTER_BOUND ( 'NONE', #55, .T. ) ;
#25 = EDGE_CURVE ( 'NONE', #28, #228, #132, .T. ) ;
#26 = APPLICATION_CONTEXT ( 'automotive_design' ) ;
#27 = MANIFOLD_SOLID_BREP ( 'Revolve1', #139 ) ;
#28 = VERTEX_POINT ( 'NONE', #194 ) ;
#29 = APPLICATION_PROTOCOL_DEFINITION ( 'draft international standard', 'automotive_design', 1998, #26 ) ;
#30 = FACE_OUTER_BOUND ( 'NONE', #255, .T. ) ;
#31 = AXIS2_PLACEMENT_3D ( 'NONE', #75, #112, #103 ) ;
#32 =( NAMED_UNIT ( * ) SI_UNIT ( $, .STERADIAN. ) SOLID_ANGLE_UNIT ( ) );
#33 = CARTESIAN_POINT ( 'NONE',  ( 0.0000000000000000000, 5.500000000000000000, 0.0000000000000000000 ) ) ;
#34 = TOROIDAL_SURFACE ( 'NONE', #341, 1.658947368421053600, 1.991052631578946300 ) ;
#35 =( NAMED_UNIT ( * ) PLANE_ANGLE_UNIT ( ) SI_UNIT ( $, .RADIAN. ) );
#36 = FACE_OUTER_BOUND ( 'NONE', #249, .T. ) ;
#37 = AXIS2_PLACEMENT_3D ( 'NONE', #204, #274, #282 ) ;
#38 = DIRECTION ( 'NONE',  ( -1.224646799147353200E-016, 0.0000000000000000000, -1.000000000000000000 ) ) ;
#39 = CIRCLE ( 'NONE', #71, 1.816125505703705100 ) ;
#40 = FACE_OUTER_BOUND ( 'NONE', #51, .T. ) ;
#41 = AXIS2_PLACEMENT_3D ( 'NONE', #224, #227, #230 ) ;
#42 = ORIENTED_EDGE ( 'NONE', *, *, #361, .F. ) ;
#43 = FACE_OUTER_BOUND ( 'NONE', #144, .T. ) ;
#44 = TOROIDAL_SURFACE ( 'NONE', #363, 2.665000000000000000, 2.453673611111111300 ) ;
#45 = CARTESIAN_POINT ( 'NONE',  ( 0.0000000000000000000, 0.0000000000000000000, 0.0000000000000000000 ) ) ;
#46 = DIRECTION ( 'NONE',  ( 0.0000000000000000000, 0.0000000000000000000, -1.000000000000000000 ) ) ;
#47 = SPHERICAL_SURFACE ( 'NONE', #118, 2.426000000000000200 ) ;
#48 = CARTESIAN_POINT ( 'NONE',  ( 0.0000000000000000000, 2.426000000000000200, 0.0000000000000000000 ) ) ;
#49 = FILL_AREA_STYLE_COLOUR ( '', #64 ) ;
#50 = TOROIDAL_SURFACE ( 'NONE', #31, 2.665000000000000000, 2.453673611111111300 ) ;
#51 = EDGE_LOOP ( 'NONE', ( #87, #296, #142, #90, #135 ) ) ;
#52 = AXIS2_PLACEMENT_3D ( 'NONE', #147, #145, #138 ) ;
#53 = UNCERTAINTY_MEASURE_WITH_UNIT (LENGTH_MEASURE( 1.000000000000000100E-005 ), #9, 'distance_accuracy_value', 'NONE');
#54 = DIRECTION ( 'NONE',  ( 0.0000000000000000000, 0.0000000000000000000, 1.000000000000000000 ) ) ;
#55 = EDGE_LOOP ( 'NONE', ( #183, #370, #172, #17 ) ) ;
#56 = CARTESIAN_POINT ( 'NONE',  ( 3.263683719727696100E-016, 13.59632638888888700, 2.665000000000000000 ) ) ;
#57 = VERTEX_POINT ( 'NONE', #247 ) ;
#58 = EDGE_CURVE ( 'NONE', #57, #173, #61, .T. ) ;
#59 = CARTESIAN_POINT ( 'NONE',  ( 2.515000000000000100, 14.24999999999999800, 0.0000000000000000000 ) ) ;
#60 = AXIS2_PLACEMENT_3D ( 'NONE', #354, #356, #345 ) ;
#61 = CIRCLE ( 'NONE', #41, 1.816125505703705100 ) ;
#62 = PLANE ( 'NONE',  #187 ) ;
#63 = FACE_OUTER_BOUND ( 'NONE', #111, .T. ) ;
#64 = COLOUR_RGB ( '',0.7921568627450980000, 0.8196078431372548800, 0.9333333333333333500 ) ;
#65 = DIRECTION ( 'NONE',  ( 0.0000000000000000000, 0.0000000000000000000, -1.000000000000000000 ) ) ;
#66 = DIRECTION ( 'NONE',  ( 0.0000000000000000000, -1.000000000000000000, -0.0000000000000000000 ) ) ;
#67 = CARTESIAN_POINT ( 'NONE',  ( 0.0000000000000000000, 2.802372543132418200, 0.0000000000000000000 ) ) ;
#68 = DIRECTION ( 'NONE',  ( 1.000000000000000000, 0.0000000000000000000, 0.0000000000000000000 ) ) ;
#69 = TOROIDAL_SURFACE ( 'NONE', #11, 1.658947368421053600, 1.991052631578946300 ) ;
#70 = DIRECTION ( 'NONE',  ( -1.000000000000000000, 0.0000000000000000000, 0.0000000000000000000 ) ) ;
#71 = AXIS2_PLACEMENT_3D ( 'NONE', #73, #160, #72 ) ;
#72 = DIRECTION ( 'NONE',  ( 0.0000000000000000000, 0.0000000000000000000, -1.000000000000000000 ) ) ;
#73 = CARTESIAN_POINT ( 'NONE',  ( 0.0000000000000000000, 0.8175336038535145900, 0.0000000000000000000 ) ) ;
#74 = AXIS2_PLACEMENT_3D ( 'NONE', #162, #157, #153 ) ;
#75 = CARTESIAN_POINT ( 'NONE',  ( 0.0000000000000000000, 13.59632638888888700, 0.0000000000000000000 ) ) ;
#76 = DIRECTION ( 'NONE',  ( -0.0000000000000000000, -0.0000000000000000000, -1.000000000000000000 ) ) ;
#77 = VERTEX_POINT ( 'NONE', #205 ) ;
#78 = VERTEX_POINT ( 'NONE', #305 ) ;
#79 = CIRCLE ( 'NONE', #52, 2.665000000000000000 ) ;
#80 = DIRECTION ( 'NONE',  ( 1.000000000000000000, 0.0000000000000000000, 0.0000000000000000000 ) ) ;
#81 = AXIS2_PLACEMENT_3D ( 'NONE', #246, #243, #208 ) ;
#82 = ORIENTED_EDGE ( 'NONE', *, *, #241, .T. ) ;
#83 = ADVANCED_BREP_SHAPE_REPRESENTATION ( '01661-00621MIDG_08_75mm', ( #27, #260 ), #165 ) ;
#84 = LINE ( 'NONE', #134, #18 ) ;
#85 = EDGE_LOOP ( 'NONE', ( #202, #195, #175, #169, #42 ) ) ;
#86 = ORIENTED_EDGE ( 'NONE', *, *, #321, .T. ) ;
#87 = ORIENTED_EDGE ( 'NONE', *, *, #290, .T. ) ;
#88 = EDGE_LOOP ( 'NONE', ( #86, #304, #286, #238 ) ) ;
#89 = DIRECTION ( 'NONE',  ( -0.0000000000000000000, -1.000000000000000000, -0.0000000000000000000 ) ) ;
#90 = ORIENTED_EDGE ( 'NONE', *, *, #58, .F. ) ;
#91 = ORIENTED_EDGE ( 'NONE', *, *, #226, .T. ) ;
#92 = FACE_OUTER_BOUND ( 'NONE', #143, .T. ) ;
#93 = AXIS2_PLACEMENT_3D ( 'NONE', #299, #297, #372 ) ;
#94 = DIRECTION ( 'NONE',  ( -0.0000000000000000000, -1.000000000000000000, -0.0000000000000000000 ) ) ;
#95 = EDGE_CURVE ( 'NONE', #294, #57, #136, .T. ) ;
#96 = AXIS2_PLACEMENT_3D ( 'NONE', #203, #365, #251 ) ;
#97 = ORIENTED_EDGE ( 'NONE', *, *, #128, .T. ) ;
#98 = CIRCLE ( 'NONE', #168, 3.598480967438468800 ) ;
#99 = DIRECTION ( 'NONE',  ( -1.224646799147353500E-016, 0.0000000000000000000, -1.000000000000000000 ) ) ;
#100 = DIRECTION ( 'NONE',  ( 1.000000000000000000, 0.0000000000000000000, -1.224646799147353200E-016 ) ) ;
#101 = ORIENTED_EDGE ( 'NONE', *, *, #309, .T. ) ;
#102 = ORIENTED_EDGE ( 'NONE', *, *, #258, .F. ) ;
#103 = DIRECTION ( 'NONE',  ( 0.0000000000000000000, 0.0000000000000000000, -1.000000000000000000 ) ) ;
#104 = ORIENTED_EDGE ( 'NONE', *, *, #309, .F. ) ;
#105 = EDGE_CURVE ( 'NONE', #173, #278, #137, .T. ) ;
#106 = PLANE ( 'NONE',  #7 ) ;
#107 = AXIS2_PLACEMENT_3D ( 'NONE', #331, #360, #38 ) ;
#108 = CARTESIAN_POINT ( 'NONE',  ( 3.315490242988051200E-016, 0.8175336038535145900, 1.816125505703705100 ) ) ;
#109 = ORIENTED_EDGE ( 'NONE', *, *, #259, .T. ) ;
#110 = ORIENTED_EDGE ( 'NONE', *, *, #128, .F. ) ;
#111 = EDGE_LOOP ( 'NONE', ( #346, #190, #152, #269 ) ) ;
#112 = DIRECTION ( 'NONE',  ( -0.0000000000000000000, -1.000000000000000000, -0.0000000000000000000 ) ) ;
#113 = EDGE_CURVE ( 'NONE', #148, #78, #220, .T. ) ;
#114 = DIRECTION ( 'NONE',  ( -0.0000000000000000000, -1.000000000000000000, -0.0000000000000000000 ) ) ;
#115 = ORIENTED_EDGE ( 'NONE', *, *, #268, .T. ) ;
#116 = ORIENTED_EDGE ( 'NONE', *, *, #349, .F. ) ;
#117 = CARTESIAN_POINT ( 'NONE',  ( 0.0000000000000000000, 14.24999999999999800, 0.0000000000000000000 ) ) ;
#118 = AXIS2_PLACEMENT_3D ( 'NONE', #48, #76, #70 ) ;
#119 = DIRECTION ( 'NONE',  ( -0.0000000000000000000, 0.0000000000000000000, 1.000000000000000000 ) ) ;
#120 = ORIENTED_EDGE ( 'NONE', *, *, #210, .T. ) ;
#121 = ORIENTED_EDGE ( 'NONE', *, *, #20, .T. ) ;
#122 = ORIENTED_EDGE ( 'NONE', *, *, #210, .F. ) ;
#123 = AXIS2_PLACEMENT_3D ( 'NONE', #131, #129, #127 ) ;
#124 = DIRECTION ( 'NONE',  ( -1.000000000000000000, 0.0000000000000000000, 0.0000000000000000000 ) ) ;
#125 = ORIENTED_EDGE ( 'NONE', *, *, #25, .F. ) ;
#126 = CARTESIAN_POINT ( 'NONE',  ( 0.0000000000000000000, 3.252372543132418400, -3.598480967438468800 ) ) ;
#127 = DIRECTION ( 'NONE',  ( 0.0000000000000000000, 0.0000000000000000000, -1.000000000000000000 ) ) ;
#128 = EDGE_CURVE ( 'NONE', #148, #77, #329, .T. ) ;
#129 = DIRECTION ( 'NONE',  ( -0.0000000000000000000, -1.000000000000000000, -0.0000000000000000000 ) ) ;
#130 = AXIS2_PLACEMENT_3D ( 'NONE', #351, #140, #327 ) ;
#131 = CARTESIAN_POINT ( 'NONE',  ( 0.0000000000000000000, 14.24999999999999800, 0.0000000000000000000 ) ) ;
#132 = CIRCLE ( 'NONE', #319, 2.665000000000000000 ) ;
#133 = CARTESIAN_POINT ( 'NONE',  ( 0.0000000000000000000, 0.0000000000000000000, -2.515000000000000100 ) ) ;
#134 = CARTESIAN_POINT ( 'NONE',  ( 3.079986699855593800E-016, 0.0000000000000000000, 2.515000000000000100 ) ) ;
#135 = ORIENTED_EDGE ( 'NONE', *, *, #95, .F. ) ;
#136 = CIRCLE ( 'NONE', #60, 1.991052631578946300 ) ;
#137 = CIRCLE ( 'NONE', #81, 2.426000000000000200 ) ;
#138 = DIRECTION ( 'NONE',  ( 0.0000000000000000000, 0.0000000000000000000, -1.000000000000000000 ) ) ;
#139 = CLOSED_SHELL ( 'NONE', ( #236, #263, #313, #234, #193, #362, #364, #237, #359, #366, #335, #334 ) ) ;
#140 = DIRECTION ( 'NONE',  ( -0.0000000000000000000, -1.000000000000000000, -0.0000000000000000000 ) ) ;
#141 = AXIS2_PLACEMENT_3D ( 'NONE', #67, #94, #65 ) ;
#142 = ORIENTED_EDGE ( 'NONE', *, *, #259, .F. ) ;
#143 = EDGE_LOOP ( 'NONE', ( #358, #109, #201, #82 ) ) ;
#144 = EDGE_LOOP ( 'NONE', ( #102, #101, #184, #110 ) ) ;
#145 = DIRECTION ( 'NONE',  ( -0.0000000000000000000, -1.000000000000000000, -0.0000000000000000000 ) ) ;
#146 = AXIS2_PLACEMENT_3D ( 'NONE', #336, #124, #54 ) ;
#147 = CARTESIAN_POINT ( 'NONE',  ( 0.0000000000000000000, 16.04999999999999700, 0.0000000000000000000 ) ) ;
#148 = VERTEX_POINT ( 'NONE', #217 ) ;
#149 = VERTEX_POINT ( 'NONE', #338 ) ;
#150 = CARTESIAN_POINT ( 'NONE',  ( -1.485496567365739700E-016, 0.0000000000000000000, 0.0000000000000000000 ) ) ;
#151 = EDGE_CURVE ( 'NONE', #156, #57, #325, .T. ) ;
#152 = ORIENTED_EDGE ( 'NONE', *, *, #226, .F. ) ;
#153 = DIRECTION ( 'NONE',  ( -1.224646799147353200E-016, 0.0000000000000000000, -1.000000000000000000 ) ) ;
#154 = AXIS2_PLACEMENT_3D ( 'NONE', #254, #348, #344 ) ;
#155 = CIRCLE ( 'NONE', #301, 5.029999999999999400 ) ;
#156 = VERTEX_POINT ( 'NONE', #283 ) ;
#157 = DIRECTION ( 'NONE',  ( 1.000000000000000000, 0.0000000000000000000, -1.224646799147353200E-016 ) ) ;
#158 = CIRCLE ( 'NONE', #307, 2.453673611111111300 ) ;
#159 = SURFACE_STYLE_FILL_AREA ( #235 ) ;
#160 = DIRECTION ( 'NONE',  ( -0.0000000000000000000, -1.000000000000000000, -0.0000000000000000000 ) ) ;
#161 = ORIENTED_EDGE ( 'NONE', *, *, #321, .F. ) ;
#162 = CARTESIAN_POINT ( 'NONE',  ( 2.031624584690768300E-016, 2.802372543132418200, 1.658947368421053600 ) ) ;
#163 = PRESENTATION_STYLE_ASSIGNMENT (( #367 ) ) ;
#164 = COLOUR_RGB ( '',0.7921568627450980000, 0.8196078431372548800, 0.9333333333333333500 ) ;
#165 =( GEOMETRIC_REPRESENTATION_CONTEXT ( 3 ) GLOBAL_UNCERTAINTY_ASSIGNED_CONTEXT ( ( #261 ) ) GLOBAL_UNIT_ASSIGNED_CONTEXT ( ( #170, #35, #32 ) ) REPRESENTATION_CONTEXT ( 'NONE', 'WORKASPACE' ) );
#166 = UNCERTAINTY_MEASURE_WITH_UNIT (LENGTH_MEASURE( 1.000000000000000100E-005 ), #352, 'distance_accuracy_value', 'NONE');
#167 = DIRECTION ( 'NONE',  ( 0.0000000000000000000, 0.0000000000000000000, -1.000000000000000000 ) ) ;
#168 = AXIS2_PLACEMENT_3D ( 'NONE', #267, #266, #265 ) ;
#169 = ORIENTED_EDGE ( 'NONE', *, *, #151, .F. ) ;
#170 =( LENGTH_UNIT ( ) NAMED_UNIT ( * ) SI_UNIT ( .MILLI., .METRE. ) );
#171 = DIRECTION ( 'NONE',  ( -0.0000000000000000000, -1.000000000000000000, -0.0000000000000000000 ) ) ;
#172 = ORIENTED_EDGE ( 'NONE', *, *, #105, .T. ) ;
#173 = VERTEX_POINT ( 'NONE', #368 ) ;
#174 = VERTEX_POINT ( 'NONE', #333 ) ;
#175 = ORIENTED_EDGE ( 'NONE', *, *, #95, .T. ) ;
#176 = ORIENTED_EDGE ( 'NONE', *, *, #113, .F. ) ;
#177 = AXIS2_PLACEMENT_3D ( 'NONE', #295, #276, #300 ) ;
#178 = PRESENTATION_LAYER_ASSIGNMENT (  '', '', ( #219 ) ) ;
#179 = DIRECTION ( 'NONE',  ( 0.0000000000000000000, 0.0000000000000000000, -1.000000000000000000 ) ) ;
#180 = CARTESIAN_POINT ( 'NONE',  ( 0.0000000000000000000, 16.04999999999999700, 0.0000000000000000000 ) ) ;
#181 = DIRECTION ( 'NONE',  ( -0.0000000000000000000, -1.000000000000000000, -0.0000000000000000000 ) ) ;
#182 = CARTESIAN_POINT ( 'NONE',  ( 0.0000000000000000000, 3.702372543132418100, 0.0000000000000000000 ) ) ;
#183 = ORIENTED_EDGE ( 'NONE', *, *, #151, .T. ) ;
#184 = ORIENTED_EDGE ( 'NONE', *, *, #250, .T. ) ;
#185 = CARTESIAN_POINT ( 'NONE',  ( 0.0000000000000000000, 2.802372543132418200, 0.0000000000000000000 ) ) ;
#186 = VECTOR ( 'NONE', #171, 1000.000000000000000 ) ;
#187 = AXIS2_PLACEMENT_3D ( 'NONE', #59, #66, #46 ) ;
#188 = ORIENTED_EDGE ( 'NONE', *, *, #289, .T. ) ;
#189 = FACE_OUTER_BOUND ( 'NONE', #85, .T. ) ;
#190 = ORIENTED_EDGE ( 'NONE', *, *, #349, .T. ) ;
#191 = AXIS2_PLACEMENT_3D ( 'NONE', #256, #114, #209 ) ;
#192 = DIRECTION ( 'NONE',  ( -1.000000000000000000, 0.0000000000000000000, 0.0000000000000000000 ) ) ;
#193 = ADVANCED_FACE ( 'NONE', ( #24 ), #343, .T. ) ;
#194 = CARTESIAN_POINT ( 'NONE',  ( 0.0000000000000000000, 16.04999999999999700, -2.665000000000000000 ) ) ;
#195 = ORIENTED_EDGE ( 'NONE', *, *, #196, .T. ) ;
#196 = EDGE_CURVE ( 'NONE', #78, #294, #291, .T. ) ;
#197 = CARTESIAN_POINT ( 'NONE',  ( 3.079986699855593800E-016, 14.24999999999999800, 2.515000000000000100 ) ) ;
#198 = CARTESIAN_POINT ( 'NONE',  ( 0.0000000000000000000, 13.59632638888888700, 0.0000000000000000000 ) ) ;
#199 = MECHANICAL_DESIGN_GEOMETRIC_PRESENTATION_REPRESENTATION (  '', ( #219 ), #214 ) ;
#200 = DIRECTION ( 'NONE',  ( 0.0000000000000000000, 0.0000000000000000000, -1.000000000000000000 ) ) ;
#201 = ORIENTED_EDGE ( 'NONE', *, *, #361, .T. ) ;
#202 = ORIENTED_EDGE ( 'NONE', *, *, #264, .F. ) ;
#203 = CARTESIAN_POINT ( 'NONE',  ( 0.0000000000000000000, 0.0000000000000000000, 0.0000000000000000000 ) ) ;
#204 = CARTESIAN_POINT ( 'NONE',  ( 0.0000000000000000000, 0.8175336038535145900, 0.0000000000000000000 ) ) ;
#205 = CARTESIAN_POINT ( 'NONE',  ( 0.0000000000000000000, 5.500000000000000000, -2.515000000000000100 ) ) ;
#206 = CIRCLE ( 'NONE', #328, 2.426000000000000200 ) ;
#207 = DIRECTION ( 'NONE',  ( 0.0000000000000000000, 0.0000000000000000000, 1.000000000000000000 ) ) ;
#208 = DIRECTION ( 'NONE',  ( -1.000000000000000000, 0.0000000000000000000, 1.224646799147353500E-016 ) ) ;
#209 = DIRECTION ( 'NONE',  ( 0.0000000000000000000, 0.0000000000000000000, -1.000000000000000000 ) ) ;
#210 = EDGE_CURVE ( 'NONE', #149, #174, #155, .T. ) ;
#211 = PRODUCT ( '01661-00621MIDG_08_75mm', '01661-00621MIDG_08_75mm', '', ( #218 ) ) ;
#212 = CIRCLE ( 'NONE', #191, 2.515000000000000100 ) ;
#213 = CIRCLE ( 'NONE', #37, 1.816125505703705100 ) ;
#214 =( GEOMETRIC_REPRESENTATION_CONTEXT ( 3 ) GLOBAL_UNCERTAINTY_ASSIGNED_CONTEXT ( ( #53 ) ) GLOBAL_UNIT_ASSIGNED_CONTEXT ( ( #9, #8, #3 ) ) REPRESENTATION_CONTEXT ( 'NONE', 'WORKASPACE' ) );
#215 = CIRCLE ( 'NONE', #123, 2.515000000000000100 ) ;
#216 = ORIENTED_EDGE ( 'NONE', *, *, #196, .F. ) ;
#217 = CARTESIAN_POINT ( 'NONE',  ( 3.743427449210892900E-016, 5.500000000000000000, 2.515000000000000100 ) ) ;
#218 = PRODUCT_CONTEXT ( 'NONE', #26, 'mechanical' ) ;
#219 = STYLED_ITEM ( 'NONE', ( #308 ), #83 ) ;
#220 = CIRCLE ( 'NONE', #107, 1.991052631578946300 ) ;
#221 = ORIENTED_EDGE ( 'NONE', *, *, #275, .T. ) ;
#222 = DIRECTION ( 'NONE',  ( -0.0000000000000000000, -1.000000000000000000, -0.0000000000000000000 ) ) ;
#223 = EDGE_LOOP ( 'NONE', ( #91, #120 ) ) ;
#224 = CARTESIAN_POINT ( 'NONE',  ( 0.0000000000000000000, 0.8175336038535145900, 0.0000000000000000000 ) ) ;
#225 = ORIENTED_EDGE ( 'NONE', *, *, #268, .F. ) ;
#226 = EDGE_CURVE ( 'NONE', #174, #149, #12, .T. ) ;
#227 = DIRECTION ( 'NONE',  ( -0.0000000000000000000, -1.000000000000000000, -0.0000000000000000000 ) ) ;
#228 = VERTEX_POINT ( 'NONE', #320 ) ;
#229 = DIRECTION ( 'NONE',  ( -0.0000000000000000000, -1.000000000000000000, -0.0000000000000000000 ) ) ;
#230 = DIRECTION ( 'NONE',  ( 0.0000000000000000000, 0.0000000000000000000, -1.000000000000000000 ) ) ;
#231 = DIRECTION ( 'NONE',  ( 0.0000000000000000000, 0.0000000000000000000, -1.000000000000000000 ) ) ;
#232 = DIRECTION ( 'NONE',  ( 0.0000000000000000000, 0.0000000000000000000, -1.000000000000000000 ) ) ;
#233 = FACE_OUTER_BOUND ( 'NONE', #223, .T. ) ;
#234 = ADVANCED_FACE ( 'NONE', ( #40 ), #34, .T. ) ;
#235 = FILL_AREA_STYLE ('',( #340 ) ) ;
#236 = ADVANCED_FACE ( 'NONE', ( #63 ), #44, .T. ) ;
#237 = ADVANCED_FACE ( 'NONE', ( #284 ), #69, .T. ) ;
#238 = ORIENTED_EDGE ( 'NONE', *, *, #289, .F. ) ;
#239 = DIRECTION ( 'NONE',  ( 0.0000000000000000000, 0.0000000000000000000, -1.000000000000000000 ) ) ;
#240 = TOROIDAL_SURFACE ( 'NONE', #141, 1.658947368421053600, 1.991052631578946300 ) ;
#241 = EDGE_CURVE ( 'NONE', #156, #278, #206, .T. ) ;
#242 = APPLICATION_PROTOCOL_DEFINITION ( 'draft international standard', 'automotive_design', 1998, #306 ) ;
#243 = DIRECTION ( 'NONE',  ( -1.224646799147353200E-016, 0.0000000000000000000, -1.000000000000000000 ) ) ;
#244 = DIRECTION ( 'NONE',  ( -0.0000000000000000000, -1.000000000000000000, -0.0000000000000000000 ) ) ;
#245 = CIRCLE ( 'NONE', #357, 2.453673611111111300 ) ;
#246 = CARTESIAN_POINT ( 'NONE',  ( 0.0000000000000000000, 2.426000000000000200, 0.0000000000000000000 ) ) ;
#247 = CARTESIAN_POINT ( 'NONE',  ( 0.0000000000000000000, 0.8175336038535145900, -1.816125505703705100 ) ) ;
#248 = CARTESIAN_POINT ( 'NONE',  ( 0.0000000000000000000, 2.426000000000000200, 0.0000000000000000000 ) ) ;
#249 = EDGE_LOOP ( 'NONE', ( #116, #115, #121, #122 ) ) ;
#250 = EDGE_CURVE ( 'NONE', #271, #77, #23, .T. ) ;
#251 = DIRECTION ( 'NONE',  ( 0.0000000000000000000, 0.0000000000000000000, -1.000000000000000000 ) ) ;
#252 = CARTESIAN_POINT ( 'NONE',  ( 0.0000000000000000000, 14.24999999999999800, -2.515000000000000100 ) ) ;
#253 = CIRCLE ( 'NONE', #146, 1.991052631578946300 ) ;
#254 = CARTESIAN_POINT ( 'NONE',  ( 0.0000000000000000000, 0.8175336038535145900, 0.0000000000000000000 ) ) ;
#255 = EDGE_LOOP ( 'NONE', ( #221, #14, #161, #287 ) ) ;
#256 = CARTESIAN_POINT ( 'NONE',  ( 0.0000000000000000000, 14.24999999999999800, 0.0000000000000000000 ) ) ;
#257 = CARTESIAN_POINT ( 'NONE',  ( 2.665000000000000000, 16.04999999999999700, 0.0000000000000000000 ) ) ;
#258 = EDGE_CURVE ( 'NONE', #4, #148, #84, .T. ) ;
#259 = EDGE_CURVE ( 'NONE', #173, #355, #213, .T. ) ;
#260 = AXIS2_PLACEMENT_3D ( 'NONE', #45, #207, #68 ) ;
#261 = UNCERTAINTY_MEASURE_WITH_UNIT (LENGTH_MEASURE( 1.000000000000000100E-005 ), #170, 'distance_accuracy_value', 'NONE');
#262 = CARTESIAN_POINT ( 'NONE',  ( 0.0000000000000000000, 3.702372543132418100, 0.0000000000000000000 ) ) ;
#263 = ADVANCED_FACE ( 'NONE', ( #30 ), #311, .T. ) ;
#264 = EDGE_CURVE ( 'NONE', #78, #355, #317, .T. ) ;
#265 = DIRECTION ( 'NONE',  ( 0.0000000000000000000, 0.0000000000000000000, -1.000000000000000000 ) ) ;
#266 = DIRECTION ( 'NONE',  ( -0.0000000000000000000, -1.000000000000000000, -0.0000000000000000000 ) ) ;
#267 = CARTESIAN_POINT ( 'NONE',  ( 0.0000000000000000000, 3.252372543132418400, 0.0000000000000000000 ) ) ;
#268 = EDGE_CURVE ( 'NONE', #228, #28, #79, .T. ) ;
#269 = ORIENTED_EDGE ( 'NONE', *, *, #20, .F. ) ;
#270 = DIRECTION ( 'NONE',  ( -0.0000000000000000000, -1.000000000000000000, -0.0000000000000000000 ) ) ;
#271 = VERTEX_POINT ( 'NONE', #252 ) ;
#272 =( NAMED_UNIT ( * ) PLANE_ANGLE_UNIT ( ) SI_UNIT ( $, .RADIAN. ) );
#273 = EDGE_LOOP ( 'NONE', ( #5, #104 ) ) ;
#274 = DIRECTION ( 'NONE',  ( -0.0000000000000000000, -1.000000000000000000, -0.0000000000000000000 ) ) ;
#275 = EDGE_CURVE ( 'NONE', #271, #4, #215, .T. ) ;
#276 = DIRECTION ( 'NONE',  ( -0.0000000000000000000, -1.000000000000000000, -0.0000000000000000000 ) ) ;
#277 = EDGE_LOOP ( 'NONE', ( #125, #225 ) ) ;
#278 = VERTEX_POINT ( 'NONE', #150 ) ;
#279 = CARTESIAN_POINT ( 'NONE',  ( 0.0000000000000000000, 13.59632638888888700, -2.665000000000000000 ) ) ;
#280 = AXIS2_PLACEMENT_3D ( 'NONE', #315, #303, #316 ) ;
#281 = PRODUCT_DEFINITION ( 'UNKNOWN', '', #302, #339 ) ;
#282 = DIRECTION ( 'NONE',  ( 0.0000000000000000000, 0.0000000000000000000, -1.000000000000000000 ) ) ;
#283 = CARTESIAN_POINT ( 'NONE',  ( -1.816125505703705100, 0.8175336038535145900, 0.0000000000000000000 ) ) ;
#284 = FACE_OUTER_BOUND ( 'NONE', #16, .T. ) ;
#285 = DIRECTION ( 'NONE',  ( 0.0000000000000000000, 0.0000000000000000000, -1.000000000000000000 ) ) ;
#286 = ORIENTED_EDGE ( 'NONE', *, *, #290, .F. ) ;
#287 = ORIENTED_EDGE ( 'NONE', *, *, #250, .F. ) ;
#288 = DIRECTION ( 'NONE',  ( 0.0000000000000000000, 1.000000000000000000, 0.0000000000000000000 ) ) ;
#289 = EDGE_CURVE ( 'NONE', #77, #294, #253, .T. ) ;
#290 = EDGE_CURVE ( 'NONE', #294, #78, #98, .T. ) ;
#291 = CIRCLE ( 'NONE', #177, 3.598480967438468800 ) ;
#292 = FACE_BOUND ( 'NONE', #273, .T. ) ;
#293 = DIRECTION ( 'NONE',  ( 0.0000000000000000000, -0.0000000000000000000, 1.000000000000000000 ) ) ;
#294 = VERTEX_POINT ( 'NONE', #126 ) ;
#295 = CARTESIAN_POINT ( 'NONE',  ( 0.0000000000000000000, 3.252372543132418400, 0.0000000000000000000 ) ) ;
#296 = ORIENTED_EDGE ( 'NONE', *, *, #264, .T. ) ;
#297 = DIRECTION ( 'NONE',  ( -0.0000000000000000000, -1.000000000000000000, -0.0000000000000000000 ) ) ;
#298 = FACE_OUTER_BOUND ( 'NONE', #88, .T. ) ;
#299 = CARTESIAN_POINT ( 'NONE',  ( 0.0000000000000000000, 0.0000000000000000000, 0.0000000000000000000 ) ) ;
#300 = DIRECTION ( 'NONE',  ( 0.0000000000000000000, 0.0000000000000000000, -1.000000000000000000 ) ) ;
#301 = AXIS2_PLACEMENT_3D ( 'NONE', #318, #229, #231 ) ;
#302 = PRODUCT_DEFINITION_FORMATION_WITH_SPECIFIED_SOURCE ( 'ANY', '', #211, .NOT_KNOWN. ) ;
#303 = DIRECTION ( 'NONE',  ( -0.0000000000000000000, -0.0000000000000000000, -1.000000000000000000 ) ) ;
#304 = ORIENTED_EDGE ( 'NONE', *, *, #113, .T. ) ;
#305 = CARTESIAN_POINT ( 'NONE',  ( 4.406868198566191100E-016, 3.252372543132418400, 3.598480967438468800 ) ) ;
#306 = APPLICATION_CONTEXT ( 'automotive_design' ) ;
#307 = AXIS2_PLACEMENT_3D ( 'NONE', #279, #192, #369 ) ;
#308 = PRESENTATION_STYLE_ASSIGNMENT (( #10 ) ) ;
#309 = EDGE_CURVE ( 'NONE', #4, #271, #212, .T. ) ;
#310 = AXIS2_PLACEMENT_3D ( 'NONE', #33, #322, #285 ) ;
#311 = CYLINDRICAL_SURFACE ( 'NONE', #96, 2.515000000000000100 ) ;
#312 = AXIS2_PLACEMENT_3D ( 'NONE', #117, #222, #232 ) ;
#313 = ADVANCED_FACE ( 'NONE', ( #298 ), #330, .T. ) ;
#314 = PRODUCT_RELATED_PRODUCT_CATEGORY ( 'part', '', ( #211 ) ) ;
#315 = CARTESIAN_POINT ( 'NONE',  ( 0.0000000000000000000, 2.426000000000000200, 0.0000000000000000000 ) ) ;
#316 = DIRECTION ( 'NONE',  ( -1.000000000000000000, 0.0000000000000000000, 0.0000000000000000000 ) ) ;
#317 = CIRCLE ( 'NONE', #74, 1.991052631578946300 ) ;
#318 = CARTESIAN_POINT ( 'NONE',  ( 0.0000000000000000000, 14.24999999999999800, 0.0000000000000000000 ) ) ;
#319 = AXIS2_PLACEMENT_3D ( 'NONE', #180, #244, #239 ) ;
#320 = CARTESIAN_POINT ( 'NONE',  ( 4.711828559719440600E-016, 16.04999999999999700, 2.665000000000000000 ) ) ;
#321 = EDGE_CURVE ( 'NONE', #77, #148, #337, .T. ) ;
#322 = DIRECTION ( 'NONE',  ( -0.0000000000000000000, -1.000000000000000000, -0.0000000000000000000 ) ) ;
#323 = DIRECTION ( 'NONE',  ( -0.0000000000000000000, -1.000000000000000000, -0.0000000000000000000 ) ) ;
#324 =( NAMED_UNIT ( * ) SI_UNIT ( $, .STERADIAN. ) SOLID_ANGLE_UNIT ( ) );
#325 = CIRCLE ( 'NONE', #154, 1.816125505703705100 ) ;
#326 = AXIS2_PLACEMENT_3D ( 'NONE', #262, #323, #342 ) ;
#327 = DIRECTION ( 'NONE',  ( 0.0000000000000000000, 0.0000000000000000000, -1.000000000000000000 ) ) ;
#328 = AXIS2_PLACEMENT_3D ( 'NONE', #248, #119, #80 ) ;
#329 = CIRCLE ( 'NONE', #130, 2.515000000000000100 ) ;
#330 = TOROIDAL_SURFACE ( 'NONE', #326, 1.658947368421053600, 1.991052631578946300 ) ;
#331 = CARTESIAN_POINT ( 'NONE',  ( 2.031624584690768300E-016, 3.702372543132418100, 1.658947368421053600 ) ) ;
#332 = STYLED_ITEM ( 'NONE', ( #163 ), #27 ) ;
#333 = CARTESIAN_POINT ( 'NONE',  ( 0.0000000000000000000, 14.24999999999999800, -5.029999999999999400 ) ) ;
#334 = ADVANCED_FACE ( 'NONE', ( #350 ), #106, .T. ) ;
#335 = ADVANCED_FACE ( 'NONE', ( #36 ), #50, .T. ) ;
#336 = CARTESIAN_POINT ( 'NONE',  ( 0.0000000000000000000, 3.702372543132418100, -1.658947368421053600 ) ) ;
#337 = CIRCLE ( 'NONE', #310, 2.515000000000000100 ) ;
#338 = CARTESIAN_POINT ( 'NONE',  ( 6.159973399711187500E-016, 14.24999999999999800, 5.029999999999999400 ) ) ;
#339 = PRODUCT_DEFINITION_CONTEXT ( 'detailed design', #306, 'design' ) ;
#340 = FILL_AREA_STYLE_COLOUR ( '', #164 ) ;
#341 = AXIS2_PLACEMENT_3D ( 'NONE', #185, #270, #200 ) ;
#342 = DIRECTION ( 'NONE',  ( 0.0000000000000000000, 0.0000000000000000000, -1.000000000000000000 ) ) ;
#343 = SPHERICAL_SURFACE ( 'NONE', #280, 2.426000000000000200 ) ;
#344 = DIRECTION ( 'NONE',  ( 0.0000000000000000000, 0.0000000000000000000, -1.000000000000000000 ) ) ;
#345 = DIRECTION ( 'NONE',  ( 0.0000000000000000000, 0.0000000000000000000, 1.000000000000000000 ) ) ;
#346 = ORIENTED_EDGE ( 'NONE', *, *, #25, .T. ) ;
#347 = PRESENTATION_LAYER_ASSIGNMENT (  '', '', ( #332 ) ) ;
#348 = DIRECTION ( 'NONE',  ( -0.0000000000000000000, -1.000000000000000000, -0.0000000000000000000 ) ) ;
#349 = EDGE_CURVE ( 'NONE', #228, #149, #245, .T. ) ;
#350 = FACE_OUTER_BOUND ( 'NONE', #277, .T. ) ;
#351 = CARTESIAN_POINT ( 'NONE',  ( 0.0000000000000000000, 5.500000000000000000, 0.0000000000000000000 ) ) ;
#352 =( LENGTH_UNIT ( ) NAMED_UNIT ( * ) SI_UNIT ( .MILLI., .METRE. ) );
#353 = SHAPE_DEFINITION_REPRESENTATION ( #22, #83 ) ;
#354 = CARTESIAN_POINT ( 'NONE',  ( 0.0000000000000000000, 2.802372543132418200, -1.658947368421053600 ) ) ;
#355 = VERTEX_POINT ( 'NONE', #108 ) ;
#356 = DIRECTION ( 'NONE',  ( -1.000000000000000000, 0.0000000000000000000, 0.0000000000000000000 ) ) ;
#357 = AXIS2_PLACEMENT_3D ( 'NONE', #56, #100, #99 ) ;
#358 = ORIENTED_EDGE ( 'NONE', *, *, #105, .F. ) ;
#359 = ADVANCED_FACE ( 'NONE', ( #43 ), #6, .T. ) ;
#360 = DIRECTION ( 'NONE',  ( 1.000000000000000000, 0.0000000000000000000, -1.224646799147353200E-016 ) ) ;
#361 = EDGE_CURVE ( 'NONE', #355, #156, #39, .T. ) ;
#362 = ADVANCED_FACE ( 'NONE', ( #92 ), #47, .T. ) ;
#363 = AXIS2_PLACEMENT_3D ( 'NONE', #198, #13, #167 ) ;
#364 = ADVANCED_FACE ( 'NONE', ( #189 ), #240, .T. ) ;
#365 = DIRECTION ( 'NONE',  ( -0.0000000000000000000, -1.000000000000000000, -0.0000000000000000000 ) ) ;
#366 = ADVANCED_FACE ( 'NONE', ( #233, #292 ), #62, .T. ) ;
#367 = SURFACE_STYLE_USAGE ( .BOTH. , #2 ) ;
#368 = CARTESIAN_POINT ( 'NONE',  ( 1.816125505703705100, 0.8175336038535145900, -2.224112287409909900E-016 ) ) ;
#369 = DIRECTION ( 'NONE',  ( 0.0000000000000000000, 0.0000000000000000000, 1.000000000000000000 ) ) ;
#370 = ORIENTED_EDGE ( 'NONE', *, *, #58, .T. ) ;
#371 = MECHANICAL_DESIGN_GEOMETRIC_PRESENTATION_REPRESENTATION (  '', ( #332 ), #21 ) ;
#372 = DIRECTION ( 'NONE',  ( 0.0000000000000000000, 0.0000000000000000000, -1.000000000000000000 ) ) ;
ENDSEC;
END-ISO-10303-21;
