ISO-10303-21;
HEADER;
FILE_DESCRIPTION (( 'STEP AP214' ),
    '1' );
FILE_NAME ('01661-00621.STEP',
    '2016-04-05T09:30:44',
    ( '' ),
    ( '' ),
    'SwSTEP 2.0',
    'SolidWorks 2015',
    '' );
FILE_SCHEMA (( 'AUTOMOTIVE_DESIGN' ));
ENDSEC;

DATA;
#1 = CIRCLE ( 'NONE', #81, 2.426000000000000200 ) ;
#2 = FACE_OUTER_BOUND ( 'NONE', #206, .T. ) ;
#3 = VECTOR ( 'NONE', #67, 1000.000000000000000 ) ;
#4 = PRODUCT_DEFINITION ( 'UNKNOWN', '', #20, #172 ) ;
#5 = DIRECTION ( 'NONE',  ( 0.0000000000000000000, 0.0000000000000000000, -1.000000000000000000 ) ) ;
#6 = EDGE_LOOP ( 'NONE', ( #246, #112, #154, #151 ) ) ;
#7 = DIRECTION ( 'NONE',  ( 0.0000000000000000000, 1.000000000000000000, 0.0000000000000000000 ) ) ;
#8 = ADVANCED_FACE ( 'NONE', ( #262 ), #51, .T. ) ;
#9 = DIRECTION ( 'NONE',  ( -1.224646799147353200E-016, 0.0000000000000000000, -1.000000000000000000 ) ) ;
#10 = DIRECTION ( 'NONE',  ( 0.0000000000000000000, -0.0000000000000000000, 1.000000000000000000 ) ) ;
#11 = AXIS2_PLACEMENT_3D ( 'NONE', #341, #381, #382 ) ;
#12 = ADVANCED_FACE ( 'NONE', ( #273 ), #266, .T. ) ;
#13 = DIRECTION ( 'NONE',  ( -0.0000000000000000000, -1.000000000000000000, -0.0000000000000000000 ) ) ;
#14 = FACE_OUTER_BOUND ( 'NONE', #195, .T. ) ;
#15 = VERTEX_POINT ( 'NONE', #245 ) ;
#16 = TOROIDAL_SURFACE ( 'NONE', #97, 2.729565258478302300, 2.370000000000003200 ) ;
#17 = ADVANCED_FACE ( 'NONE', ( #274 ), #284, .T. ) ;
#18 = ADVANCED_FACE ( 'NONE', ( #275, #261 ), #198, .T. ) ;
#19 = EDGE_CURVE ( 'NONE', #144, #253, #277, .T. ) ;
#20 = PRODUCT_DEFINITION_FORMATION_WITH_SPECIFIED_SOURCE ( 'ANY', '', #301, .NOT_KNOWN. ) ;
#21 = DIRECTION ( 'NONE',  ( -0.0000000000000000000, -1.000000000000000000, -0.0000000000000000000 ) ) ;
#22 = VECTOR ( 'NONE', #211, 1000.000000000000000 ) ;
#23 = ORIENTED_EDGE ( 'NONE', *, *, #19, .F. ) ;
#24 = DIRECTION ( 'NONE',  ( 0.0000000000000000000, 0.0000000000000000000, 1.000000000000000000 ) ) ;
#25 = CARTESIAN_POINT ( 'NONE',  ( 0.0000000000000000000, 2.426000000000000200, -2.426000000000000200 ) ) ;
#26 = VECTOR ( 'NONE', #145, 1000.000000000000000 ) ;
#27 = CARTESIAN_POINT ( 'NONE',  ( 0.0000000000000000000, 19.62999999999999500, 0.0000000000000000000 ) ) ;
#28 =( GEOMETRIC_REPRESENTATION_CONTEXT ( 3 ) GLOBAL_UNCERTAINTY_ASSIGNED_CONTEXT ( ( #316 ) ) GLOBAL_UNIT_ASSIGNED_CONTEXT ( ( #374, #376, #377 ) ) REPRESENTATION_CONTEXT ( 'NONE', 'WORKASPACE' ) );
#29 = MECHANICAL_DESIGN_GEOMETRIC_PRESENTATION_REPRESENTATION (  '', ( #44 ), #28 ) ;
#30 = CARTESIAN_POINT ( 'NONE',  ( 6.159973399711189500E-016, 20.19999999999999900, 5.030000000000001100 ) ) ;
#31 = CIRCLE ( 'NONE', #93, 1.415999999999999900 ) ;
#32 = CARTESIAN_POINT ( 'NONE',  ( 0.0000000000000000000, 20.19999999999999900, 0.0000000000000000000 ) ) ;
#33 = PRESENTATION_LAYER_ASSIGNMENT (  '', '', ( #44 ) ) ;
#34 = DIRECTION ( 'NONE',  ( 0.0000000000000000000, -0.9238795325112892900, -0.3826834323650834500 ) ) ;
#35 = ORIENTED_EDGE ( 'NONE', *, *, #285, .T. ) ;
#36 = LINE ( 'NONE', #69, #3 ) ;
#37 = ADVANCED_FACE ( 'NONE', ( #278 ), #289, .T. ) ;
#38 = EDGE_CURVE ( 'NONE', #253, #144, #291, .T. ) ;
#39 = CIRCLE ( 'NONE', #121, 0.8499999999999999800 ) ;
#40 = CARTESIAN_POINT ( 'NONE',  ( -1.485496567365739700E-016, 0.0000000000000000000, 0.0000000000000000000 ) ) ;
#41 = AXIS2_PLACEMENT_3D ( 'NONE', #330, #340, #298 ) ;
#42 = CARTESIAN_POINT ( 'NONE',  ( 0.0000000000000000000, 46.53355512369680000, -1.415999999999999900 ) ) ;
#43 = CARTESIAN_POINT ( 'NONE',  ( 2.970993134731479500E-016, 2.426000000000000200, 2.426000000000000200 ) ) ;
#44 = STYLED_ITEM ( 'NONE', ( #98 ), #212 ) ;
#45 = CIRCLE ( 'NONE', #68, 2.426000000000000200 ) ;
#46 = CARTESIAN_POINT ( 'NONE',  ( 0.0000000000000000000, 2.426000000000000200, 0.0000000000000000000 ) ) ;
#47 = LINE ( 'NONE', #176, #26 ) ;
#48 =( GEOMETRIC_REPRESENTATION_CONTEXT ( 3 ) GLOBAL_UNCERTAINTY_ASSIGNED_CONTEXT ( ( #166 ) ) GLOBAL_UNIT_ASSIGNED_CONTEXT ( ( #348, #354, #359 ) ) REPRESENTATION_CONTEXT ( 'NONE', 'WORKASPACE' ) );
#49 = DIRECTION ( 'NONE',  ( 0.0000000000000000000, 0.0000000000000000000, -1.000000000000000000 ) ) ;
#50 = PLANE ( 'NONE',  #120 ) ;
#51 = SPHERICAL_SURFACE ( 'NONE', #235, 2.426000000000000200 ) ;
#52 = AXIS2_PLACEMENT_3D ( 'NONE', #380, #269, #287 ) ;
#53 = CARTESIAN_POINT ( 'NONE',  ( 1.387524823433950900E-016, 47.89999999999999900, 0.8499999999999999800 ) ) ;
#54 = CIRCLE ( 'NONE', #72, 2.426000000000000200 ) ;
#55 = AXIS2_PLACEMENT_3D ( 'NONE', #322, #327, #329 ) ;
#56 = VERTEX_POINT ( 'NONE', #53 ) ;
#57 = AXIS2_PLACEMENT_3D ( 'NONE', #313, #306, #299 ) ;
#58 = DIRECTION ( 'NONE',  ( 0.0000000000000000000, 0.0000000000000000000, -1.000000000000000000 ) ) ;
#59 = AXIS2_PLACEMENT_3D ( 'NONE', #366, #294, #296 ) ;
#60 = ORIENTED_EDGE ( 'NONE', *, *, #271, .F. ) ;
#61 = DIRECTION ( 'NONE',  ( 0.0000000000000000000, -1.000000000000000000, -0.0000000000000000000 ) ) ;
#62 = AXIS2_PLACEMENT_3D ( 'NONE', #244, #221, #218 ) ;
#63 = DIRECTION ( 'NONE',  ( 0.0000000000000000000, 0.0000000000000000000, -1.000000000000000000 ) ) ;
#64 = ORIENTED_EDGE ( 'NONE', *, *, #320, .F. ) ;
#65 = VERTEX_POINT ( 'NONE', #99 ) ;
#66 = FILL_AREA_STYLE ('',( #95 ) ) ;
#67 = DIRECTION ( 'NONE',  ( -0.0000000000000000000, -1.000000000000000000, -0.0000000000000000000 ) ) ;
#68 = AXIS2_PLACEMENT_3D ( 'NONE', #272, #279, #281 ) ;
#69 = CARTESIAN_POINT ( 'NONE',  ( 1.734099867592652000E-016, 0.0000000000000000000, 1.415999999999999900 ) ) ;
#70 = ORIENTED_EDGE ( 'NONE', *, *, #101, .T. ) ;
#71 = CARTESIAN_POINT ( 'NONE',  ( 1.734099867592652000E-016, 22.00000000000000000, 1.415999999999999900 ) ) ;
#72 = AXIS2_PLACEMENT_3D ( 'NONE', #290, #9, #395 ) ;
#73 =( NAMED_UNIT ( * ) SI_UNIT ( $, .STERADIAN. ) SOLID_ANGLE_UNIT ( ) );
#74 = ORIENTED_EDGE ( 'NONE', *, *, #326, .F. ) ;
#75 = ORIENTED_EDGE ( 'NONE', *, *, #319, .T. ) ;
#76 = ORIENTED_EDGE ( 'NONE', *, *, #304, .T. ) ;
#77 = AXIS2_PLACEMENT_3D ( 'NONE', #247, #249, #257 ) ;
#78 = DIRECTION ( 'NONE',  ( -0.0000000000000000000, -1.000000000000000000, -0.0000000000000000000 ) ) ;
#79 = EDGE_CURVE ( 'NONE', #191, #232, #263, .T. ) ;
#80 =( NAMED_UNIT ( * ) PLANE_ANGLE_UNIT ( ) SI_UNIT ( $, .RADIAN. ) );
#81 = AXIS2_PLACEMENT_3D ( 'NONE', #236, #239, #240 ) ;
#82 = CARTESIAN_POINT ( 'NONE',  ( 2.970993134731479500E-016, 0.0000000000000000000, 2.426000000000000200 ) ) ;
#83 = DIRECTION ( 'NONE',  ( 0.0000000000000000000, 0.0000000000000000000, -1.000000000000000000 ) ) ;
#84 = CARTESIAN_POINT ( 'NONE',  ( 0.0000000000000000000, 22.00000000000000000, 0.0000000000000000000 ) ) ;
#85 = VERTEX_POINT ( 'NONE', #40 ) ;
#86 = CARTESIAN_POINT ( 'NONE',  ( 0.0000000000000000000, 47.89999999999999900, 0.0000000000000000000 ) ) ;
#87 = EDGE_CURVE ( 'NONE', #309, #143, #282, .T. ) ;
#88 = DIRECTION ( 'NONE',  ( -0.0000000000000000000, -1.000000000000000000, -0.0000000000000000000 ) ) ;
#89 = AXIS2_PLACEMENT_3D ( 'NONE', #227, #229, #230 ) ;
#90 = CARTESIAN_POINT ( 'NONE',  ( 0.0000000000000000000, 20.19999999999999900, -5.030000000000001100 ) ) ;
#91 = DIRECTION ( 'NONE',  ( 0.0000000000000000000, 0.0000000000000000000, -1.000000000000000000 ) ) ;
#92 = DIRECTION ( 'NONE',  ( -0.0000000000000000000, -1.000000000000000000, -0.0000000000000000000 ) ) ;
#93 = AXIS2_PLACEMENT_3D ( 'NONE', #202, #205, #209 ) ;
#94 = DIRECTION ( 'NONE',  ( 0.0000000000000000000, 0.0000000000000000000, -1.000000000000000000 ) ) ;
#95 = FILL_AREA_STYLE_COLOUR ( '', #270 ) ;
#96 = ORIENTED_EDGE ( 'NONE', *, *, #79, .F. ) ;
#97 = AXIS2_PLACEMENT_3D ( 'NONE', #109, #78, #133 ) ;
#98 = PRESENTATION_STYLE_ASSIGNMENT (( #373 ) ) ;
#99 = CARTESIAN_POINT ( 'NONE',  ( 0.0000000000000000000, 47.89999999999999900, -0.8499999999999999800 ) ) ;
#100 = DIRECTION ( 'NONE',  ( -0.0000000000000000000, -1.000000000000000000, -0.0000000000000000000 ) ) ;
#101 = EDGE_CURVE ( 'NONE', #104, #189, #292, .T. ) ;
#102 = ORIENTED_EDGE ( 'NONE', *, *, #203, .F. ) ;
#103 = AXIS2_PLACEMENT_3D ( 'NONE', #156, #168, #174 ) ;
#104 = VERTEX_POINT ( 'NONE', #372 ) ;
#105 = ORIENTED_EDGE ( 'NONE', *, *, #326, .T. ) ;
#106 = ORIENTED_EDGE ( 'NONE', *, *, #264, .T. ) ;
#107 = AXIS2_PLACEMENT_3D ( 'NONE', #122, #129, #130 ) ;
#108 = CONICAL_SURFACE ( 'NONE', #57, 1.415999999999999900, 0.3926990816987173700 ) ;
#109 = CARTESIAN_POINT ( 'NONE',  ( 0.0000000000000000000, 19.62999999999999500, 0.0000000000000000000 ) ) ;
#110 = AXIS2_PLACEMENT_3D ( 'NONE', #114, #115, #116 ) ;
#111 = ORIENTED_EDGE ( 'NONE', *, *, #197, .T. ) ;
#112 = ORIENTED_EDGE ( 'NONE', *, *, #203, .T. ) ;
#113 = ORIENTED_EDGE ( 'NONE', *, *, #276, .F. ) ;
#114 = CARTESIAN_POINT ( 'NONE',  ( 0.0000000000000000000, 20.19999999999999900, 0.0000000000000000000 ) ) ;
#115 = DIRECTION ( 'NONE',  ( -0.0000000000000000000, -1.000000000000000000, -0.0000000000000000000 ) ) ;
#116 = DIRECTION ( 'NONE',  ( 0.0000000000000000000, 0.0000000000000000000, -1.000000000000000000 ) ) ;
#117 = ORIENTED_EDGE ( 'NONE', *, *, #358, .T. ) ;
#118 = ORIENTED_EDGE ( 'NONE', *, *, #87, .F. ) ;
#119 = ORIENTED_EDGE ( 'NONE', *, *, #197, .F. ) ;
#120 = AXIS2_PLACEMENT_3D ( 'NONE', #217, #61, #63 ) ;
#121 = AXIS2_PLACEMENT_3D ( 'NONE', #86, #92, #94 ) ;
#122 = CARTESIAN_POINT ( 'NONE',  ( 0.0000000000000000000, 47.89999999999999900, 0.0000000000000000000 ) ) ;
#123 = MANIFOLD_SOLID_BREP ( 'Revolve1', #192 ) ;
#124 = ORIENTED_EDGE ( 'NONE', *, *, #276, .T. ) ;
#125 = EDGE_LOOP ( 'NONE', ( #113, #105, #75, #96 ) ) ;
#126 = ORIENTED_EDGE ( 'NONE', *, *, #325, .T. ) ;
#127 = CARTESIAN_POINT ( 'NONE',  ( 0.0000000000000000000, 19.62999999999999500, -2.729565258478302300 ) ) ;
#128 = AXIS2_PLACEMENT_3D ( 'NONE', #187, #175, #142 ) ;
#129 = DIRECTION ( 'NONE',  ( -0.0000000000000000000, -1.000000000000000000, -0.0000000000000000000 ) ) ;
#130 = DIRECTION ( 'NONE',  ( 0.0000000000000000000, 0.0000000000000000000, -1.000000000000000000 ) ) ;
#131 = ORIENTED_EDGE ( 'NONE', *, *, #256, .F. ) ;
#132 = ORIENTED_EDGE ( 'NONE', *, *, #361, .F. ) ;
#133 = DIRECTION ( 'NONE',  ( 0.0000000000000000000, 0.0000000000000000000, -1.000000000000000000 ) ) ;
#134 = CARTESIAN_POINT ( 'NONE',  ( 0.0000000000000000000, 20.19999999999999900, 0.0000000000000000000 ) ) ;
#135 = CYLINDRICAL_SURFACE ( 'NONE', #52, 2.426000000000000200 ) ;
#136 = AXIS2_PLACEMENT_3D ( 'NONE', #27, #21, #5 ) ;
#137 = CARTESIAN_POINT ( 'NONE',  ( 0.0000000000000000000, 2.426000000000000200, 0.0000000000000000000 ) ) ;
#138 = ORIENTED_EDGE ( 'NONE', *, *, #38, .T. ) ;
#139 = AXIS2_PLACEMENT_3D ( 'NONE', #331, #7, #10 ) ;
#140 = DIRECTION ( 'NONE',  ( 0.0000000000000000000, -0.0000000000000000000, 1.000000000000000000 ) ) ;
#141 = UNCERTAINTY_MEASURE_WITH_UNIT (LENGTH_MEASURE( 1.000000000000000100E-005 ), #396, 'distance_accuracy_value', 'NONE');
#142 = DIRECTION ( 'NONE',  ( 0.0000000000000000000, 0.0000000000000000000, -1.000000000000000000 ) ) ;
#143 = VERTEX_POINT ( 'NONE', #332 ) ;
#144 = VERTEX_POINT ( 'NONE', #90 ) ;
#145 = DIRECTION ( 'NONE',  ( -0.0000000000000000000, -1.000000000000000000, -0.0000000000000000000 ) ) ;
#146 = AXIS2_PLACEMENT_3D ( 'NONE', #46, #344, #49 ) ;
#147 = CARTESIAN_POINT ( 'NONE',  ( 4.751363378285230300E-016, 22.00000000000000000, 2.729565258478301900 ) ) ;
#148 = CYLINDRICAL_SURFACE ( 'NONE', #62, 2.426000000000000200 ) ;
#149 = DIRECTION ( 'NONE',  ( 0.0000000000000000000, 0.0000000000000000000, -1.000000000000000000 ) ) ;
#150 = ORIENTED_EDGE ( 'NONE', *, *, #349, .F. ) ;
#151 = ORIENTED_EDGE ( 'NONE', *, *, #264, .F. ) ;
#152 = VERTEX_POINT ( 'NONE', #25 ) ;
#153 = DIRECTION ( 'NONE',  ( -0.0000000000000000000, -1.000000000000000000, -0.0000000000000000000 ) ) ;
#154 = ORIENTED_EDGE ( 'NONE', *, *, #267, .F. ) ;
#155 = AXIS2_PLACEMENT_3D ( 'NONE', #392, #390, #389 ) ;
#156 = CARTESIAN_POINT ( 'NONE',  ( 0.0000000000000000000, 2.426000000000000200, 0.0000000000000000000 ) ) ;
#157 = AXIS2_PLACEMENT_3D ( 'NONE', #127, #167, #24 ) ;
#158 = ORIENTED_EDGE ( 'NONE', *, *, #79, .T. ) ;
#159 = ORIENTED_EDGE ( 'NONE', *, *, #320, .T. ) ;
#160 = CIRCLE ( 'NONE', #55, 2.426000000000000200 ) ;
#161 = ORIENTED_EDGE ( 'NONE', *, *, #38, .F. ) ;
#162 = CARTESIAN_POINT ( 'NONE',  ( 0.0000000000000000000, 0.0000000000000000000, 0.0000000000000000000 ) ) ;
#163 = ORIENTED_EDGE ( 'NONE', *, *, #186, .T. ) ;
#164 =( GEOMETRIC_REPRESENTATION_CONTEXT ( 3 ) GLOBAL_UNCERTAINTY_ASSIGNED_CONTEXT ( ( #141 ) ) GLOBAL_UNIT_ASSIGNED_CONTEXT ( ( #396, #80, #73 ) ) REPRESENTATION_CONTEXT ( 'NONE', 'WORKASPACE' ) );
#165 = ORIENTED_EDGE ( 'NONE', *, *, #335, .T. ) ;
#166 = UNCERTAINTY_MEASURE_WITH_UNIT (LENGTH_MEASURE( 1.000000000000000100E-005 ), #348, 'distance_accuracy_value', 'NONE');
#167 = DIRECTION ( 'NONE',  ( -1.000000000000000000, 0.0000000000000000000, 0.0000000000000000000 ) ) ;
#168 = DIRECTION ( 'NONE',  ( -0.0000000000000000000, -1.000000000000000000, -0.0000000000000000000 ) ) ;
#169 = ORIENTED_EDGE ( 'NONE', *, *, #87, .T. ) ;
#170 = EDGE_LOOP ( 'NONE', ( #119, #118 ) ) ;
#171 = SURFACE_SIDE_STYLE ('',( #293 ) ) ;
#172 = PRODUCT_DEFINITION_CONTEXT ( 'detailed design', #388, 'design' ) ;
#173 = MECHANICAL_DESIGN_GEOMETRIC_PRESENTATION_REPRESENTATION (  '', ( #183 ), #164 ) ;
#174 = DIRECTION ( 'NONE',  ( 0.0000000000000000000, 0.0000000000000000000, -1.000000000000000000 ) ) ;
#175 = DIRECTION ( 'NONE',  ( -0.0000000000000000000, -1.000000000000000000, -0.0000000000000000000 ) ) ;
#176 = CARTESIAN_POINT ( 'NONE',  ( 0.0000000000000000000, 0.0000000000000000000, -1.415999999999999900 ) ) ;
#177 = ORIENTED_EDGE ( 'NONE', *, *, #335, .F. ) ;
#178 = CARTESIAN_POINT ( 'NONE',  ( 0.0000000000000000000, 0.0000000000000000000, -2.426000000000000200 ) ) ;
#179 = ORIENTED_EDGE ( 'NONE', *, *, #285, .F. ) ;
#180 = EDGE_LOOP ( 'NONE', ( #60, #194 ) ) ;
#181 = CIRCLE ( 'NONE', #89, 1.415999999999999900 ) ;
#182 = PRESENTATION_LAYER_ASSIGNMENT (  '', '', ( #183 ) ) ;
#183 = STYLED_ITEM ( 'NONE', ( #310 ), #123 ) ;
#184 = ORIENTED_EDGE ( 'NONE', *, *, #19, .T. ) ;
#185 = CARTESIAN_POINT ( 'NONE',  ( -2.426000000000000200, 2.426000000000000200, 0.0000000000000000000 ) ) ;
#186 = EDGE_CURVE ( 'NONE', #143, #144, #336, .T. ) ;
#187 = CARTESIAN_POINT ( 'NONE',  ( 0.0000000000000000000, 46.53355512369680000, 0.0000000000000000000 ) ) ;
#188 = EDGE_LOOP ( 'NONE', ( #159, #158 ) ) ;
#189 = VERTEX_POINT ( 'NONE', #43 ) ;
#190 = AXIS2_PLACEMENT_3D ( 'NONE', #314, #321, #324 ) ;
#191 = VERTEX_POINT ( 'NONE', #71 ) ;
#192 = CLOSED_SHELL ( 'NONE', ( #17, #386, #248, #367, #8, #12, #337, #268, #303, #18, #37, #384, #238 ) ) ;
#193 = AXIS2_PLACEMENT_3D ( 'NONE', #162, #100, #149 ) ;
#194 = ORIENTED_EDGE ( 'NONE', *, *, #295, .F. ) ;
#195 = EDGE_LOOP ( 'NONE', ( #312, #35, #126, #150, #131 ) ) ;
#196 = DIRECTION ( 'NONE',  ( -1.000000000000000000, 0.0000000000000000000, 0.0000000000000000000 ) ) ;
#197 = EDGE_CURVE ( 'NONE', #143, #309, #347, .T. ) ;
#198 = PLANE ( 'NONE',  #224 ) ;
#199 = ORIENTED_EDGE ( 'NONE', *, *, #368, .F. ) ;
#200 = ORIENTED_EDGE ( 'NONE', *, *, #328, .T. ) ;
#201 = AXIS2_PLACEMENT_3D ( 'NONE', #32, #13, #58 ) ;
#202 = CARTESIAN_POINT ( 'NONE',  ( 0.0000000000000000000, 22.00000000000000000, 0.0000000000000000000 ) ) ;
#203 = EDGE_CURVE ( 'NONE', #56, #15, #346, .T. ) ;
#204 = SURFACE_STYLE_USAGE ( .BOTH. , #171 ) ;
#205 = DIRECTION ( 'NONE',  ( -0.0000000000000000000, -1.000000000000000000, -0.0000000000000000000 ) ) ;
#206 = EDGE_LOOP ( 'NONE', ( #177, #169, #163, #161 ) ) ;
#207 = EDGE_LOOP ( 'NONE', ( #102, #234, #106, #74 ) ) ;
#208 = ORIENTED_EDGE ( 'NONE', *, *, #349, .T. ) ;
#209 = DIRECTION ( 'NONE',  ( 0.0000000000000000000, 0.0000000000000000000, -1.000000000000000000 ) ) ;
#210 = DIRECTION ( 'NONE',  ( 0.0000000000000000000, 0.0000000000000000000, -1.000000000000000000 ) ) ;
#211 = DIRECTION ( 'NONE',  ( -0.0000000000000000000, -1.000000000000000000, -0.0000000000000000000 ) ) ;
#212 = ADVANCED_BREP_SHAPE_REPRESENTATION ( '01661-00621', ( #123, #11 ), #48 ) ;
#213 = CARTESIAN_POINT ( 'NONE',  ( 1.734099867592652000E-016, 46.53355512369680000, 1.415999999999999900 ) ) ;
#214 = ORIENTED_EDGE ( 'NONE', *, *, #325, .F. ) ;
#215 = ORIENTED_EDGE ( 'NONE', *, *, #328, .F. ) ;
#216 = ORIENTED_EDGE ( 'NONE', *, *, #319, .F. ) ;
#217 = CARTESIAN_POINT ( 'NONE',  ( 2.426000000000000200, 20.19999999999999900, 0.0000000000000000000 ) ) ;
#218 = DIRECTION ( 'NONE',  ( 0.0000000000000000000, 0.0000000000000000000, -1.000000000000000000 ) ) ;
#219 = EDGE_LOOP ( 'NONE', ( #184, #138 ) ) ;
#220 = EDGE_LOOP ( 'NONE', ( #132, #179 ) ) ;
#221 = DIRECTION ( 'NONE',  ( -0.0000000000000000000, -1.000000000000000000, -0.0000000000000000000 ) ) ;
#222 = AXIS2_PLACEMENT_3D ( 'NONE', #84, #88, #91 ) ;
#223 = CARTESIAN_POINT ( 'NONE',  ( 0.0000000000000000000, 46.53355512369680000, 0.0000000000000000000 ) ) ;
#224 = AXIS2_PLACEMENT_3D ( 'NONE', #280, #302, #140 ) ;
#225 = ORIENTED_EDGE ( 'NONE', *, *, #304, .F. ) ;
#226 = EDGE_LOOP ( 'NONE', ( #241, #70, #225, #215, #214 ) ) ;
#227 = CARTESIAN_POINT ( 'NONE',  ( 0.0000000000000000000, 46.53355512369680000, 0.0000000000000000000 ) ) ;
#228 = AXIS2_PLACEMENT_3D ( 'NONE', #134, #153, #83 ) ;
#229 = DIRECTION ( 'NONE',  ( -0.0000000000000000000, -1.000000000000000000, -0.0000000000000000000 ) ) ;
#230 = DIRECTION ( 'NONE',  ( 0.0000000000000000000, 0.0000000000000000000, -1.000000000000000000 ) ) ;
#231 = AXIS2_PLACEMENT_3D ( 'NONE', #258, #251, #196 ) ;
#232 = VERTEX_POINT ( 'NONE', #383 ) ;
#233 = ORIENTED_EDGE ( 'NONE', *, *, #186, .F. ) ;
#234 = ORIENTED_EDGE ( 'NONE', *, *, #295, .T. ) ;
#235 = AXIS2_PLACEMENT_3D ( 'NONE', #137, #242, #254 ) ;
#236 = CARTESIAN_POINT ( 'NONE',  ( 0.0000000000000000000, 2.426000000000000200, 0.0000000000000000000 ) ) ;
#237 = VERTEX_POINT ( 'NONE', #305 ) ;
#238 = ADVANCED_FACE ( 'NONE', ( #338 ), #308, .T. ) ;
#239 = DIRECTION ( 'NONE',  ( -0.0000000000000000000, -1.000000000000000000, -0.0000000000000000000 ) ) ;
#240 = DIRECTION ( 'NONE',  ( 0.0000000000000000000, 0.0000000000000000000, -1.000000000000000000 ) ) ;
#241 = ORIENTED_EDGE ( 'NONE', *, *, #361, .T. ) ;
#242 = DIRECTION ( 'NONE',  ( -0.0000000000000000000, -0.0000000000000000000, -1.000000000000000000 ) ) ;
#243 = AXIS2_PLACEMENT_3D ( 'NONE', #223, #300, #210 ) ;
#244 = CARTESIAN_POINT ( 'NONE',  ( 0.0000000000000000000, 0.0000000000000000000, 0.0000000000000000000 ) ) ;
#245 = CARTESIAN_POINT ( 'NONE',  ( 1.734099867592652000E-016, 46.53355512369680000, 1.415999999999999900 ) ) ;
#246 = ORIENTED_EDGE ( 'NONE', *, *, #271, .T. ) ;
#247 = CARTESIAN_POINT ( 'NONE',  ( 3.342753356859270600E-016, 19.62999999999999500, 2.729565258478302300 ) ) ;
#248 = ADVANCED_FACE ( 'NONE', ( #339 ), #350, .T. ) ;
#249 = DIRECTION ( 'NONE',  ( 1.000000000000000000, 0.0000000000000000000, -1.224646799147353200E-016 ) ) ;
#250 = SURFACE_STYLE_FILL_AREA ( #370 ) ;
#251 = DIRECTION ( 'NONE',  ( -0.0000000000000000000, -0.0000000000000000000, -1.000000000000000000 ) ) ;
#252 = VERTEX_POINT ( 'NONE', #353 ) ;
#253 = VERTEX_POINT ( 'NONE', #30 ) ;
#254 = DIRECTION ( 'NONE',  ( -1.000000000000000000, 0.0000000000000000000, 0.0000000000000000000 ) ) ;
#255 = EDGE_LOOP ( 'NONE', ( #283, #76, #318, #311 ) ) ;
#256 = EDGE_CURVE ( 'NONE', #189, #323, #352, .T. ) ;
#257 = DIRECTION ( 'NONE',  ( -1.224646799147353200E-016, 0.0000000000000000000, -1.000000000000000000 ) ) ;
#258 = CARTESIAN_POINT ( 'NONE',  ( 0.0000000000000000000, 2.426000000000000200, 0.0000000000000000000 ) ) ;
#259 = EDGE_LOOP ( 'NONE', ( #111, #165, #23, #233 ) ) ;
#260 = EDGE_LOOP ( 'NONE', ( #286, #124, #64, #216 ) ) ;
#261 = FACE_OUTER_BOUND ( 'NONE', #170, .T. ) ;
#262 = FACE_OUTER_BOUND ( 'NONE', #317, .T. ) ;
#263 = CIRCLE ( 'NONE', #222, 1.415999999999999900 ) ;
#264 = EDGE_CURVE ( 'NONE', #65, #357, #345, .T. ) ;
#265 = CARTESIAN_POINT ( 'NONE',  ( 0.0000000000000000000, 46.53355512369680000, -1.415999999999999900 ) ) ;
#266 = SPHERICAL_SURFACE ( 'NONE', #231, 2.426000000000000200 ) ;
#267 = EDGE_CURVE ( 'NONE', #357, #15, #351, .T. ) ;
#268 = ADVANCED_FACE ( 'NONE', ( #355, #365 ), #50, .T. ) ;
#269 = DIRECTION ( 'NONE',  ( -0.0000000000000000000, -1.000000000000000000, -0.0000000000000000000 ) ) ;
#270 = COLOUR_RGB ( '',0.7921568627450980000, 0.8196078431372548800, 0.9333333333333333500 ) ;
#271 = EDGE_CURVE ( 'NONE', #65, #56, #39, .T. ) ;
#272 = CARTESIAN_POINT ( 'NONE',  ( 0.0000000000000000000, 2.426000000000000200, 0.0000000000000000000 ) ) ;
#273 = FACE_OUTER_BOUND ( 'NONE', #255, .T. ) ;
#274 = FACE_OUTER_BOUND ( 'NONE', #6, .T. ) ;
#275 = FACE_BOUND ( 'NONE', #188, .T. ) ;
#276 = EDGE_CURVE ( 'NONE', #15, #191, #36, .T. ) ;
#277 = CIRCLE ( 'NONE', #228, 5.030000000000002000 ) ;
#278 = FACE_OUTER_BOUND ( 'NONE', #125, .T. ) ;
#279 = DIRECTION ( 'NONE',  ( -0.0000000000000000000, -1.000000000000000000, -0.0000000000000000000 ) ) ;
#280 = CARTESIAN_POINT ( 'NONE',  ( 1.415999999999999900, 22.00000000000000000, 0.0000000000000000000 ) ) ;
#281 = DIRECTION ( 'NONE',  ( 0.0000000000000000000, 0.0000000000000000000, -1.000000000000000000 ) ) ;
#282 = CIRCLE ( 'NONE', #190, 2.729565258478301900 ) ;
#283 = ORIENTED_EDGE ( 'NONE', *, *, #358, .F. ) ;
#284 = CONICAL_SURFACE ( 'NONE', #243, 1.415999999999999900, 0.3926990816987173700 ) ;
#285 = EDGE_CURVE ( 'NONE', #104, #252, #356, .T. ) ;
#286 = ORIENTED_EDGE ( 'NONE', *, *, #267, .T. ) ;
#287 = DIRECTION ( 'NONE',  ( 0.0000000000000000000, 0.0000000000000000000, -1.000000000000000000 ) ) ;
#288 = VECTOR ( 'NONE', #307, 1000.000000000000000 ) ;
#289 = CYLINDRICAL_SURFACE ( 'NONE', #193, 1.415999999999999900 ) ;
#290 = CARTESIAN_POINT ( 'NONE',  ( 0.0000000000000000000, 2.426000000000000200, 0.0000000000000000000 ) ) ;
#291 = CIRCLE ( 'NONE', #201, 5.030000000000002000 ) ;
#292 = LINE ( 'NONE', #82, #288 ) ;
#293 = SURFACE_STYLE_FILL_AREA ( #66 ) ;
#294 = DIRECTION ( 'NONE',  ( -0.0000000000000000000, -1.000000000000000000, -0.0000000000000000000 ) ) ;
#295 = EDGE_CURVE ( 'NONE', #56, #65, #360, .T. ) ;
#296 = DIRECTION ( 'NONE',  ( 0.0000000000000000000, 0.0000000000000000000, -1.000000000000000000 ) ) ;
#297 = FACE_OUTER_BOUND ( 'NONE', #226, .T. ) ;
#298 = DIRECTION ( 'NONE',  ( 0.0000000000000000000, 0.0000000000000000000, -1.000000000000000000 ) ) ;
#299 = DIRECTION ( 'NONE',  ( 0.0000000000000000000, 0.0000000000000000000, -1.000000000000000000 ) ) ;
#300 = DIRECTION ( 'NONE',  ( -0.0000000000000000000, -1.000000000000000000, -0.0000000000000000000 ) ) ;
#301 = PRODUCT ( '01661-00621', '01661-00621', '', ( #385 ) ) ;
#302 = DIRECTION ( 'NONE',  ( 0.0000000000000000000, 1.000000000000000000, 0.0000000000000000000 ) ) ;
#303 = ADVANCED_FACE ( 'NONE', ( #2 ), #16, .T. ) ;
#304 = EDGE_CURVE ( 'NONE', #237, #189, #379, .T. ) ;
#305 = CARTESIAN_POINT ( 'NONE',  ( 2.426000000000000200, 2.426000000000000200, -2.970993134731479500E-016 ) ) ;
#306 = DIRECTION ( 'NONE',  ( -0.0000000000000000000, -1.000000000000000000, -0.0000000000000000000 ) ) ;
#307 = DIRECTION ( 'NONE',  ( -0.0000000000000000000, -1.000000000000000000, -0.0000000000000000000 ) ) ;
#308 = PLANE ( 'NONE',  #139 ) ;
#309 = VERTEX_POINT ( 'NONE', #147 ) ;
#310 = PRESENTATION_STYLE_ASSIGNMENT (( #204 ) ) ;
#311 = ORIENTED_EDGE ( 'NONE', *, *, #368, .T. ) ;
#312 = ORIENTED_EDGE ( 'NONE', *, *, #101, .F. ) ;
#313 = CARTESIAN_POINT ( 'NONE',  ( 0.0000000000000000000, 46.53355512369680000, 0.0000000000000000000 ) ) ;
#314 = CARTESIAN_POINT ( 'NONE',  ( 0.0000000000000000000, 22.00000000000000000, 0.0000000000000000000 ) ) ;
#315 = FACE_OUTER_BOUND ( 'NONE', #260, .T. ) ;
#316 = UNCERTAINTY_MEASURE_WITH_UNIT (LENGTH_MEASURE( 1.000000000000000100E-005 ), #374, 'distance_accuracy_value', 'NONE');
#317 = EDGE_LOOP ( 'NONE', ( #208, #200, #117, #199 ) ) ;
#318 = ORIENTED_EDGE ( 'NONE', *, *, #256, .T. ) ;
#319 = EDGE_CURVE ( 'NONE', #357, #232, #47, .T. ) ;
#320 = EDGE_CURVE ( 'NONE', #232, #191, #31, .T. ) ;
#321 = DIRECTION ( 'NONE',  ( -0.0000000000000000000, -1.000000000000000000, -0.0000000000000000000 ) ) ;
#322 = CARTESIAN_POINT ( 'NONE',  ( 0.0000000000000000000, 2.426000000000000200, 0.0000000000000000000 ) ) ;
#323 = VERTEX_POINT ( 'NONE', #185 ) ;
#324 = DIRECTION ( 'NONE',  ( 0.0000000000000000000, 0.0000000000000000000, -1.000000000000000000 ) ) ;
#325 = EDGE_CURVE ( 'NONE', #252, #152, #378, .T. ) ;
#326 = EDGE_CURVE ( 'NONE', #15, #357, #181, .T. ) ;
#327 = DIRECTION ( 'NONE',  ( -0.0000000000000000000, 0.0000000000000000000, 1.000000000000000000 ) ) ;
#328 = EDGE_CURVE ( 'NONE', #152, #237, #1, .T. ) ;
#329 = DIRECTION ( 'NONE',  ( 1.000000000000000000, 0.0000000000000000000, 0.0000000000000000000 ) ) ;
#330 = CARTESIAN_POINT ( 'NONE',  ( 0.0000000000000000000, 0.0000000000000000000, 0.0000000000000000000 ) ) ;
#331 = CARTESIAN_POINT ( 'NONE',  ( 0.8499999999999999800, 47.89999999999999900, 0.0000000000000000000 ) ) ;
#332 = CARTESIAN_POINT ( 'NONE',  ( 0.0000000000000000000, 22.00000000000000000, -2.729565258478301900 ) ) ;
#333 = PRODUCT_DEFINITION_SHAPE ( 'NONE', 'NONE',  #4 ) ;
#334 = CYLINDRICAL_SURFACE ( 'NONE', #41, 1.415999999999999900 ) ;
#335 = EDGE_CURVE ( 'NONE', #309, #253, #369, .T. ) ;
#336 = CIRCLE ( 'NONE', #157, 2.370000000000003200 ) ;
#337 = ADVANCED_FACE ( 'NONE', ( #14 ), #148, .T. ) ;
#338 = FACE_OUTER_BOUND ( 'NONE', #180, .T. ) ;
#339 = FACE_OUTER_BOUND ( 'NONE', #259, .T. ) ;
#340 = DIRECTION ( 'NONE',  ( -0.0000000000000000000, -1.000000000000000000, -0.0000000000000000000 ) ) ;
#341 = CARTESIAN_POINT ( 'NONE',  ( 0.0000000000000000000, 0.0000000000000000000, 0.0000000000000000000 ) ) ;
#342 = VECTOR ( 'NONE', #398, 1000.000000000000100 ) ;
#343 = VECTOR ( 'NONE', #34, 1000.000000000000100 ) ;
#344 = DIRECTION ( 'NONE',  ( -0.0000000000000000000, -1.000000000000000000, -0.0000000000000000000 ) ) ;
#345 = LINE ( 'NONE', #42, #343 ) ;
#346 = LINE ( 'NONE', #213, #342 ) ;
#347 = CIRCLE ( 'NONE', #155, 2.729565258478301900 ) ;
#348 =( LENGTH_UNIT ( ) NAMED_UNIT ( * ) SI_UNIT ( .MILLI., .METRE. ) );
#349 = EDGE_CURVE ( 'NONE', #323, #152, #45, .T. ) ;
#350 = TOROIDAL_SURFACE ( 'NONE', #136, 2.729565258478302300, 2.370000000000003200 ) ;
#351 = CIRCLE ( 'NONE', #128, 1.415999999999999900 ) ;
#352 = CIRCLE ( 'NONE', #146, 2.426000000000000200 ) ;
#353 = CARTESIAN_POINT ( 'NONE',  ( 0.0000000000000000000, 20.19999999999999900, -2.426000000000000200 ) ) ;
#354 =( NAMED_UNIT ( * ) PLANE_ANGLE_UNIT ( ) SI_UNIT ( $, .RADIAN. ) );
#355 = FACE_OUTER_BOUND ( 'NONE', #219, .T. ) ;
#356 = CIRCLE ( 'NONE', #110, 2.426000000000000200 ) ;
#357 = VERTEX_POINT ( 'NONE', #265 ) ;
#358 = EDGE_CURVE ( 'NONE', #237, #85, #54, .T. ) ;
#359 =( NAMED_UNIT ( * ) SI_UNIT ( $, .STERADIAN. ) SOLID_ANGLE_UNIT ( ) );
#360 = CIRCLE ( 'NONE', #107, 0.8499999999999999800 ) ;
#361 = EDGE_CURVE ( 'NONE', #252, #104, #397, .T. ) ;
#362 = APPLICATION_PROTOCOL_DEFINITION ( 'draft international standard', 'automotive_design', 1998, #363 ) ;
#363 = APPLICATION_CONTEXT ( 'automotive_design' ) ;
#364 = FILL_AREA_STYLE_COLOUR ( '', #375 ) ;
#365 = FACE_BOUND ( 'NONE', #220, .T. ) ;
#366 = CARTESIAN_POINT ( 'NONE',  ( 0.0000000000000000000, 20.19999999999999900, 0.0000000000000000000 ) ) ;
#367 = ADVANCED_FACE ( 'NONE', ( #297 ), #135, .T. ) ;
#368 = EDGE_CURVE ( 'NONE', #323, #85, #160, .T. ) ;
#369 = CIRCLE ( 'NONE', #77, 2.370000000000003200 ) ;
#370 = FILL_AREA_STYLE ('',( #364 ) ) ;
#371 = SURFACE_SIDE_STYLE ('',( #250 ) ) ;
#372 = CARTESIAN_POINT ( 'NONE',  ( 2.970993134731479500E-016, 20.19999999999999900, 2.426000000000000200 ) ) ;
#373 = SURFACE_STYLE_USAGE ( .BOTH. , #371 ) ;
#374 =( LENGTH_UNIT ( ) NAMED_UNIT ( * ) SI_UNIT ( .MILLI., .METRE. ) );
#375 = COLOUR_RGB ( '',0.7921568627450980000, 0.8196078431372548800, 0.9333333333333333500 ) ;
#376 =( NAMED_UNIT ( * ) PLANE_ANGLE_UNIT ( ) SI_UNIT ( $, .RADIAN. ) );
#377 =( NAMED_UNIT ( * ) SI_UNIT ( $, .STERADIAN. ) SOLID_ANGLE_UNIT ( ) );
#378 = LINE ( 'NONE', #178, #22 ) ;
#379 = CIRCLE ( 'NONE', #103, 2.426000000000000200 ) ;
#380 = CARTESIAN_POINT ( 'NONE',  ( 0.0000000000000000000, 0.0000000000000000000, 0.0000000000000000000 ) ) ;
#381 = DIRECTION ( 'NONE',  ( 0.0000000000000000000, 0.0000000000000000000, 1.000000000000000000 ) ) ;
#382 = DIRECTION ( 'NONE',  ( 1.000000000000000000, 0.0000000000000000000, 0.0000000000000000000 ) ) ;
#383 = CARTESIAN_POINT ( 'NONE',  ( 0.0000000000000000000, 22.00000000000000000, -1.415999999999999900 ) ) ;
#384 = ADVANCED_FACE ( 'NONE', ( #393 ), #108, .T. ) ;
#385 = PRODUCT_CONTEXT ( 'NONE', #363, 'mechanical' ) ;
#386 = ADVANCED_FACE ( 'NONE', ( #315 ), #334, .T. ) ;
#387 = SHAPE_DEFINITION_REPRESENTATION ( #333, #212 ) ;
#388 = APPLICATION_CONTEXT ( 'automotive_design' ) ;
#389 = DIRECTION ( 'NONE',  ( 0.0000000000000000000, 0.0000000000000000000, -1.000000000000000000 ) ) ;
#390 = DIRECTION ( 'NONE',  ( -0.0000000000000000000, -1.000000000000000000, -0.0000000000000000000 ) ) ;
#391 = APPLICATION_PROTOCOL_DEFINITION ( 'draft international standard', 'automotive_design', 1998, #388 ) ;
#392 = CARTESIAN_POINT ( 'NONE',  ( 0.0000000000000000000, 22.00000000000000000, 0.0000000000000000000 ) ) ;
#393 = FACE_OUTER_BOUND ( 'NONE', #207, .T. ) ;
#394 = PRODUCT_RELATED_PRODUCT_CATEGORY ( 'part', '', ( #301 ) ) ;
#395 = DIRECTION ( 'NONE',  ( -1.000000000000000000, 0.0000000000000000000, 1.224646799147353500E-016 ) ) ;
#396 =( LENGTH_UNIT ( ) NAMED_UNIT ( * ) SI_UNIT ( .MILLI., .METRE. ) );
#397 = CIRCLE ( 'NONE', #59, 2.426000000000000200 ) ;
#398 = DIRECTION ( 'NONE',  ( 4.686520405326220900E-017, -0.9238795325112892900, 0.3826834323650834500 ) ) ;
ENDSEC;
END-ISO-10303-21;
