ISO-10303-21;
HEADER;
FILE_DESCRIPTION (( 'STEP AP214' ),
    '1' );
FILE_NAME ('01661-00613MING_01_60mm.STEP',
    '2016-04-28T08:59:47',
    ( '' ),
    ( '' ),
    'SwSTEP 2.0',
    'SolidWorks 2015',
    '' );
FILE_SCHEMA (( 'AUTOMOTIVE_DESIGN' ));
ENDSEC;

DATA;
#1 = DIRECTION ( 'NONE',  ( 0.0000000000000000000, 0.0000000000000000000, 1.000000000000000000 ) ) ;
#2 = VERTEX_POINT ( 'NONE', #105 ) ;
#3 = CARTESIAN_POINT ( 'NONE',  ( 0.0000000000000000000, 7.099999999999998800, 0.0000000000000000000 ) ) ;
#4 = ORIENTED_EDGE ( 'NONE', *, *, #181, .F. ) ;
#5 = PRODUCT ( '01661-00613MING_01_60mm', '01661-00613MING_01_60mm', '', ( #76 ) ) ;
#6 = EDGE_CURVE ( 'NONE', #24, #93, #96, .T. ) ;
#7 = CARTESIAN_POINT ( 'NONE',  ( 0.0000000000000000000, 2.802372543132418200, -1.658947368421053600 ) ) ;
#8 = ADVANCED_BREP_SHAPE_REPRESENTATION ( '01661-00613MING_01_60mm', ( #308, #13 ), #342 ) ;
#9 = EDGE_LOOP ( 'NONE', ( #160, #156, #155, #170 ) ) ;
#10 = DIRECTION ( 'NONE',  ( 0.0000000000000000000, 0.0000000000000000000, -1.000000000000000000 ) ) ;
#11 = DIRECTION ( 'NONE',  ( 0.0000000000000000000, 0.0000000000000000000, -1.000000000000000000 ) ) ;
#12 = TOROIDAL_SURFACE ( 'NONE', #166, 2.665000000000000000, 2.453673611111113000 ) ;
#13 = AXIS2_PLACEMENT_3D ( 'NONE', #80, #1, #112 ) ;
#14 = ORIENTED_EDGE ( 'NONE', *, *, #50, .T. ) ;
#15 = DIRECTION ( 'NONE',  ( 0.0000000000000000000, 0.0000000000000000000, -1.000000000000000000 ) ) ;
#16 = DIRECTION ( 'NONE',  ( -0.0000000000000000000, -1.000000000000000000, -0.0000000000000000000 ) ) ;
#17 = ORIENTED_EDGE ( 'NONE', *, *, #6, .F. ) ;
#18 = AXIS2_PLACEMENT_3D ( 'NONE', #322, #348, #157 ) ;
#19 = ORIENTED_EDGE ( 'NONE', *, *, #219, .T. ) ;
#20 = CIRCLE ( 'NONE', #107, 3.598480967438468800 ) ;
#21 = AXIS2_PLACEMENT_3D ( 'NONE', #70, #286, #103 ) ;
#22 = DIRECTION ( 'NONE',  ( 0.0000000000000000000, 0.0000000000000000000, 1.000000000000000000 ) ) ;
#23 = COLOUR_RGB ( '',0.7921568627450980000, 0.8196078431372548800, 0.9333333333333333500 ) ;
#24 = VERTEX_POINT ( 'NONE', #159 ) ;
#25 = CLOSED_SHELL ( 'NONE', ( #347, #241, #32, #321, #153, #341, #30, #79, #291, #344, #271, #149 ) ) ;
#26 = EDGE_LOOP ( 'NONE', ( #131, #179 ) ) ;
#27 = DIRECTION ( 'NONE',  ( -1.224646799147353200E-016, 0.0000000000000000000, -1.000000000000000000 ) ) ;
#28 = FACE_OUTER_BOUND ( 'NONE', #264, .T. ) ;
#29 = CARTESIAN_POINT ( 'NONE',  ( 0.0000000000000000000, 7.099999999999998800, 0.0000000000000000000 ) ) ;
#30 = ADVANCED_FACE ( 'NONE', ( #82 ), #250, .T. ) ;
#31 = EDGE_CURVE ( 'NONE', #2, #226, #249, .T. ) ;
#32 = ADVANCED_FACE ( 'NONE', ( #262 ), #371, .T. ) ;
#33 = CARTESIAN_POINT ( 'NONE',  ( 0.0000000000000000000, 3.702372543132418100, 0.0000000000000000000 ) ) ;
#34 = DIRECTION ( 'NONE',  ( -0.0000000000000000000, 0.0000000000000000000, 1.000000000000000000 ) ) ;
#35 = DIRECTION ( 'NONE',  ( 0.0000000000000000000, 1.000000000000000000, 0.0000000000000000000 ) ) ;
#36 = PRODUCT_DEFINITION ( 'UNKNOWN', '', #51, #329 ) ;
#37 = DIRECTION ( 'NONE',  ( 0.0000000000000000000, 0.0000000000000000000, -1.000000000000000000 ) ) ;
#38 = CIRCLE ( 'NONE', #39, 2.426000000000000200 ) ;
#39 = AXIS2_PLACEMENT_3D ( 'NONE', #252, #34, #224 ) ;
#40 = DIRECTION ( 'NONE',  ( 0.0000000000000000000, 0.0000000000000000000, 1.000000000000000000 ) ) ;
#41 = AXIS2_PLACEMENT_3D ( 'NONE', #206, #16, #233 ) ;
#42 = DIRECTION ( 'NONE',  ( -0.0000000000000000000, -1.000000000000000000, -0.0000000000000000000 ) ) ;
#43 = DIRECTION ( 'NONE',  ( -1.000000000000000000, 0.0000000000000000000, 0.0000000000000000000 ) ) ;
#44 = CARTESIAN_POINT ( 'NONE',  ( 1.816125505703705100, 0.8175336038535145900, -2.224112287409909900E-016 ) ) ;
#45 = DIRECTION ( 'NONE',  ( -0.0000000000000000000, -1.000000000000000000, -0.0000000000000000000 ) ) ;
#46 = CARTESIAN_POINT ( 'NONE',  ( 0.0000000000000000000, 0.8175336038535145900, 0.0000000000000000000 ) ) ;
#47 = DIRECTION ( 'NONE',  ( -1.000000000000000000, 0.0000000000000000000, 0.0000000000000000000 ) ) ;
#48 = CARTESIAN_POINT ( 'NONE',  ( 2.031624584690768300E-016, 3.702372543132418100, 1.658947368421053600 ) ) ;
#49 = PLANE ( 'NONE',  #89 ) ;
#50 = EDGE_CURVE ( 'NONE', #367, #161, #323, .T. ) ;
#51 = PRODUCT_DEFINITION_FORMATION_WITH_SPECIFIED_SOURCE ( 'ANY', '', #5, .NOT_KNOWN. ) ;
#52 = ORIENTED_EDGE ( 'NONE', *, *, #240, .F. ) ;
#53 = DIRECTION ( 'NONE',  ( 0.0000000000000000000, 0.0000000000000000000, -1.000000000000000000 ) ) ;
#54 = AXIS2_PLACEMENT_3D ( 'NONE', #251, #343, #325 ) ;
#55 = CARTESIAN_POINT ( 'NONE',  ( 0.0000000000000000000, 7.099999999999998800, 0.0000000000000000000 ) ) ;
#56 = AXIS2_PLACEMENT_3D ( 'NONE', #204, #45, #310 ) ;
#57 = ORIENTED_EDGE ( 'NONE', *, *, #272, .T. ) ;
#58 =( NAMED_UNIT ( * ) PLANE_ANGLE_UNIT ( ) SI_UNIT ( $, .RADIAN. ) );
#59 = DIRECTION ( 'NONE',  ( -0.0000000000000000000, -1.000000000000000000, -0.0000000000000000000 ) ) ;
#60 = ORIENTED_EDGE ( 'NONE', *, *, #126, .T. ) ;
#61 = CARTESIAN_POINT ( 'NONE',  ( 0.0000000000000000000, 3.702372543132418100, -1.658947368421053600 ) ) ;
#62 = CARTESIAN_POINT ( 'NONE',  ( 0.0000000000000000000, 0.0000000000000000000, 0.0000000000000000000 ) ) ;
#63 = TOROIDAL_SURFACE ( 'NONE', #54, 1.658947368421053600, 1.991052631578946300 ) ;
#64 = EDGE_CURVE ( 'NONE', #213, #247, #295, .T. ) ;
#65 = CIRCLE ( 'NONE', #66, 2.515000000000000100 ) ;
#66 = AXIS2_PLACEMENT_3D ( 'NONE', #29, #215, #372 ) ;
#67 = ORIENTED_EDGE ( 'NONE', *, *, #240, .T. ) ;
#68 = CARTESIAN_POINT ( 'NONE',  ( 2.031624584690768300E-016, 2.802372543132418200, 1.658947368421053600 ) ) ;
#69 = PRODUCT_RELATED_PRODUCT_CATEGORY ( 'part', '', ( #5 ) ) ;
#70 = CARTESIAN_POINT ( 'NONE',  ( 3.263683719727696100E-016, 6.446326388888885500, 2.665000000000000000 ) ) ;
#71 = ORIENTED_EDGE ( 'NONE', *, *, #50, .F. ) ;
#72 = PLANE ( 'NONE',  #139 ) ;
#73 = AXIS2_PLACEMENT_3D ( 'NONE', #154, #119, #22 ) ;
#74 = ORIENTED_EDGE ( 'NONE', *, *, #335, .T. ) ;
#75 = ORIENTED_EDGE ( 'NONE', *, *, #287, .T. ) ;
#76 = PRODUCT_CONTEXT ( 'NONE', #312, 'mechanical' ) ;
#77 = ORIENTED_EDGE ( 'NONE', *, *, #316, .F. ) ;
#78 = DIRECTION ( 'NONE',  ( -0.0000000000000000000, -1.000000000000000000, -0.0000000000000000000 ) ) ;
#79 = ADVANCED_FACE ( 'NONE', ( #123 ), #63, .T. ) ;
#80 = CARTESIAN_POINT ( 'NONE',  ( 0.0000000000000000000, 0.0000000000000000000, 0.0000000000000000000 ) ) ;
#81 = EDGE_LOOP ( 'NONE', ( #314, #85, #110, #83, #235 ) ) ;
#82 = FACE_OUTER_BOUND ( 'NONE', #81, .T. ) ;
#83 = ORIENTED_EDGE ( 'NONE', *, *, #31, .F. ) ;
#84 = ORIENTED_EDGE ( 'NONE', *, *, #200, .F. ) ;
#85 = ORIENTED_EDGE ( 'NONE', *, *, #181, .T. ) ;
#86 = ORIENTED_EDGE ( 'NONE', *, *, #290, .T. ) ;
#87 = DIRECTION ( 'NONE',  ( -1.000000000000000000, 0.0000000000000000000, 0.0000000000000000000 ) ) ;
#88 = EDGE_CURVE ( 'NONE', #2, #161, #38, .T. ) ;
#89 = AXIS2_PLACEMENT_3D ( 'NONE', #346, #35, #273 ) ;
#90 = CARTESIAN_POINT ( 'NONE',  ( -1.485496567365739700E-016, 0.0000000000000000000, 0.0000000000000000000 ) ) ;
#91 = CIRCLE ( 'NONE', #274, 5.030000000000001100 ) ;
#92 = FILL_AREA_STYLE_COLOUR ( '', #23 ) ;
#93 = VERTEX_POINT ( 'NONE', #297 ) ;
#94 = ORIENTED_EDGE ( 'NONE', *, *, #31, .T. ) ;
#95 = AXIS2_PLACEMENT_3D ( 'NONE', #46, #232, #15 ) ;
#96 = CIRCLE ( 'NONE', #300, 1.991052631578946300 ) ;
#97 = AXIS2_PLACEMENT_3D ( 'NONE', #207, #263, #47 ) ;
#98 = CARTESIAN_POINT ( 'NONE',  ( 0.0000000000000000000, 0.8175336038535145900, 0.0000000000000000000 ) ) ;
#99 = CIRCLE ( 'NONE', #41, 1.816125505703705100 ) ;
#100 = CARTESIAN_POINT ( 'NONE',  ( 0.0000000000000000000, 0.8175336038535145900, -1.816125505703705100 ) ) ;
#101 = DIRECTION ( 'NONE',  ( -1.224646799147353200E-016, 0.0000000000000000000, -1.000000000000000000 ) ) ;
#102 = ORIENTED_EDGE ( 'NONE', *, *, #64, .T. ) ;
#103 = DIRECTION ( 'NONE',  ( -1.224646799147353200E-016, 0.0000000000000000000, -1.000000000000000000 ) ) ;
#104 = DIRECTION ( 'NONE',  ( -1.224646799147353200E-016, 0.0000000000000000000, -1.000000000000000000 ) ) ;
#105 = CARTESIAN_POINT ( 'NONE',  ( -1.816125505703705100, 0.8175336038535145900, 0.0000000000000000000 ) ) ;
#106 = EDGE_CURVE ( 'NONE', #165, #213, #117, .T. ) ;
#107 = AXIS2_PLACEMENT_3D ( 'NONE', #116, #296, #328 ) ;
#108 = FACE_OUTER_BOUND ( 'NONE', #190, .T. ) ;
#109 = FACE_OUTER_BOUND ( 'NONE', #294, .T. ) ;
#110 = ORIENTED_EDGE ( 'NONE', *, *, #365, .T. ) ;
#111 = VERTEX_POINT ( 'NONE', #275 ) ;
#112 = DIRECTION ( 'NONE',  ( 1.000000000000000000, 0.0000000000000000000, 0.0000000000000000000 ) ) ;
#113 = AXIS2_PLACEMENT_3D ( 'NONE', #354, #169, #10 ) ;
#114 = ORIENTED_EDGE ( 'NONE', *, *, #272, .F. ) ;
#115 = PRODUCT_DEFINITION_SHAPE ( 'NONE', 'NONE',  #36 ) ;
#116 = CARTESIAN_POINT ( 'NONE',  ( 0.0000000000000000000, 3.252372543132418400, 0.0000000000000000000 ) ) ;
#117 = CIRCLE ( 'NONE', #73, 2.453673611111113000 ) ;
#118 = CIRCLE ( 'NONE', #95, 1.816125505703705100 ) ;
#119 = DIRECTION ( 'NONE',  ( -1.000000000000000000, 0.0000000000000000000, 0.0000000000000000000 ) ) ;
#120 = ORIENTED_EDGE ( 'NONE', *, *, #335, .F. ) ;
#121 = EDGE_LOOP ( 'NONE', ( #146, #147, #52, #120, #216 ) ) ;
#122 = FACE_OUTER_BOUND ( 'NONE', #248, .T. ) ;
#123 = FACE_OUTER_BOUND ( 'NONE', #276, .T. ) ;
#124 = CARTESIAN_POINT ( 'NONE',  ( 0.0000000000000000000, 6.446326388888885500, 0.0000000000000000000 ) ) ;
#125 = CARTESIAN_POINT ( 'NONE',  ( 0.0000000000000000000, 7.099999999999998800, -5.030000000000001100 ) ) ;
#126 = EDGE_CURVE ( 'NONE', #111, #2, #118, .T. ) ;
#127 = SPHERICAL_SURFACE ( 'NONE', #128, 2.426000000000000200 ) ;
#128 = AXIS2_PLACEMENT_3D ( 'NONE', #230, #192, #87 ) ;
#129 = CARTESIAN_POINT ( 'NONE',  ( 0.0000000000000000000, 5.500000000000000000, 0.0000000000000000000 ) ) ;
#130 = ORIENTED_EDGE ( 'NONE', *, *, #219, .F. ) ;
#131 = ORIENTED_EDGE ( 'NONE', *, *, #287, .F. ) ;
#132 = ORIENTED_EDGE ( 'NONE', *, *, #150, .F. ) ;
#133 = SURFACE_SIDE_STYLE ('',( #220 ) ) ;
#134 = FACE_OUTER_BOUND ( 'NONE', #26, .T. ) ;
#135 = DIRECTION ( 'NONE',  ( 0.0000000000000000000, -1.000000000000000000, -0.0000000000000000000 ) ) ;
#136 = CARTESIAN_POINT ( 'NONE',  ( 3.079986699855593800E-016, 0.0000000000000000000, 2.515000000000000100 ) ) ;
#137 = FILL_AREA_STYLE ('',( #92 ) ) ;
#138 = CARTESIAN_POINT ( 'NONE',  ( 0.0000000000000000000, 2.426000000000000200, 0.0000000000000000000 ) ) ;
#139 = AXIS2_PLACEMENT_3D ( 'NONE', #289, #135, #229 ) ;
#140 = SURFACE_STYLE_USAGE ( .BOTH. , #267 ) ;
#141 = LINE ( 'NONE', #136, #158 ) ;
#142 = CARTESIAN_POINT ( 'NONE',  ( 0.0000000000000000000, 8.899999999999998600, 0.0000000000000000000 ) ) ;
#143 = CIRCLE ( 'NONE', #202, 1.816125505703705100 ) ;
#144 = CYLINDRICAL_SURFACE ( 'NONE', #261, 2.515000000000000100 ) ;
#145 = APPLICATION_CONTEXT ( 'automotive_design' ) ;
#146 = ORIENTED_EDGE ( 'NONE', *, *, #349, .T. ) ;
#147 = ORIENTED_EDGE ( 'NONE', *, *, #299, .T. ) ;
#148 = CIRCLE ( 'NONE', #152, 2.515000000000000100 ) ;
#149 = ADVANCED_FACE ( 'NONE', ( #134 ), #49, .T. ) ;
#150 = EDGE_CURVE ( 'NONE', #188, #175, #65, .T. ) ;
#151 = CARTESIAN_POINT ( 'NONE',  ( 4.711828559719441600E-016, 8.899999999999998600, 2.665000000000000000 ) ) ;
#152 = AXIS2_PLACEMENT_3D ( 'NONE', #129, #332, #11 ) ;
#153 = ADVANCED_FACE ( 'NONE', ( #122 ), #127, .T. ) ;
#154 = CARTESIAN_POINT ( 'NONE',  ( 0.0000000000000000000, 6.446326388888885500, -2.665000000000000000 ) ) ;
#155 = ORIENTED_EDGE ( 'NONE', *, *, #349, .F. ) ;
#156 = ORIENTED_EDGE ( 'NONE', *, *, #6, .T. ) ;
#157 = DIRECTION ( 'NONE',  ( 0.0000000000000000000, 0.0000000000000000000, -1.000000000000000000 ) ) ;
#158 = VECTOR ( 'NONE', #178, 1000.000000000000000 ) ;
#159 = CARTESIAN_POINT ( 'NONE',  ( 3.743427449210892900E-016, 5.500000000000000000, 2.515000000000000100 ) ) ;
#160 = ORIENTED_EDGE ( 'NONE', *, *, #231, .T. ) ;
#161 = VERTEX_POINT ( 'NONE', #90 ) ;
#162 = EDGE_LOOP ( 'NONE', ( #132, #311 ) ) ;
#163 = DIRECTION ( 'NONE',  ( -0.0000000000000000000, -1.000000000000000000, -0.0000000000000000000 ) ) ;
#164 = ORIENTED_EDGE ( 'NONE', *, *, #106, .T. ) ;
#165 = VERTEX_POINT ( 'NONE', #238 ) ;
#166 = AXIS2_PLACEMENT_3D ( 'NONE', #359, #198, #282 ) ;
#167 = CIRCLE ( 'NONE', #182, 2.515000000000000100 ) ;
#168 = CARTESIAN_POINT ( 'NONE',  ( 0.0000000000000000000, 0.0000000000000000000, 0.0000000000000000000 ) ) ;
#169 = DIRECTION ( 'NONE',  ( -0.0000000000000000000, -1.000000000000000000, -0.0000000000000000000 ) ) ;
#170 = ORIENTED_EDGE ( 'NONE', *, *, #255, .F. ) ;
#171 = DIRECTION ( 'NONE',  ( 0.0000000000000000000, 0.0000000000000000000, -1.000000000000000000 ) ) ;
#172 = DIRECTION ( 'NONE',  ( 0.0000000000000000000, 0.0000000000000000000, -1.000000000000000000 ) ) ;
#173 = FACE_OUTER_BOUND ( 'NONE', #187, .T. ) ;
#174 =( LENGTH_UNIT ( ) NAMED_UNIT ( * ) SI_UNIT ( .MILLI., .METRE. ) );
#175 = VERTEX_POINT ( 'NONE', #222 ) ;
#176 = ORIENTED_EDGE ( 'NONE', *, *, #64, .F. ) ;
#177 = ORIENTED_EDGE ( 'NONE', *, *, #200, .T. ) ;
#178 = DIRECTION ( 'NONE',  ( -0.0000000000000000000, -1.000000000000000000, -0.0000000000000000000 ) ) ;
#179 = ORIENTED_EDGE ( 'NONE', *, *, #290, .F. ) ;
#180 = CIRCLE ( 'NONE', #223, 2.515000000000000100 ) ;
#181 = EDGE_CURVE ( 'NONE', #93, #195, #20, .T. ) ;
#182 = AXIS2_PLACEMENT_3D ( 'NONE', #362, #356, #307 ) ;
#183 = FACE_OUTER_BOUND ( 'NONE', #185, .T. ) ;
#184 = CARTESIAN_POINT ( 'NONE',  ( 0.0000000000000000000, 7.099999999999998800, -2.515000000000000100 ) ) ;
#185 = EDGE_LOOP ( 'NONE', ( #71, #67, #60, #304 ) ) ;
#186 = APPLICATION_PROTOCOL_DEFINITION ( 'draft international standard', 'automotive_design', 1998, #145 ) ;
#187 = EDGE_LOOP ( 'NONE', ( #256, #177, #313, #191 ) ) ;
#188 = VERTEX_POINT ( 'NONE', #184 ) ;
#189 = AXIS2_PLACEMENT_3D ( 'NONE', #7, #43, #259 ) ;
#190 = EDGE_LOOP ( 'NONE', ( #77, #86, #164, #114 ) ) ;
#191 = ORIENTED_EDGE ( 'NONE', *, *, #269, .F. ) ;
#192 = DIRECTION ( 'NONE',  ( -0.0000000000000000000, -0.0000000000000000000, -1.000000000000000000 ) ) ;
#193 = SURFACE_STYLE_FILL_AREA ( #137 ) ;
#194 = CIRCLE ( 'NONE', #306, 2.665000000000000000 ) ;
#195 = VERTEX_POINT ( 'NONE', #243 ) ;
#196 = CARTESIAN_POINT ( 'NONE',  ( 0.0000000000000000000, 0.0000000000000000000, -2.515000000000000100 ) ) ;
#197 = DIRECTION ( 'NONE',  ( 0.0000000000000000000, 0.0000000000000000000, -1.000000000000000000 ) ) ;
#198 = DIRECTION ( 'NONE',  ( -0.0000000000000000000, -1.000000000000000000, -0.0000000000000000000 ) ) ;
#199 = EDGE_LOOP ( 'NONE', ( #84, #236, #245, #130 ) ) ;
#200 = EDGE_CURVE ( 'NONE', #175, #24, #141, .T. ) ;
#201 = CIRCLE ( 'NONE', #242, 1.991052631578946300 ) ;
#202 = AXIS2_PLACEMENT_3D ( 'NONE', #227, #42, #197 ) ;
#203 = FACE_OUTER_BOUND ( 'NONE', #121, .T. ) ;
#204 = CARTESIAN_POINT ( 'NONE',  ( 0.0000000000000000000, 2.802372543132418200, 0.0000000000000000000 ) ) ;
#205 =( NAMED_UNIT ( * ) SI_UNIT ( $, .STERADIAN. ) SOLID_ANGLE_UNIT ( ) );
#206 = CARTESIAN_POINT ( 'NONE',  ( 0.0000000000000000000, 0.8175336038535145900, 0.0000000000000000000 ) ) ;
#207 = CARTESIAN_POINT ( 'NONE',  ( 0.0000000000000000000, 2.426000000000000200, 0.0000000000000000000 ) ) ;
#208 = VERTEX_POINT ( 'NONE', #151 ) ;
#209 = CIRCLE ( 'NONE', #324, 2.665000000000000000 ) ;
#210 = TOROIDAL_SURFACE ( 'NONE', #292, 2.665000000000000000, 2.453673611111113000 ) ;
#211 = VECTOR ( 'NONE', #327, 1000.000000000000000 ) ;
#212 = UNCERTAINTY_MEASURE_WITH_UNIT (LENGTH_MEASURE( 1.000000000000000100E-005 ), #330, 'distance_accuracy_value', 'NONE');
#213 = VERTEX_POINT ( 'NONE', #125 ) ;
#214 = PRESENTATION_STYLE_ASSIGNMENT (( #336 ) ) ;
#215 = DIRECTION ( 'NONE',  ( -0.0000000000000000000, -1.000000000000000000, -0.0000000000000000000 ) ) ;
#216 = ORIENTED_EDGE ( 'NONE', *, *, #365, .F. ) ;
#217 = DIRECTION ( 'NONE',  ( 0.0000000000000000000, 0.0000000000000000000, -1.000000000000000000 ) ) ;
#218 = COLOUR_RGB ( '',0.7921568627450980000, 0.8196078431372548800, 0.9333333333333333500 ) ;
#219 = EDGE_CURVE ( 'NONE', #24, #234, #148, .T. ) ;
#220 = SURFACE_STYLE_FILL_AREA ( #309 ) ;
#221 = CYLINDRICAL_SURFACE ( 'NONE', #302, 2.515000000000000100 ) ;
#222 = CARTESIAN_POINT ( 'NONE',  ( 3.079986699855593800E-016, 7.099999999999998800, 2.515000000000000100 ) ) ;
#223 = AXIS2_PLACEMENT_3D ( 'NONE', #3, #163, #351 ) ;
#224 = DIRECTION ( 'NONE',  ( 1.000000000000000000, 0.0000000000000000000, 0.0000000000000000000 ) ) ;
#225 = DIRECTION ( 'NONE',  ( -0.0000000000000000000, -1.000000000000000000, -0.0000000000000000000 ) ) ;
#226 = VERTEX_POINT ( 'NONE', #100 ) ;
#227 = CARTESIAN_POINT ( 'NONE',  ( 0.0000000000000000000, 0.8175336038535145900, 0.0000000000000000000 ) ) ;
#228 = APPLICATION_PROTOCOL_DEFINITION ( 'draft international standard', 'automotive_design', 1998, #312 ) ;
#229 = DIRECTION ( 'NONE',  ( 0.0000000000000000000, 0.0000000000000000000, -1.000000000000000000 ) ) ;
#230 = CARTESIAN_POINT ( 'NONE',  ( 0.0000000000000000000, 2.426000000000000200, 0.0000000000000000000 ) ) ;
#231 = EDGE_CURVE ( 'NONE', #234, #24, #167, .T. ) ;
#232 = DIRECTION ( 'NONE',  ( -0.0000000000000000000, -1.000000000000000000, -0.0000000000000000000 ) ) ;
#233 = DIRECTION ( 'NONE',  ( 0.0000000000000000000, 0.0000000000000000000, -1.000000000000000000 ) ) ;
#234 = VERTEX_POINT ( 'NONE', #305 ) ;
#235 = ORIENTED_EDGE ( 'NONE', *, *, #126, .F. ) ;
#236 = ORIENTED_EDGE ( 'NONE', *, *, #260, .T. ) ;
#237 = ORIENTED_EDGE ( 'NONE', *, *, #316, .T. ) ;
#238 = CARTESIAN_POINT ( 'NONE',  ( 0.0000000000000000000, 8.899999999999998600, -2.665000000000000000 ) ) ;
#239 = CIRCLE ( 'NONE', #288, 1.991052631578946300 ) ;
#240 = EDGE_CURVE ( 'NONE', #367, #111, #143, .T. ) ;
#241 = ADVANCED_FACE ( 'NONE', ( #173 ), #144, .T. ) ;
#242 = AXIS2_PLACEMENT_3D ( 'NONE', #61, #278, #40 ) ;
#243 = CARTESIAN_POINT ( 'NONE',  ( 0.0000000000000000000, 3.252372543132418400, -3.598480967438468800 ) ) ;
#244 = FACE_OUTER_BOUND ( 'NONE', #199, .T. ) ;
#245 = ORIENTED_EDGE ( 'NONE', *, *, #269, .T. ) ;
#246 = ORIENTED_EDGE ( 'NONE', *, *, #88, .F. ) ;
#247 = VERTEX_POINT ( 'NONE', #303 ) ;
#248 = EDGE_LOOP ( 'NONE', ( #94, #74, #14, #246 ) ) ;
#249 = CIRCLE ( 'NONE', #317, 1.816125505703705100 ) ;
#250 = TOROIDAL_SURFACE ( 'NONE', #337, 1.658947368421053600, 1.991052631578946300 ) ;
#251 = CARTESIAN_POINT ( 'NONE',  ( 0.0000000000000000000, 3.702372543132418100, 0.0000000000000000000 ) ) ;
#252 = CARTESIAN_POINT ( 'NONE',  ( 0.0000000000000000000, 2.426000000000000200, 0.0000000000000000000 ) ) ;
#253 = CIRCLE ( 'NONE', #21, 2.453673611111113000 ) ;
#254 = DIRECTION ( 'NONE',  ( 0.0000000000000000000, 0.0000000000000000000, -1.000000000000000000 ) ) ;
#255 = EDGE_CURVE ( 'NONE', #234, #195, #201, .T. ) ;
#256 = ORIENTED_EDGE ( 'NONE', *, *, #150, .T. ) ;
#257 = CIRCLE ( 'NONE', #189, 1.991052631578946300 ) ;
#258 = TOROIDAL_SURFACE ( 'NONE', #56, 1.658947368421053600, 1.991052631578946300 ) ;
#259 = DIRECTION ( 'NONE',  ( 0.0000000000000000000, 0.0000000000000000000, 1.000000000000000000 ) ) ;
#260 = EDGE_CURVE ( 'NONE', #175, #188, #180, .T. ) ;
#261 = AXIS2_PLACEMENT_3D ( 'NONE', #62, #283, #171 ) ;
#262 = FACE_OUTER_BOUND ( 'NONE', #9, .T. ) ;
#263 = DIRECTION ( 'NONE',  ( -0.0000000000000000000, -0.0000000000000000000, -1.000000000000000000 ) ) ;
#264 = EDGE_LOOP ( 'NONE', ( #102, #57 ) ) ;
#265 = DIRECTION ( 'NONE',  ( 0.0000000000000000000, 0.0000000000000000000, -1.000000000000000000 ) ) ;
#266 = UNCERTAINTY_MEASURE_WITH_UNIT (LENGTH_MEASURE( 1.000000000000000100E-005 ), #293, 'distance_accuracy_value', 'NONE');
#267 = SURFACE_SIDE_STYLE ('',( #193 ) ) ;
#268 = DIRECTION ( 'NONE',  ( -0.0000000000000000000, -1.000000000000000000, -0.0000000000000000000 ) ) ;
#269 = EDGE_CURVE ( 'NONE', #188, #234, #320, .T. ) ;
#270 = DIRECTION ( 'NONE',  ( 1.000000000000000000, 0.0000000000000000000, -1.224646799147353200E-016 ) ) ;
#271 = ADVANCED_FACE ( 'NONE', ( #108 ), #210, .T. ) ;
#272 = EDGE_CURVE ( 'NONE', #247, #213, #91, .T. ) ;
#273 = DIRECTION ( 'NONE',  ( 0.0000000000000000000, -0.0000000000000000000, 1.000000000000000000 ) ) ;
#274 = AXIS2_PLACEMENT_3D ( 'NONE', #55, #225, #254 ) ;
#275 = CARTESIAN_POINT ( 'NONE',  ( 3.315490242988051200E-016, 0.8175336038535145900, 1.816125505703705100 ) ) ;
#276 = EDGE_LOOP ( 'NONE', ( #17, #19, #370, #4 ) ) ;
#277 = DIRECTION ( 'NONE',  ( -0.0000000000000000000, -1.000000000000000000, -0.0000000000000000000 ) ) ;
#278 = DIRECTION ( 'NONE',  ( -1.000000000000000000, 0.0000000000000000000, 0.0000000000000000000 ) ) ;
#279 = DIRECTION ( 'NONE',  ( -0.0000000000000000000, -1.000000000000000000, -0.0000000000000000000 ) ) ;
#280 = CARTESIAN_POINT ( 'NONE',  ( 0.0000000000000000000, 8.899999999999998600, 0.0000000000000000000 ) ) ;
#281 = CIRCLE ( 'NONE', #113, 3.598480967438468800 ) ;
#282 = DIRECTION ( 'NONE',  ( 0.0000000000000000000, 0.0000000000000000000, -1.000000000000000000 ) ) ;
#283 = DIRECTION ( 'NONE',  ( -0.0000000000000000000, -1.000000000000000000, -0.0000000000000000000 ) ) ;
#284 = STYLED_ITEM ( 'NONE', ( #331 ), #8 ) ;
#285 = DIRECTION ( 'NONE',  ( 1.000000000000000000, 0.0000000000000000000, -1.224646799147353200E-016 ) ) ;
#286 = DIRECTION ( 'NONE',  ( 1.000000000000000000, 0.0000000000000000000, -1.224646799147353200E-016 ) ) ;
#287 = EDGE_CURVE ( 'NONE', #165, #208, #194, .T. ) ;
#288 = AXIS2_PLACEMENT_3D ( 'NONE', #68, #285, #101 ) ;
#289 = CARTESIAN_POINT ( 'NONE',  ( 2.515000000000000100, 7.099999999999998800, 0.0000000000000000000 ) ) ;
#290 = EDGE_CURVE ( 'NONE', #208, #165, #209, .T. ) ;
#291 = ADVANCED_FACE ( 'NONE', ( #244 ), #221, .T. ) ;
#292 = AXIS2_PLACEMENT_3D ( 'NONE', #124, #326, #301 ) ;
#293 =( LENGTH_UNIT ( ) NAMED_UNIT ( * ) SI_UNIT ( .MILLI., .METRE. ) );
#294 = EDGE_LOOP ( 'NONE', ( #75, #237, #176, #363 ) ) ;
#295 = CIRCLE ( 'NONE', #18, 5.030000000000001100 ) ;
#296 = DIRECTION ( 'NONE',  ( -0.0000000000000000000, -1.000000000000000000, -0.0000000000000000000 ) ) ;
#297 = CARTESIAN_POINT ( 'NONE',  ( 4.406868198566191100E-016, 3.252372543132418400, 3.598480967438468800 ) ) ;
#298 = PRESENTATION_LAYER_ASSIGNMENT (  '', '', ( #284 ) ) ;
#299 = EDGE_CURVE ( 'NONE', #93, #111, #239, .T. ) ;
#300 = AXIS2_PLACEMENT_3D ( 'NONE', #48, #270, #27 ) ;
#301 = DIRECTION ( 'NONE',  ( 0.0000000000000000000, 0.0000000000000000000, -1.000000000000000000 ) ) ;
#302 = AXIS2_PLACEMENT_3D ( 'NONE', #168, #59, #37 ) ;
#303 = CARTESIAN_POINT ( 'NONE',  ( 6.159973399711187500E-016, 7.099999999999998800, 5.030000000000001100 ) ) ;
#304 = ORIENTED_EDGE ( 'NONE', *, *, #88, .T. ) ;
#305 = CARTESIAN_POINT ( 'NONE',  ( 0.0000000000000000000, 5.500000000000000000, -2.515000000000000100 ) ) ;
#306 = AXIS2_PLACEMENT_3D ( 'NONE', #142, #268, #217 ) ;
#307 = DIRECTION ( 'NONE',  ( 0.0000000000000000000, 0.0000000000000000000, -1.000000000000000000 ) ) ;
#308 = MANIFOLD_SOLID_BREP ( 'Revolve1', #25 ) ;
#309 = FILL_AREA_STYLE ('',( #357 ) ) ;
#310 = DIRECTION ( 'NONE',  ( 0.0000000000000000000, 0.0000000000000000000, -1.000000000000000000 ) ) ;
#311 = ORIENTED_EDGE ( 'NONE', *, *, #260, .F. ) ;
#312 = APPLICATION_CONTEXT ( 'automotive_design' ) ;
#313 = ORIENTED_EDGE ( 'NONE', *, *, #231, .F. ) ;
#314 = ORIENTED_EDGE ( 'NONE', *, *, #299, .F. ) ;
#315 = MECHANICAL_DESIGN_GEOMETRIC_PRESENTATION_REPRESENTATION (  '', ( #284 ), #334 ) ;
#316 = EDGE_CURVE ( 'NONE', #208, #247, #253, .T. ) ;
#317 = AXIS2_PLACEMENT_3D ( 'NONE', #98, #277, #265 ) ;
#318 = DIRECTION ( 'NONE',  ( 0.0000000000000000000, 0.0000000000000000000, -1.000000000000000000 ) ) ;
#319 = STYLED_ITEM ( 'NONE', ( #214 ), #308 ) ;
#320 = LINE ( 'NONE', #196, #211 ) ;
#321 = ADVANCED_FACE ( 'NONE', ( #203 ), #258, .T. ) ;
#322 = CARTESIAN_POINT ( 'NONE',  ( 0.0000000000000000000, 7.099999999999998800, 0.0000000000000000000 ) ) ;
#323 = CIRCLE ( 'NONE', #350, 2.426000000000000200 ) ;
#324 = AXIS2_PLACEMENT_3D ( 'NONE', #280, #333, #172 ) ;
#325 = DIRECTION ( 'NONE',  ( 0.0000000000000000000, 0.0000000000000000000, -1.000000000000000000 ) ) ;
#326 = DIRECTION ( 'NONE',  ( -0.0000000000000000000, -1.000000000000000000, -0.0000000000000000000 ) ) ;
#327 = DIRECTION ( 'NONE',  ( -0.0000000000000000000, -1.000000000000000000, -0.0000000000000000000 ) ) ;
#328 = DIRECTION ( 'NONE',  ( 0.0000000000000000000, 0.0000000000000000000, -1.000000000000000000 ) ) ;
#329 = PRODUCT_DEFINITION_CONTEXT ( 'detailed design', #145, 'design' ) ;
#330 =( LENGTH_UNIT ( ) NAMED_UNIT ( * ) SI_UNIT ( .MILLI., .METRE. ) );
#331 = PRESENTATION_STYLE_ASSIGNMENT (( #140 ) ) ;
#332 = DIRECTION ( 'NONE',  ( -0.0000000000000000000, -1.000000000000000000, -0.0000000000000000000 ) ) ;
#333 = DIRECTION ( 'NONE',  ( -0.0000000000000000000, -1.000000000000000000, -0.0000000000000000000 ) ) ;
#334 =( GEOMETRIC_REPRESENTATION_CONTEXT ( 3 ) GLOBAL_UNCERTAINTY_ASSIGNED_CONTEXT ( ( #266 ) ) GLOBAL_UNIT_ASSIGNED_CONTEXT ( ( #293, #360, #339 ) ) REPRESENTATION_CONTEXT ( 'NONE', 'WORKASPACE' ) );
#335 = EDGE_CURVE ( 'NONE', #226, #367, #99, .T. ) ;
#336 = SURFACE_STYLE_USAGE ( .BOTH. , #133 ) ;
#337 = AXIS2_PLACEMENT_3D ( 'NONE', #361, #78, #53 ) ;
#338 = PRESENTATION_LAYER_ASSIGNMENT (  '', '', ( #319 ) ) ;
#339 =( NAMED_UNIT ( * ) SI_UNIT ( $, .STERADIAN. ) SOLID_ANGLE_UNIT ( ) );
#340 =( NAMED_UNIT ( * ) SI_UNIT ( $, .STERADIAN. ) SOLID_ANGLE_UNIT ( ) );
#341 = ADVANCED_FACE ( 'NONE', ( #183 ), #345, .T. ) ;
#342 =( GEOMETRIC_REPRESENTATION_CONTEXT ( 3 ) GLOBAL_UNCERTAINTY_ASSIGNED_CONTEXT ( ( #212 ) ) GLOBAL_UNIT_ASSIGNED_CONTEXT ( ( #330, #58, #340 ) ) REPRESENTATION_CONTEXT ( 'NONE', 'WORKASPACE' ) );
#343 = DIRECTION ( 'NONE',  ( -0.0000000000000000000, -1.000000000000000000, -0.0000000000000000000 ) ) ;
#344 = ADVANCED_FACE ( 'NONE', ( #28, #353 ), #72, .T. ) ;
#345 = SPHERICAL_SURFACE ( 'NONE', #97, 2.426000000000000200 ) ;
#346 = CARTESIAN_POINT ( 'NONE',  ( 2.665000000000000000, 8.899999999999998600, 0.0000000000000000000 ) ) ;
#347 = ADVANCED_FACE ( 'NONE', ( #109 ), #12, .T. ) ;
#348 = DIRECTION ( 'NONE',  ( -0.0000000000000000000, -1.000000000000000000, -0.0000000000000000000 ) ) ;
#349 = EDGE_CURVE ( 'NONE', #195, #93, #281, .T. ) ;
#350 = AXIS2_PLACEMENT_3D ( 'NONE', #138, #104, #368 ) ;
#351 = DIRECTION ( 'NONE',  ( 0.0000000000000000000, 0.0000000000000000000, -1.000000000000000000 ) ) ;
#352 = MECHANICAL_DESIGN_GEOMETRIC_PRESENTATION_REPRESENTATION (  '', ( #319 ), #369 ) ;
#353 = FACE_BOUND ( 'NONE', #162, .T. ) ;
#354 = CARTESIAN_POINT ( 'NONE',  ( 0.0000000000000000000, 3.252372543132418400, 0.0000000000000000000 ) ) ;
#355 = UNCERTAINTY_MEASURE_WITH_UNIT (LENGTH_MEASURE( 1.000000000000000100E-005 ), #174, 'distance_accuracy_value', 'NONE');
#356 = DIRECTION ( 'NONE',  ( -0.0000000000000000000, -1.000000000000000000, -0.0000000000000000000 ) ) ;
#357 = FILL_AREA_STYLE_COLOUR ( '', #218 ) ;
#358 =( NAMED_UNIT ( * ) PLANE_ANGLE_UNIT ( ) SI_UNIT ( $, .RADIAN. ) );
#359 = CARTESIAN_POINT ( 'NONE',  ( 0.0000000000000000000, 6.446326388888885500, 0.0000000000000000000 ) ) ;
#360 =( NAMED_UNIT ( * ) PLANE_ANGLE_UNIT ( ) SI_UNIT ( $, .RADIAN. ) );
#361 = CARTESIAN_POINT ( 'NONE',  ( 0.0000000000000000000, 2.802372543132418200, 0.0000000000000000000 ) ) ;
#362 = CARTESIAN_POINT ( 'NONE',  ( 0.0000000000000000000, 5.500000000000000000, 0.0000000000000000000 ) ) ;
#363 = ORIENTED_EDGE ( 'NONE', *, *, #106, .F. ) ;
#364 = SHAPE_DEFINITION_REPRESENTATION ( #115, #8 ) ;
#365 = EDGE_CURVE ( 'NONE', #195, #226, #257, .T. ) ;
#366 = AXIS2_PLACEMENT_3D ( 'NONE', #33, #279, #318 ) ;
#367 = VERTEX_POINT ( 'NONE', #44 ) ;
#368 = DIRECTION ( 'NONE',  ( -1.000000000000000000, 0.0000000000000000000, 1.224646799147353500E-016 ) ) ;
#369 =( GEOMETRIC_REPRESENTATION_CONTEXT ( 3 ) GLOBAL_UNCERTAINTY_ASSIGNED_CONTEXT ( ( #355 ) ) GLOBAL_UNIT_ASSIGNED_CONTEXT ( ( #174, #358, #205 ) ) REPRESENTATION_CONTEXT ( 'NONE', 'WORKASPACE' ) );
#370 = ORIENTED_EDGE ( 'NONE', *, *, #255, .T. ) ;
#371 = TOROIDAL_SURFACE ( 'NONE', #366, 1.658947368421053600, 1.991052631578946300 ) ;
#372 = DIRECTION ( 'NONE',  ( 0.0000000000000000000, 0.0000000000000000000, -1.000000000000000000 ) ) ;
ENDSEC;
END-ISO-10303-21;
