ISO-10303-21;
HEADER;
FILE_DESCRIPTION (( 'STEP AP214' ),
    '1' );
FILE_NAME ('01661-00613MIDG_03_95mm.STEP',
    '2016-04-28T08:59:04',
    ( '' ),
    ( '' ),
    'SwSTEP 2.0',
    'SolidWorks 2015',
    '' );
FILE_SCHEMA (( 'AUTOMOTIVE_DESIGN' ));
ENDSEC;

DATA;
#1 = CIRCLE ( 'NONE', #299, 1.816125505703705100 ) ;
#2 = AXIS2_PLACEMENT_3D ( 'NONE', #127, #330, #159 ) ;
#3 = PLANE ( 'NONE',  #61 ) ;
#4 = PRODUCT ( '01661-00613MIDG_03_95mm', '01661-00613MIDG_03_95mm', '', ( #372 ) ) ;
#5 = AXIS2_PLACEMENT_3D ( 'NONE', #331, #161, #12 ) ;
#6 = DIRECTION ( 'NONE',  ( 1.000000000000000000, 0.0000000000000000000, -1.224646799147353200E-016 ) ) ;
#7 = VERTEX_POINT ( 'NONE', #339 ) ;
#8 =( GEOMETRIC_REPRESENTATION_CONTEXT ( 3 ) GLOBAL_UNCERTAINTY_ASSIGNED_CONTEXT ( ( #233 ) ) GLOBAL_UNIT_ASSIGNED_CONTEXT ( ( #144, #346, #370 ) ) REPRESENTATION_CONTEXT ( 'NONE', 'WORKASPACE' ) );
#9 = DIRECTION ( 'NONE',  ( -0.0000000000000000000, -1.000000000000000000, -0.0000000000000000000 ) ) ;
#10 = VERTEX_POINT ( 'NONE', #335 ) ;
#11 = CARTESIAN_POINT ( 'NONE',  ( 3.315490242988051200E-016, 0.8175336038535145900, 1.816125505703705100 ) ) ;
#12 = DIRECTION ( 'NONE',  ( 0.0000000000000000000, 0.0000000000000000000, -1.000000000000000000 ) ) ;
#13 = CARTESIAN_POINT ( 'NONE',  ( 6.159973399711187500E-016, 9.449999999999997500, 5.029999999999999400 ) ) ;
#14 = EDGE_LOOP ( 'NONE', ( #110, #139, #224, #24 ) ) ;
#15 = CARTESIAN_POINT ( 'NONE',  ( 0.0000000000000000000, 2.426000000000000200, 0.0000000000000000000 ) ) ;
#16 = EDGE_CURVE ( 'NONE', #186, #240, #364, .T. ) ;
#17 = TOROIDAL_SURFACE ( 'NONE', #315, 1.658947368421053600, 1.991052631578946300 ) ;
#18 = DIRECTION ( 'NONE',  ( -0.0000000000000000000, -1.000000000000000000, -0.0000000000000000000 ) ) ;
#19 = EDGE_CURVE ( 'NONE', #7, #153, #172, .T. ) ;
#20 = DIRECTION ( 'NONE',  ( -0.0000000000000000000, -1.000000000000000000, -0.0000000000000000000 ) ) ;
#21 = DIRECTION ( 'NONE',  ( 1.000000000000000000, 0.0000000000000000000, 0.0000000000000000000 ) ) ;
#22 = ADVANCED_FACE ( 'NONE', ( #175 ), #306, .T. ) ;
#23 = CARTESIAN_POINT ( 'NONE',  ( 0.0000000000000000000, 9.449999999999997500, 0.0000000000000000000 ) ) ;
#24 = ORIENTED_EDGE ( 'NONE', *, *, #114, .F. ) ;
#25 = VERTEX_POINT ( 'NONE', #333 ) ;
#26 = DIRECTION ( 'NONE',  ( -0.0000000000000000000, -1.000000000000000000, -0.0000000000000000000 ) ) ;
#27 = AXIS2_PLACEMENT_3D ( 'NONE', #354, #62, #38 ) ;
#28 = CARTESIAN_POINT ( 'NONE',  ( 0.0000000000000000000, 2.426000000000000200, 0.0000000000000000000 ) ) ;
#29 = AXIS2_PLACEMENT_3D ( 'NONE', #100, #303, #283 ) ;
#30 = APPLICATION_PROTOCOL_DEFINITION ( 'draft international standard', 'automotive_design', 1998, #209 ) ;
#31 = VECTOR ( 'NONE', #26, 1000.000000000000000 ) ;
#32 = CIRCLE ( 'NONE', #360, 1.991052631578946300 ) ;
#33 = SURFACE_STYLE_FILL_AREA ( #53 ) ;
#34 = EDGE_CURVE ( 'NONE', #25, #81, #162, .T. ) ;
#35 = DIRECTION ( 'NONE',  ( 0.0000000000000000000, 0.0000000000000000000, -1.000000000000000000 ) ) ;
#36 = EDGE_CURVE ( 'NONE', #150, #7, #181, .T. ) ;
#37 = CARTESIAN_POINT ( 'NONE',  ( -1.485496567365739700E-016, 0.0000000000000000000, 0.0000000000000000000 ) ) ;
#38 = DIRECTION ( 'NONE',  ( 0.0000000000000000000, 0.0000000000000000000, -1.000000000000000000 ) ) ;
#39 = COLOUR_RGB ( '',0.7921568627450980000, 0.8196078431372548800, 0.9333333333333333500 ) ;
#40 = DIRECTION ( 'NONE',  ( -0.0000000000000000000, -1.000000000000000000, -0.0000000000000000000 ) ) ;
#41 = DIRECTION ( 'NONE',  ( 0.0000000000000000000, 0.0000000000000000000, -1.000000000000000000 ) ) ;
#42 = AXIS2_PLACEMENT_3D ( 'NONE', #168, #363, #201 ) ;
#43 = ORIENTED_EDGE ( 'NONE', *, *, #36, .F. ) ;
#44 = FILL_AREA_STYLE ('',( #67 ) ) ;
#45 = STYLED_ITEM ( 'NONE', ( #140 ), #120 ) ;
#46 = LINE ( 'NONE', #222, #314 ) ;
#47 = CARTESIAN_POINT ( 'NONE',  ( 0.0000000000000000000, 0.8175336038535145900, 0.0000000000000000000 ) ) ;
#48 = ADVANCED_FACE ( 'NONE', ( #198 ), #212, .T. ) ;
#49 = ORIENTED_EDGE ( 'NONE', *, *, #34, .T. ) ;
#50 = DIRECTION ( 'NONE',  ( 0.0000000000000000000, 0.0000000000000000000, -1.000000000000000000 ) ) ;
#51 = DIRECTION ( 'NONE',  ( -1.000000000000000000, 0.0000000000000000000, 1.224646799147353500E-016 ) ) ;
#52 = EDGE_CURVE ( 'NONE', #157, #25, #219, .T. ) ;
#53 = FILL_AREA_STYLE ('',( #368 ) ) ;
#54 = EDGE_CURVE ( 'NONE', #153, #157, #200, .T. ) ;
#55 = ORIENTED_EDGE ( 'NONE', *, *, #19, .T. ) ;
#56 = CIRCLE ( 'NONE', #296, 2.453673611111111300 ) ;
#57 = EDGE_LOOP ( 'NONE', ( #243, #90, #308, #261 ) ) ;
#58 = MECHANICAL_DESIGN_GEOMETRIC_PRESENTATION_REPRESENTATION (  '', ( #229 ), #259 ) ;
#59 = VERTEX_POINT ( 'NONE', #138 ) ;
#60 = DIRECTION ( 'NONE',  ( -0.0000000000000000000, -1.000000000000000000, -0.0000000000000000000 ) ) ;
#61 = AXIS2_PLACEMENT_3D ( 'NONE', #192, #341, #366 ) ;
#62 = DIRECTION ( 'NONE',  ( -0.0000000000000000000, -1.000000000000000000, -0.0000000000000000000 ) ) ;
#63 = PRESENTATION_LAYER_ASSIGNMENT (  '', '', ( #45 ) ) ;
#64 = PLANE ( 'NONE',  #82 ) ;
#65 = CARTESIAN_POINT ( 'NONE',  ( 4.406868198566191100E-016, 3.252372543132418400, 3.598480967438468800 ) ) ;
#66 = ORIENTED_EDGE ( 'NONE', *, *, #322, .T. ) ;
#67 = FILL_AREA_STYLE_COLOUR ( '', #39 ) ;
#68 = ORIENTED_EDGE ( 'NONE', *, *, #304, .F. ) ;
#69 = ORIENTED_EDGE ( 'NONE', *, *, #16, .T. ) ;
#70 = EDGE_CURVE ( 'NONE', #240, #235, #56, .T. ) ;
#71 = CARTESIAN_POINT ( 'NONE',  ( 0.0000000000000000000, 11.24999999999999800, 0.0000000000000000000 ) ) ;
#72 = TOROIDAL_SURFACE ( 'NONE', #29, 1.658947368421053600, 1.991052631578946300 ) ;
#73 = EDGE_CURVE ( 'NONE', #10, #157, #211, .T. ) ;
#74 = ORIENTED_EDGE ( 'NONE', *, *, #54, .F. ) ;
#75 = SURFACE_STYLE_USAGE ( .BOTH. , #260 ) ;
#76 = ORIENTED_EDGE ( 'NONE', *, *, #73, .F. ) ;
#77 =( NAMED_UNIT ( * ) SI_UNIT ( $, .STERADIAN. ) SOLID_ANGLE_UNIT ( ) );
#78 = ADVANCED_FACE ( 'NONE', ( #238 ), #239, .T. ) ;
#79 = DIRECTION ( 'NONE',  ( 0.0000000000000000000, 0.0000000000000000000, -1.000000000000000000 ) ) ;
#80 = ORIENTED_EDGE ( 'NONE', *, *, #114, .T. ) ;
#81 = VERTEX_POINT ( 'NONE', #37 ) ;
#82 = AXIS2_PLACEMENT_3D ( 'NONE', #95, #355, #189 ) ;
#83 = PRODUCT_DEFINITION_SHAPE ( 'NONE', 'NONE',  #274 ) ;
#84 = SURFACE_STYLE_USAGE ( .BOTH. , #270 ) ;
#85 = EDGE_LOOP ( 'NONE', ( #129, #80, #276, #160 ) ) ;
#86 = AXIS2_PLACEMENT_3D ( 'NONE', #47, #163, #252 ) ;
#87 = MECHANICAL_DESIGN_GEOMETRIC_PRESENTATION_REPRESENTATION (  '', ( #45 ), #104 ) ;
#88 = CIRCLE ( 'NONE', #281, 2.665000000000000000 ) ;
#89 = EDGE_LOOP ( 'NONE', ( #130, #169, #101, #179 ) ) ;
#90 = ORIENTED_EDGE ( 'NONE', *, *, #336, .T. ) ;
#91 = FACE_OUTER_BOUND ( 'NONE', #109, .T. ) ;
#92 = EDGE_CURVE ( 'NONE', #153, #7, #241, .T. ) ;
#93 = DIRECTION ( 'NONE',  ( -1.224646799147353500E-016, 0.0000000000000000000, -1.000000000000000000 ) ) ;
#94 = EDGE_CURVE ( 'NONE', #59, #289, #244, .T. ) ;
#95 = CARTESIAN_POINT ( 'NONE',  ( 2.665000000000000000, 11.24999999999999800, 0.0000000000000000000 ) ) ;
#96 = CIRCLE ( 'NONE', #210, 2.515000000000000100 ) ;
#97 = ORIENTED_EDGE ( 'NONE', *, *, #369, .T. ) ;
#98 = EDGE_LOOP ( 'NONE', ( #119, #292, #204, #49 ) ) ;
#99 = DIRECTION ( 'NONE',  ( 0.0000000000000000000, 0.0000000000000000000, 1.000000000000000000 ) ) ;
#100 = CARTESIAN_POINT ( 'NONE',  ( 0.0000000000000000000, 3.702372543132418100, 0.0000000000000000000 ) ) ;
#101 = ORIENTED_EDGE ( 'NONE', *, *, #324, .F. ) ;
#102 = AXIS2_PLACEMENT_3D ( 'NONE', #320, #142, #343 ) ;
#103 = CARTESIAN_POINT ( 'NONE',  ( 0.0000000000000000000, 0.8175336038535145900, 0.0000000000000000000 ) ) ;
#104 =( GEOMETRIC_REPRESENTATION_CONTEXT ( 3 ) GLOBAL_UNCERTAINTY_ASSIGNED_CONTEXT ( ( #332 ) ) GLOBAL_UNIT_ASSIGNED_CONTEXT ( ( #194, #115, #325 ) ) REPRESENTATION_CONTEXT ( 'NONE', 'WORKASPACE' ) );
#105 = DIRECTION ( 'NONE',  ( -0.0000000000000000000, -1.000000000000000000, -0.0000000000000000000 ) ) ;
#106 = CARTESIAN_POINT ( 'NONE',  ( 0.0000000000000000000, 2.426000000000000200, 0.0000000000000000000 ) ) ;
#107 = ADVANCED_FACE ( 'NONE', ( #273 ), #250, .T. ) ;
#108 = CARTESIAN_POINT ( 'NONE',  ( 0.0000000000000000000, 8.796326388888886100, 0.0000000000000000000 ) ) ;
#109 = EDGE_LOOP ( 'NONE', ( #74, #223, #66, #126, #275 ) ) ;
#110 = ORIENTED_EDGE ( 'NONE', *, *, #353, .F. ) ;
#111 = DIRECTION ( 'NONE',  ( 0.0000000000000000000, 0.0000000000000000000, -1.000000000000000000 ) ) ;
#112 = FACE_OUTER_BOUND ( 'NONE', #145, .T. ) ;
#113 = CARTESIAN_POINT ( 'NONE',  ( 2.031624584690768300E-016, 3.702372543132418100, 1.658947368421053600 ) ) ;
#114 = EDGE_CURVE ( 'NONE', #152, #150, #263, .T. ) ;
#115 =( NAMED_UNIT ( * ) PLANE_ANGLE_UNIT ( ) SI_UNIT ( $, .RADIAN. ) );
#116 = ORIENTED_EDGE ( 'NONE', *, *, #336, .F. ) ;
#117 = TOROIDAL_SURFACE ( 'NONE', #185, 2.665000000000000000, 2.453673611111111300 ) ;
#118 = CLOSED_SHELL ( 'NONE', ( #319, #203, #107, #22, #365, #173, #342, #230, #48, #264, #78, #141 ) ) ;
#119 = ORIENTED_EDGE ( 'NONE', *, *, #369, .F. ) ;
#120 = ADVANCED_BREP_SHAPE_REPRESENTATION ( '01661-00613MIDG_03_95mm', ( #334, #251 ), #8 ) ;
#121 = LINE ( 'NONE', #344, #31 ) ;
#122 = SHAPE_DEFINITION_REPRESENTATION ( #83, #120 ) ;
#123 = CARTESIAN_POINT ( 'NONE',  ( 3.263683719727696100E-016, 8.796326388888886100, 2.665000000000000000 ) ) ;
#124 = AXIS2_PLACEMENT_3D ( 'NONE', #23, #232, #50 ) ;
#125 = DIRECTION ( 'NONE',  ( -0.0000000000000000000, -1.000000000000000000, -0.0000000000000000000 ) ) ;
#126 = ORIENTED_EDGE ( 'NONE', *, *, #352, .F. ) ;
#127 = CARTESIAN_POINT ( 'NONE',  ( 0.0000000000000000000, 5.500000000000000000, 0.0000000000000000000 ) ) ;
#128 = DIRECTION ( 'NONE',  ( -1.000000000000000000, 0.0000000000000000000, 0.0000000000000000000 ) ) ;
#129 = ORIENTED_EDGE ( 'NONE', *, *, #371, .F. ) ;
#130 = ORIENTED_EDGE ( 'NONE', *, *, #304, .T. ) ;
#131 = ORIENTED_EDGE ( 'NONE', *, *, #352, .T. ) ;
#132 = CARTESIAN_POINT ( 'NONE',  ( 0.0000000000000000000, 0.0000000000000000000, 0.0000000000000000000 ) ) ;
#133 = SPHERICAL_SURFACE ( 'NONE', #349, 2.426000000000000200 ) ;
#134 = DIRECTION ( 'NONE',  ( -0.0000000000000000000, -1.000000000000000000, -0.0000000000000000000 ) ) ;
#135 = DIRECTION ( 'NONE',  ( -0.0000000000000000000, -1.000000000000000000, -0.0000000000000000000 ) ) ;
#136 = AXIS2_PLACEMENT_3D ( 'NONE', #357, #40, #35 ) ;
#137 = CARTESIAN_POINT ( 'NONE',  ( 0.0000000000000000000, 2.802372543132418200, 0.0000000000000000000 ) ) ;
#138 = CARTESIAN_POINT ( 'NONE',  ( 3.079986699855593800E-016, 9.449999999999999300, 2.515000000000000100 ) ) ;
#139 = ORIENTED_EDGE ( 'NONE', *, *, #94, .T. ) ;
#140 = PRESENTATION_STYLE_ASSIGNMENT (( #84 ) ) ;
#141 = ADVANCED_FACE ( 'NONE', ( #190 ), #64, .T. ) ;
#142 = DIRECTION ( 'NONE',  ( -1.000000000000000000, 0.0000000000000000000, 0.0000000000000000000 ) ) ;
#143 = VERTEX_POINT ( 'NONE', #158 ) ;
#144 =( LENGTH_UNIT ( ) NAMED_UNIT ( * ) SI_UNIT ( .MILLI., .METRE. ) );
#145 = EDGE_LOOP ( 'NONE', ( #131, #228, #97, #195 ) ) ;
#146 = CIRCLE ( 'NONE', #166, 1.991052631578946300 ) ;
#147 = AXIS2_PLACEMENT_3D ( 'NONE', #285, #262, #295 ) ;
#148 = CIRCLE ( 'NONE', #147, 2.515000000000000100 ) ;
#149 = EDGE_LOOP ( 'NONE', ( #174, #116 ) ) ;
#150 = VERTEX_POINT ( 'NONE', #220 ) ;
#151 = ORIENTED_EDGE ( 'NONE', *, *, #287, .F. ) ;
#152 = VERTEX_POINT ( 'NONE', #249 ) ;
#153 = VERTEX_POINT ( 'NONE', #65 ) ;
#154 = AXIS2_PLACEMENT_3D ( 'NONE', #170, #202, #231 ) ;
#155 = ORIENTED_EDGE ( 'NONE', *, *, #269, .T. ) ;
#156 = CARTESIAN_POINT ( 'NONE',  ( 0.0000000000000000000, 8.796326388888886100, 0.0000000000000000000 ) ) ;
#157 = VERTEX_POINT ( 'NONE', #11 ) ;
#158 = CARTESIAN_POINT ( 'NONE',  ( 0.0000000000000000000, 9.449999999999997500, -5.029999999999999400 ) ) ;
#159 = DIRECTION ( 'NONE',  ( 0.0000000000000000000, 0.0000000000000000000, -1.000000000000000000 ) ) ;
#160 = ORIENTED_EDGE ( 'NONE', *, *, #92, .F. ) ;
#161 = DIRECTION ( 'NONE',  ( -0.0000000000000000000, -1.000000000000000000, -0.0000000000000000000 ) ) ;
#162 = CIRCLE ( 'NONE', #177, 2.426000000000000200 ) ;
#163 = DIRECTION ( 'NONE',  ( -0.0000000000000000000, -1.000000000000000000, -0.0000000000000000000 ) ) ;
#164 = DIRECTION ( 'NONE',  ( -0.0000000000000000000, -1.000000000000000000, -0.0000000000000000000 ) ) ;
#165 = EDGE_LOOP ( 'NONE', ( #68, #291 ) ) ;
#166 = AXIS2_PLACEMENT_3D ( 'NONE', #286, #367, #99 ) ;
#167 = DIRECTION ( 'NONE',  ( 0.0000000000000000000, 0.0000000000000000000, 1.000000000000000000 ) ) ;
#168 = CARTESIAN_POINT ( 'NONE',  ( 0.0000000000000000000, 9.449999999999997500, 0.0000000000000000000 ) ) ;
#169 = ORIENTED_EDGE ( 'NONE', *, *, #353, .T. ) ;
#170 = CARTESIAN_POINT ( 'NONE',  ( 0.0000000000000000000, 3.252372543132418400, 0.0000000000000000000 ) ) ;
#171 = FACE_OUTER_BOUND ( 'NONE', #98, .T. ) ;
#172 = CIRCLE ( 'NONE', #154, 3.598480967438468800 ) ;
#173 = ADVANCED_FACE ( 'NONE', ( #171 ), #272, .T. ) ;
#174 = ORIENTED_EDGE ( 'NONE', *, *, #16, .F. ) ;
#175 = FACE_OUTER_BOUND ( 'NONE', #279, .T. ) ;
#176 = APPLICATION_PROTOCOL_DEFINITION ( 'draft international standard', 'automotive_design', 1998, #237 ) ;
#177 = AXIS2_PLACEMENT_3D ( 'NONE', #106, #318, #21 ) ;
#178 = DIRECTION ( 'NONE',  ( 1.000000000000000000, 0.0000000000000000000, 0.0000000000000000000 ) ) ;
#179 = ORIENTED_EDGE ( 'NONE', *, *, #338, .F. ) ;
#180 = EDGE_LOOP ( 'NONE', ( #155, #217 ) ) ;
#181 = CIRCLE ( 'NONE', #215, 1.991052631578946300 ) ;
#182 = FACE_OUTER_BOUND ( 'NONE', #180, .T. ) ;
#183 = VERTEX_POINT ( 'NONE', #356 ) ;
#184 = DIRECTION ( 'NONE',  ( -1.224646799147353200E-016, 0.0000000000000000000, -1.000000000000000000 ) ) ;
#185 = AXIS2_PLACEMENT_3D ( 'NONE', #108, #266, #111 ) ;
#186 = VERTEX_POINT ( 'NONE', #191 ) ;
#187 = CARTESIAN_POINT ( 'NONE',  ( 0.0000000000000000000, 9.449999999999999300, 0.0000000000000000000 ) ) ;
#188 = FACE_BOUND ( 'NONE', #165, .T. ) ;
#189 = DIRECTION ( 'NONE',  ( 0.0000000000000000000, -0.0000000000000000000, 1.000000000000000000 ) ) ;
#190 = FACE_OUTER_BOUND ( 'NONE', #149, .T. ) ;
#191 = CARTESIAN_POINT ( 'NONE',  ( 0.0000000000000000000, 11.24999999999999800, -2.665000000000000000 ) ) ;
#192 = CARTESIAN_POINT ( 'NONE',  ( 2.515000000000000100, 9.449999999999999300, 0.0000000000000000000 ) ) ;
#193 = AXIS2_PLACEMENT_3D ( 'NONE', #137, #135, #265 ) ;
#194 =( LENGTH_UNIT ( ) NAMED_UNIT ( * ) SI_UNIT ( .MILLI., .METRE. ) );
#195 = ORIENTED_EDGE ( 'NONE', *, *, #34, .F. ) ;
#196 = CARTESIAN_POINT ( 'NONE',  ( 0.0000000000000000000, 5.500000000000000000, 0.0000000000000000000 ) ) ;
#197 = CARTESIAN_POINT ( 'NONE',  ( 0.0000000000000000000, 3.702372543132418100, -1.658947368421053600 ) ) ;
#198 = FACE_OUTER_BOUND ( 'NONE', #14, .T. ) ;
#199 = ORIENTED_EDGE ( 'NONE', *, *, #269, .F. ) ;
#200 = CIRCLE ( 'NONE', #234, 1.991052631578946300 ) ;
#201 = DIRECTION ( 'NONE',  ( 0.0000000000000000000, 0.0000000000000000000, -1.000000000000000000 ) ) ;
#202 = DIRECTION ( 'NONE',  ( -0.0000000000000000000, -1.000000000000000000, -0.0000000000000000000 ) ) ;
#203 = ADVANCED_FACE ( 'NONE', ( #267 ), #271, .T. ) ;
#204 = ORIENTED_EDGE ( 'NONE', *, *, #52, .T. ) ;
#205 =( NAMED_UNIT ( * ) PLANE_ANGLE_UNIT ( ) SI_UNIT ( $, .RADIAN. ) );
#206 = CIRCLE ( 'NONE', #86, 1.816125505703705100 ) ;
#207 = CARTESIAN_POINT ( 'NONE',  ( 0.0000000000000000000, 0.0000000000000000000, 0.0000000000000000000 ) ) ;
#208 = ORIENTED_EDGE ( 'NONE', *, *, #19, .F. ) ;
#209 = APPLICATION_CONTEXT ( 'automotive_design' ) ;
#210 = AXIS2_PLACEMENT_3D ( 'NONE', #196, #20, #227 ) ;
#211 = CIRCLE ( 'NONE', #312, 1.816125505703705100 ) ;
#212 = CYLINDRICAL_SURFACE ( 'NONE', #278, 2.515000000000000100 ) ;
#213 = CIRCLE ( 'NONE', #102, 2.453673611111111300 ) ;
#214 = EDGE_LOOP ( 'NONE', ( #326, #282, #208, #43 ) ) ;
#215 = AXIS2_PLACEMENT_3D ( 'NONE', #197, #362, #167 ) ;
#216 = CARTESIAN_POINT ( 'NONE',  ( 4.711828559719440600E-016, 11.24999999999999800, 2.665000000000000000 ) ) ;
#217 = ORIENTED_EDGE ( 'NONE', *, *, #302, .T. ) ;
#218 = DIRECTION ( 'NONE',  ( 0.0000000000000000000, 0.0000000000000000000, -1.000000000000000000 ) ) ;
#219 = CIRCLE ( 'NONE', #255, 1.816125505703705100 ) ;
#220 = CARTESIAN_POINT ( 'NONE',  ( 0.0000000000000000000, 5.500000000000000000, -2.515000000000000100 ) ) ;
#221 = CARTESIAN_POINT ( 'NONE',  ( 2.031624584690768300E-016, 2.802372543132418200, 1.658947368421053600 ) ) ;
#222 = CARTESIAN_POINT ( 'NONE',  ( 3.079986699855593800E-016, 0.0000000000000000000, 2.515000000000000100 ) ) ;
#223 = ORIENTED_EDGE ( 'NONE', *, *, #92, .T. ) ;
#224 = ORIENTED_EDGE ( 'NONE', *, *, #338, .T. ) ;
#225 = CARTESIAN_POINT ( 'NONE',  ( 0.0000000000000000000, 2.802372543132418200, 0.0000000000000000000 ) ) ;
#226 = FACE_OUTER_BOUND ( 'NONE', #85, .T. ) ;
#227 = DIRECTION ( 'NONE',  ( 0.0000000000000000000, 0.0000000000000000000, -1.000000000000000000 ) ) ;
#228 = ORIENTED_EDGE ( 'NONE', *, *, #287, .T. ) ;
#229 = STYLED_ITEM ( 'NONE', ( #300 ), #334 ) ;
#230 = ADVANCED_FACE ( 'NONE', ( #226 ), #72, .T. ) ;
#231 = DIRECTION ( 'NONE',  ( 0.0000000000000000000, 0.0000000000000000000, -1.000000000000000000 ) ) ;
#232 = DIRECTION ( 'NONE',  ( -0.0000000000000000000, -1.000000000000000000, -0.0000000000000000000 ) ) ;
#233 = UNCERTAINTY_MEASURE_WITH_UNIT (LENGTH_MEASURE( 1.000000000000000100E-005 ), #144, 'distance_accuracy_value', 'NONE');
#234 = AXIS2_PLACEMENT_3D ( 'NONE', #221, #6, #184 ) ;
#235 = VERTEX_POINT ( 'NONE', #13 ) ;
#236 = DIRECTION ( 'NONE',  ( -1.224646799147353200E-016, 0.0000000000000000000, -1.000000000000000000 ) ) ;
#237 = APPLICATION_CONTEXT ( 'automotive_design' ) ;
#238 = FACE_OUTER_BOUND ( 'NONE', #57, .T. ) ;
#239 = TOROIDAL_SURFACE ( 'NONE', #345, 2.665000000000000000, 2.453673611111111300 ) ;
#240 = VERTEX_POINT ( 'NONE', #216 ) ;
#241 = CIRCLE ( 'NONE', #327, 3.598480967438468800 ) ;
#242 = ORIENTED_EDGE ( 'NONE', *, *, #54, .T. ) ;
#243 = ORIENTED_EDGE ( 'NONE', *, *, #70, .F. ) ;
#244 = CIRCLE ( 'NONE', #358, 2.515000000000000100 ) ;
#245 = CARTESIAN_POINT ( 'NONE',  ( 0.0000000000000000000, 0.8175336038535145900, 0.0000000000000000000 ) ) ;
#246 = COLOUR_RGB ( '',0.7921568627450980000, 0.8196078431372548800, 0.9333333333333333500 ) ;
#247 = PRESENTATION_LAYER_ASSIGNMENT (  '', '', ( #229 ) ) ;
#248 = ORIENTED_EDGE ( 'NONE', *, *, #70, .T. ) ;
#249 = CARTESIAN_POINT ( 'NONE',  ( 3.743427449210892900E-016, 5.500000000000000000, 2.515000000000000100 ) ) ;
#250 = TOROIDAL_SURFACE ( 'NONE', #27, 1.658947368421053600, 1.991052631578946300 ) ;
#251 = AXIS2_PLACEMENT_3D ( 'NONE', #207, #348, #178 ) ;
#252 = DIRECTION ( 'NONE',  ( 0.0000000000000000000, 0.0000000000000000000, -1.000000000000000000 ) ) ;
#253 = ORIENTED_EDGE ( 'NONE', *, *, #322, .F. ) ;
#254 = DIRECTION ( 'NONE',  ( -0.0000000000000000000, -1.000000000000000000, -0.0000000000000000000 ) ) ;
#255 = AXIS2_PLACEMENT_3D ( 'NONE', #293, #105, #317 ) ;
#256 = ORIENTED_EDGE ( 'NONE', *, *, #288, .F. ) ;
#257 = PRODUCT_DEFINITION_CONTEXT ( 'detailed design', #209, 'design' ) ;
#258 = DIRECTION ( 'NONE',  ( -0.0000000000000000000, -1.000000000000000000, -0.0000000000000000000 ) ) ;
#259 =( GEOMETRIC_REPRESENTATION_CONTEXT ( 3 ) GLOBAL_UNCERTAINTY_ASSIGNED_CONTEXT ( ( #277 ) ) GLOBAL_UNIT_ASSIGNED_CONTEXT ( ( #290, #205, #77 ) ) REPRESENTATION_CONTEXT ( 'NONE', 'WORKASPACE' ) );
#260 = SURFACE_SIDE_STYLE ('',( #351 ) ) ;
#261 = ORIENTED_EDGE ( 'NONE', *, *, #302, .F. ) ;
#262 = DIRECTION ( 'NONE',  ( -0.0000000000000000000, -1.000000000000000000, -0.0000000000000000000 ) ) ;
#263 = CIRCLE ( 'NONE', #2, 2.515000000000000100 ) ;
#264 = ADVANCED_FACE ( 'NONE', ( #182, #188 ), #3, .T. ) ;
#265 = DIRECTION ( 'NONE',  ( 0.0000000000000000000, 0.0000000000000000000, -1.000000000000000000 ) ) ;
#266 = DIRECTION ( 'NONE',  ( -0.0000000000000000000, -1.000000000000000000, -0.0000000000000000000 ) ) ;
#267 = FACE_OUTER_BOUND ( 'NONE', #89, .T. ) ;
#268 = DIRECTION ( 'NONE',  ( 1.000000000000000000, 0.0000000000000000000, -1.224646799147353200E-016 ) ) ;
#269 = EDGE_CURVE ( 'NONE', #143, #235, #280, .T. ) ;
#270 = SURFACE_SIDE_STYLE ('',( #33 ) ) ;
#271 = CYLINDRICAL_SURFACE ( 'NONE', #5, 2.515000000000000100 ) ;
#272 = SPHERICAL_SURFACE ( 'NONE', #347, 2.426000000000000200 ) ;
#273 = FACE_OUTER_BOUND ( 'NONE', #214, .T. ) ;
#274 = PRODUCT_DEFINITION ( 'UNKNOWN', '', #294, #257 ) ;
#275 = ORIENTED_EDGE ( 'NONE', *, *, #52, .F. ) ;
#276 = ORIENTED_EDGE ( 'NONE', *, *, #36, .T. ) ;
#277 = UNCERTAINTY_MEASURE_WITH_UNIT (LENGTH_MEASURE( 1.000000000000000100E-005 ), #290, 'distance_accuracy_value', 'NONE');
#278 = AXIS2_PLACEMENT_3D ( 'NONE', #132, #254, #79 ) ;
#279 = EDGE_LOOP ( 'NONE', ( #55, #242, #76, #151, #253 ) ) ;
#280 = CIRCLE ( 'NONE', #42, 5.029999999999999400 ) ;
#281 = AXIS2_PLACEMENT_3D ( 'NONE', #71, #258, #41 ) ;
#282 = ORIENTED_EDGE ( 'NONE', *, *, #371, .T. ) ;
#283 = DIRECTION ( 'NONE',  ( 0.0000000000000000000, 0.0000000000000000000, -1.000000000000000000 ) ) ;
#284 = EDGE_LOOP ( 'NONE', ( #69, #248, #199, #256 ) ) ;
#285 = CARTESIAN_POINT ( 'NONE',  ( 0.0000000000000000000, 9.449999999999999300, 0.0000000000000000000 ) ) ;
#286 = CARTESIAN_POINT ( 'NONE',  ( 0.0000000000000000000, 2.802372543132418200, -1.658947368421053600 ) ) ;
#287 = EDGE_CURVE ( 'NONE', #183, #10, #206, .T. ) ;
#288 = EDGE_CURVE ( 'NONE', #186, #143, #213, .T. ) ;
#289 = VERTEX_POINT ( 'NONE', #340 ) ;
#290 =( LENGTH_UNIT ( ) NAMED_UNIT ( * ) SI_UNIT ( .MILLI., .METRE. ) );
#291 = ORIENTED_EDGE ( 'NONE', *, *, #94, .F. ) ;
#292 = ORIENTED_EDGE ( 'NONE', *, *, #73, .T. ) ;
#293 = CARTESIAN_POINT ( 'NONE',  ( 0.0000000000000000000, 0.8175336038535145900, 0.0000000000000000000 ) ) ;
#294 = PRODUCT_DEFINITION_FORMATION_WITH_SPECIFIED_SOURCE ( 'ANY', '', #4, .NOT_KNOWN. ) ;
#295 = DIRECTION ( 'NONE',  ( 0.0000000000000000000, 0.0000000000000000000, -1.000000000000000000 ) ) ;
#296 = AXIS2_PLACEMENT_3D ( 'NONE', #123, #305, #93 ) ;
#297 = DIRECTION ( 'NONE',  ( -0.0000000000000000000, -0.0000000000000000000, -1.000000000000000000 ) ) ;
#298 = DIRECTION ( 'NONE',  ( -0.0000000000000000000, -1.000000000000000000, -0.0000000000000000000 ) ) ;
#299 = AXIS2_PLACEMENT_3D ( 'NONE', #103, #298, #337 ) ;
#300 = PRESENTATION_STYLE_ASSIGNMENT (( #75 ) ) ;
#301 = FACE_OUTER_BOUND ( 'NONE', #284, .T. ) ;
#302 = EDGE_CURVE ( 'NONE', #235, #143, #350, .T. ) ;
#303 = DIRECTION ( 'NONE',  ( -0.0000000000000000000, -1.000000000000000000, -0.0000000000000000000 ) ) ;
#304 = EDGE_CURVE ( 'NONE', #289, #59, #148, .T. ) ;
#305 = DIRECTION ( 'NONE',  ( 1.000000000000000000, 0.0000000000000000000, -1.224646799147353200E-016 ) ) ;
#306 = TOROIDAL_SURFACE ( 'NONE', #193, 1.658947368421053600, 1.991052631578946300 ) ;
#307 = CARTESIAN_POINT ( 'NONE',  ( 0.0000000000000000000, 3.252372543132418400, 0.0000000000000000000 ) ) ;
#308 = ORIENTED_EDGE ( 'NONE', *, *, #288, .T. ) ;
#309 = DIRECTION ( 'NONE',  ( -0.0000000000000000000, -0.0000000000000000000, -1.000000000000000000 ) ) ;
#310 = CARTESIAN_POINT ( 'NONE',  ( 0.0000000000000000000, 2.426000000000000200, 0.0000000000000000000 ) ) ;
#311 = PRODUCT_RELATED_PRODUCT_CATEGORY ( 'part', '', ( #4 ) ) ;
#312 = AXIS2_PLACEMENT_3D ( 'NONE', #245, #134, #313 ) ;
#313 = DIRECTION ( 'NONE',  ( 0.0000000000000000000, 0.0000000000000000000, -1.000000000000000000 ) ) ;
#314 = VECTOR ( 'NONE', #164, 1000.000000000000000 ) ;
#315 = AXIS2_PLACEMENT_3D ( 'NONE', #225, #18, #359 ) ;
#316 = DIRECTION ( 'NONE',  ( 0.0000000000000000000, 0.0000000000000000000, -1.000000000000000000 ) ) ;
#317 = DIRECTION ( 'NONE',  ( 0.0000000000000000000, 0.0000000000000000000, -1.000000000000000000 ) ) ;
#318 = DIRECTION ( 'NONE',  ( -0.0000000000000000000, 0.0000000000000000000, 1.000000000000000000 ) ) ;
#319 = ADVANCED_FACE ( 'NONE', ( #301 ), #117, .T. ) ;
#320 = CARTESIAN_POINT ( 'NONE',  ( 0.0000000000000000000, 8.796326388888886100, -2.665000000000000000 ) ) ;
#321 = DIRECTION ( 'NONE',  ( -1.000000000000000000, 0.0000000000000000000, 0.0000000000000000000 ) ) ;
#322 = EDGE_CURVE ( 'NONE', #7, #183, #146, .T. ) ;
#323 = DIRECTION ( 'NONE',  ( -1.224646799147353200E-016, 0.0000000000000000000, -1.000000000000000000 ) ) ;
#324 = EDGE_CURVE ( 'NONE', #150, #152, #96, .T. ) ;
#325 =( NAMED_UNIT ( * ) SI_UNIT ( $, .STERADIAN. ) SOLID_ANGLE_UNIT ( ) );
#326 = ORIENTED_EDGE ( 'NONE', *, *, #324, .T. ) ;
#327 = AXIS2_PLACEMENT_3D ( 'NONE', #307, #125, #329 ) ;
#328 = AXIS2_PLACEMENT_3D ( 'NONE', #28, #236, #51 ) ;
#329 = DIRECTION ( 'NONE',  ( 0.0000000000000000000, 0.0000000000000000000, -1.000000000000000000 ) ) ;
#330 = DIRECTION ( 'NONE',  ( -0.0000000000000000000, -1.000000000000000000, -0.0000000000000000000 ) ) ;
#331 = CARTESIAN_POINT ( 'NONE',  ( 0.0000000000000000000, 0.0000000000000000000, 0.0000000000000000000 ) ) ;
#332 = UNCERTAINTY_MEASURE_WITH_UNIT (LENGTH_MEASURE( 1.000000000000000100E-005 ), #194, 'distance_accuracy_value', 'NONE');
#333 = CARTESIAN_POINT ( 'NONE',  ( -1.816125505703705100, 0.8175336038535145900, 0.0000000000000000000 ) ) ;
#334 = MANIFOLD_SOLID_BREP ( 'Revolve1', #118 ) ;
#335 = CARTESIAN_POINT ( 'NONE',  ( 1.816125505703705100, 0.8175336038535145900, -2.224112287409909900E-016 ) ) ;
#336 = EDGE_CURVE ( 'NONE', #240, #186, #88, .T. ) ;
#337 = DIRECTION ( 'NONE',  ( 0.0000000000000000000, 0.0000000000000000000, -1.000000000000000000 ) ) ;
#338 = EDGE_CURVE ( 'NONE', #289, #150, #121, .T. ) ;
#339 = CARTESIAN_POINT ( 'NONE',  ( 0.0000000000000000000, 3.252372543132418400, -3.598480967438468800 ) ) ;
#340 = CARTESIAN_POINT ( 'NONE',  ( 0.0000000000000000000, 9.449999999999999300, -2.515000000000000100 ) ) ;
#341 = DIRECTION ( 'NONE',  ( 0.0000000000000000000, -1.000000000000000000, -0.0000000000000000000 ) ) ;
#342 = ADVANCED_FACE ( 'NONE', ( #91 ), #17, .T. ) ;
#343 = DIRECTION ( 'NONE',  ( 0.0000000000000000000, 0.0000000000000000000, 1.000000000000000000 ) ) ;
#344 = CARTESIAN_POINT ( 'NONE',  ( 0.0000000000000000000, 0.0000000000000000000, -2.515000000000000100 ) ) ;
#345 = AXIS2_PLACEMENT_3D ( 'NONE', #156, #60, #316 ) ;
#346 =( NAMED_UNIT ( * ) PLANE_ANGLE_UNIT ( ) SI_UNIT ( $, .RADIAN. ) );
#347 = AXIS2_PLACEMENT_3D ( 'NONE', #310, #309, #128 ) ;
#348 = DIRECTION ( 'NONE',  ( 0.0000000000000000000, 0.0000000000000000000, 1.000000000000000000 ) ) ;
#349 = AXIS2_PLACEMENT_3D ( 'NONE', #15, #297, #321 ) ;
#350 = CIRCLE ( 'NONE', #124, 5.029999999999999400 ) ;
#351 = SURFACE_STYLE_FILL_AREA ( #44 ) ;
#352 = EDGE_CURVE ( 'NONE', #25, #183, #1, .T. ) ;
#353 = EDGE_CURVE ( 'NONE', #59, #152, #46, .T. ) ;
#354 = CARTESIAN_POINT ( 'NONE',  ( 0.0000000000000000000, 3.702372543132418100, 0.0000000000000000000 ) ) ;
#355 = DIRECTION ( 'NONE',  ( 0.0000000000000000000, 1.000000000000000000, 0.0000000000000000000 ) ) ;
#356 = CARTESIAN_POINT ( 'NONE',  ( 0.0000000000000000000, 0.8175336038535145900, -1.816125505703705100 ) ) ;
#357 = CARTESIAN_POINT ( 'NONE',  ( 0.0000000000000000000, 11.24999999999999800, 0.0000000000000000000 ) ) ;
#358 = AXIS2_PLACEMENT_3D ( 'NONE', #187, #9, #218 ) ;
#359 = DIRECTION ( 'NONE',  ( 0.0000000000000000000, 0.0000000000000000000, -1.000000000000000000 ) ) ;
#360 = AXIS2_PLACEMENT_3D ( 'NONE', #113, #268, #323 ) ;
#361 = CIRCLE ( 'NONE', #328, 2.426000000000000200 ) ;
#362 = DIRECTION ( 'NONE',  ( -1.000000000000000000, 0.0000000000000000000, 0.0000000000000000000 ) ) ;
#363 = DIRECTION ( 'NONE',  ( -0.0000000000000000000, -1.000000000000000000, -0.0000000000000000000 ) ) ;
#364 = CIRCLE ( 'NONE', #136, 2.665000000000000000 ) ;
#365 = ADVANCED_FACE ( 'NONE', ( #112 ), #133, .T. ) ;
#366 = DIRECTION ( 'NONE',  ( 0.0000000000000000000, 0.0000000000000000000, -1.000000000000000000 ) ) ;
#367 = DIRECTION ( 'NONE',  ( -1.000000000000000000, 0.0000000000000000000, 0.0000000000000000000 ) ) ;
#368 = FILL_AREA_STYLE_COLOUR ( '', #246 ) ;
#369 = EDGE_CURVE ( 'NONE', #10, #81, #361, .T. ) ;
#370 =( NAMED_UNIT ( * ) SI_UNIT ( $, .STERADIAN. ) SOLID_ANGLE_UNIT ( ) );
#371 = EDGE_CURVE ( 'NONE', #152, #153, #32, .T. ) ;
#372 = PRODUCT_CONTEXT ( 'NONE', #237, 'mechanical' ) ;
ENDSEC;
END-ISO-10303-21;
