ISO-10303-21;
HEADER;
FILE_DESCRIPTION (( 'STEP AP214' ),
    '1' );
FILE_NAME ('01661-00613MAXG_06_30mm.STEP',
    '2016-04-28T08:58:17',
    ( '' ),
    ( '' ),
    'SwSTEP 2.0',
    'SolidWorks 2015',
    '' );
FILE_SCHEMA (( 'AUTOMOTIVE_DESIGN' ));
ENDSEC;

DATA;
#1 = CARTESIAN_POINT ( 'NONE',  ( 0.0000000000000000000, 11.79999999999999900, 0.0000000000000000000 ) ) ;
#2 = FACE_OUTER_BOUND ( 'NONE', #16, .T. ) ;
#3 = CARTESIAN_POINT ( 'NONE',  ( 0.0000000000000000000, 2.426000000000000200, 0.0000000000000000000 ) ) ;
#4 = EDGE_CURVE ( 'NONE', #59, #342, #267, .T. ) ;
#5 = SURFACE_STYLE_USAGE ( .BOTH. , #216 ) ;
#6 = CARTESIAN_POINT ( 'NONE',  ( 0.0000000000000000000, 0.0000000000000000000, 0.0000000000000000000 ) ) ;
#7 = ORIENTED_EDGE ( 'NONE', *, *, #40, .F. ) ;
#8 = EDGE_CURVE ( 'NONE', #89, #175, #188, .T. ) ;
#9 = DIRECTION ( 'NONE',  ( 0.0000000000000000000, 0.0000000000000000000, 1.000000000000000000 ) ) ;
#10 = FACE_OUTER_BOUND ( 'NONE', #148, .T. ) ;
#11 = SURFACE_STYLE_USAGE ( .BOTH. , #121 ) ;
#12 = AXIS2_PLACEMENT_3D ( 'NONE', #71, #252, #45 ) ;
#13 = FACE_OUTER_BOUND ( 'NONE', #298, .T. ) ;
#14 = CARTESIAN_POINT ( 'NONE',  ( 0.0000000000000000000, 0.0000000000000000000, -2.515000000000000100 ) ) ;
#15 = DIRECTION ( 'NONE',  ( 1.000000000000000000, 0.0000000000000000000, -1.224646799147353200E-016 ) ) ;
#16 = EDGE_LOOP ( 'NONE', ( #144, #43, #119, #100 ) ) ;
#17 = CARTESIAN_POINT ( 'NONE',  ( 0.0000000000000000000, 13.60000000000000000, 0.0000000000000000000 ) ) ;
#18 = FACE_BOUND ( 'NONE', #253, .T. ) ;
#19 = CARTESIAN_POINT ( 'NONE',  ( 0.0000000000000000000, 11.80000000000000100, 0.0000000000000000000 ) ) ;
#20 = PLANE ( 'NONE',  #87 ) ;
#21 = CARTESIAN_POINT ( 'NONE',  ( 0.0000000000000000000, 0.0000000000000000000, 0.0000000000000000000 ) ) ;
#22 = MECHANICAL_DESIGN_GEOMETRIC_PRESENTATION_REPRESENTATION (  '', ( #194 ), #134 ) ;
#23 = EDGE_LOOP ( 'NONE', ( #215, #140, #28, #332 ) ) ;
#24 = DIRECTION ( 'NONE',  ( -0.0000000000000000000, 0.0000000000000000000, 1.000000000000000000 ) ) ;
#25 = ADVANCED_FACE ( 'NONE', ( #36 ), #107, .T. ) ;
#26 = DIRECTION ( 'NONE',  ( 0.0000000000000000000, 0.0000000000000000000, -1.000000000000000000 ) ) ;
#27 = ORIENTED_EDGE ( 'NONE', *, *, #297, .T. ) ;
#28 = ORIENTED_EDGE ( 'NONE', *, *, #303, .T. ) ;
#29 = UNCERTAINTY_MEASURE_WITH_UNIT (LENGTH_MEASURE( 1.000000000000000100E-005 ), #154, 'distance_accuracy_value', 'NONE');
#30 = DIRECTION ( 'NONE',  ( -0.0000000000000000000, -1.000000000000000000, -0.0000000000000000000 ) ) ;
#31 = AXIS2_PLACEMENT_3D ( 'NONE', #256, #103, #164 ) ;
#32 = CARTESIAN_POINT ( 'NONE',  ( 0.0000000000000000000, 0.8175336038535145900, 0.0000000000000000000 ) ) ;
#33 = CARTESIAN_POINT ( 'NONE',  ( 0.0000000000000000000, 3.252372543132418400, 0.0000000000000000000 ) ) ;
#34 = COLOUR_RGB ( '',0.7921568627450980000, 0.8196078431372548800, 0.9333333333333333500 ) ;
#35 = EDGE_CURVE ( 'NONE', #251, #89, #180, .T. ) ;
#36 = FACE_OUTER_BOUND ( 'NONE', #177, .T. ) ;
#37 = AXIS2_PLACEMENT_3D ( 'NONE', #357, #255, #160 ) ;
#38 = ORIENTED_EDGE ( 'NONE', *, *, #222, .T. ) ;
#39 = AXIS2_PLACEMENT_3D ( 'NONE', #301, #271, #77 ) ;
#40 = EDGE_CURVE ( 'NONE', #105, #369, #44, .T. ) ;
#41 = FILL_AREA_STYLE ('',( #247 ) ) ;
#42 = CIRCLE ( 'NONE', #311, 1.816125505703705100 ) ;
#43 = ORIENTED_EDGE ( 'NONE', *, *, #232, .T. ) ;
#44 = CIRCLE ( 'NONE', #189, 2.515000000000000100 ) ;
#45 = DIRECTION ( 'NONE',  ( -1.000000000000000000, 0.0000000000000000000, 1.224646799147353500E-016 ) ) ;
#46 = DIRECTION ( 'NONE',  ( -0.0000000000000000000, -1.000000000000000000, -0.0000000000000000000 ) ) ;
#47 = CARTESIAN_POINT ( 'NONE',  ( 6.159973399711187500E-016, 11.79999999999999900, 5.029999999999999400 ) ) ;
#48 = DIRECTION ( 'NONE',  ( 1.000000000000000000, 0.0000000000000000000, -1.224646799147353200E-016 ) ) ;
#49 = EDGE_LOOP ( 'NONE', ( #128, #327, #27, #314 ) ) ;
#50 = CIRCLE ( 'NONE', #365, 1.991052631578946300 ) ;
#51 = FACE_OUTER_BOUND ( 'NONE', #279, .T. ) ;
#52 = AXIS2_PLACEMENT_3D ( 'NONE', #354, #195, #276 ) ;
#53 = DIRECTION ( 'NONE',  ( -1.000000000000000000, 0.0000000000000000000, 0.0000000000000000000 ) ) ;
#54 = EDGE_LOOP ( 'NONE', ( #269, #206, #236, #270 ) ) ;
#55 = DIRECTION ( 'NONE',  ( -0.0000000000000000000, -1.000000000000000000, -0.0000000000000000000 ) ) ;
#56 = ADVANCED_FACE ( 'NONE', ( #274 ), #201, .T. ) ;
#57 = DIRECTION ( 'NONE',  ( -0.0000000000000000000, -1.000000000000000000, -0.0000000000000000000 ) ) ;
#58 = PRODUCT_RELATED_PRODUCT_CATEGORY ( 'part', '', ( #108 ) ) ;
#59 = VERTEX_POINT ( 'NONE', #290 ) ;
#60 = EDGE_CURVE ( 'NONE', #321, #223, #124, .T. ) ;
#61 = ORIENTED_EDGE ( 'NONE', *, *, #8, .F. ) ;
#62 = ORIENTED_EDGE ( 'NONE', *, *, #60, .T. ) ;
#63 = AXIS2_PLACEMENT_3D ( 'NONE', #118, #295, #26 ) ;
#64 = APPLICATION_PROTOCOL_DEFINITION ( 'draft international standard', 'automotive_design', 1998, #92 ) ;
#65 = CIRCLE ( 'NONE', #246, 2.453673611111111300 ) ;
#66 = FACE_OUTER_BOUND ( 'NONE', #260, .T. ) ;
#67 = APPLICATION_CONTEXT ( 'automotive_design' ) ;
#68 = DIRECTION ( 'NONE',  ( -0.0000000000000000000, -1.000000000000000000, -0.0000000000000000000 ) ) ;
#69 = EDGE_LOOP ( 'NONE', ( #266, #348, #149, #110 ) ) ;
#70 = EDGE_CURVE ( 'NONE', #342, #111, #341, .T. ) ;
#71 = CARTESIAN_POINT ( 'NONE',  ( 0.0000000000000000000, 2.426000000000000200, 0.0000000000000000000 ) ) ;
#72 = DIRECTION ( 'NONE',  ( -1.224646799147353200E-016, 0.0000000000000000000, -1.000000000000000000 ) ) ;
#73 = DIRECTION ( 'NONE',  ( 0.0000000000000000000, 0.0000000000000000000, -1.000000000000000000 ) ) ;
#74 = VERTEX_POINT ( 'NONE', #47 ) ;
#75 = ORIENTED_EDGE ( 'NONE', *, *, #165, .F. ) ;
#76 = AXIS2_PLACEMENT_3D ( 'NONE', #32, #210, #316 ) ;
#77 = DIRECTION ( 'NONE',  ( -1.000000000000000000, 0.0000000000000000000, 0.0000000000000000000 ) ) ;
#78 = DIRECTION ( 'NONE',  ( -0.0000000000000000000, -1.000000000000000000, -0.0000000000000000000 ) ) ;
#79 = PRODUCT_DEFINITION_FORMATION_WITH_SPECIFIED_SOURCE ( 'ANY', '', #108, .NOT_KNOWN. ) ;
#80 = ORIENTED_EDGE ( 'NONE', *, *, #362, .F. ) ;
#81 = ADVANCED_FACE ( 'NONE', ( #51 ), #20, .T. ) ;
#82 = CARTESIAN_POINT ( 'NONE',  ( 0.0000000000000000000, 13.60000000000000000, 0.0000000000000000000 ) ) ;
#83 = EDGE_CURVE ( 'NONE', #321, #129, #286, .T. ) ;
#84 = EDGE_CURVE ( 'NONE', #74, #129, #117, .T. ) ;
#85 = CIRCLE ( 'NONE', #176, 2.665000000000000000 ) ;
#86 = COLOUR_RGB ( '',0.7921568627450980000, 0.8196078431372548800, 0.9333333333333333500 ) ;
#87 = AXIS2_PLACEMENT_3D ( 'NONE', #174, #203, #205 ) ;
#88 = CARTESIAN_POINT ( 'NONE',  ( 0.0000000000000000000, 11.14632638888888700, -2.665000000000000000 ) ) ;
#89 = VERTEX_POINT ( 'NONE', #245 ) ;
#90 = ORIENTED_EDGE ( 'NONE', *, *, #204, .T. ) ;
#91 = AXIS2_PLACEMENT_3D ( 'NONE', #82, #317, #264 ) ;
#92 = APPLICATION_CONTEXT ( 'automotive_design' ) ;
#93 = APPLICATION_PROTOCOL_DEFINITION ( 'draft international standard', 'automotive_design', 1998, #67 ) ;
#94 = PRODUCT_DEFINITION ( 'UNKNOWN', '', #79, #143 ) ;
#95 = DIRECTION ( 'NONE',  ( -0.0000000000000000000, -1.000000000000000000, -0.0000000000000000000 ) ) ;
#96 = CARTESIAN_POINT ( 'NONE',  ( 3.079986699855593800E-016, 0.0000000000000000000, 2.515000000000000100 ) ) ;
#97 = SURFACE_STYLE_FILL_AREA ( #41 ) ;
#98 = CARTESIAN_POINT ( 'NONE',  ( -1.816125505703705100, 0.8175336038535145900, 0.0000000000000000000 ) ) ;
#99 = EDGE_CURVE ( 'NONE', #89, #251, #344, .T. ) ;
#100 = ORIENTED_EDGE ( 'NONE', *, *, #84, .F. ) ;
#101 = CARTESIAN_POINT ( 'NONE',  ( 2.031624584690768300E-016, 2.802372543132418200, 1.658947368421053600 ) ) ;
#102 = PLANE ( 'NONE',  #186 ) ;
#103 = DIRECTION ( 'NONE',  ( -0.0000000000000000000, -1.000000000000000000, -0.0000000000000000000 ) ) ;
#104 = DIRECTION ( 'NONE',  ( 0.0000000000000000000, 0.0000000000000000000, -1.000000000000000000 ) ) ;
#105 = VERTEX_POINT ( 'NONE', #268 ) ;
#106 = EDGE_CURVE ( 'NONE', #366, #355, #352, .T. ) ;
#107 = TOROIDAL_SURFACE ( 'NONE', #315, 2.665000000000000000, 2.453673611111111300 ) ;
#108 = PRODUCT ( '01661-00613MAXG_06_30mm', '01661-00613MAXG_06_30mm', '', ( #299 ) ) ;
#109 = DIRECTION ( 'NONE',  ( 1.000000000000000000, 0.0000000000000000000, 0.0000000000000000000 ) ) ;
#110 = ORIENTED_EDGE ( 'NONE', *, *, #349, .F. ) ;
#111 = VERTEX_POINT ( 'NONE', #113 ) ;
#112 = AXIS2_PLACEMENT_3D ( 'NONE', #120, #318, #288 ) ;
#113 = CARTESIAN_POINT ( 'NONE',  ( -1.485496567365739700E-016, 0.0000000000000000000, 0.0000000000000000000 ) ) ;
#114 = ORIENTED_EDGE ( 'NONE', *, *, #222, .F. ) ;
#115 = TOROIDAL_SURFACE ( 'NONE', #329, 1.658947368421053600, 1.991052631578946300 ) ;
#116 = AXIS2_PLACEMENT_3D ( 'NONE', #6, #9, #350 ) ;
#117 = CIRCLE ( 'NONE', #307, 5.029999999999999400 ) ;
#118 = CARTESIAN_POINT ( 'NONE',  ( 0.0000000000000000000, 5.500000000000000000, 0.0000000000000000000 ) ) ;
#119 = ORIENTED_EDGE ( 'NONE', *, *, #83, .T. ) ;
#120 = CARTESIAN_POINT ( 'NONE',  ( 0.0000000000000000000, 2.802372543132418200, -1.658947368421053600 ) ) ;
#121 = SURFACE_SIDE_STYLE ('',( #371 ) ) ;
#122 = DIRECTION ( 'NONE',  ( 0.0000000000000000000, 0.0000000000000000000, -1.000000000000000000 ) ) ;
#123 =( NAMED_UNIT ( * ) SI_UNIT ( $, .STERADIAN. ) SOLID_ANGLE_UNIT ( ) );
#124 = CIRCLE ( 'NONE', #91, 2.665000000000000000 ) ;
#125 = DIRECTION ( 'NONE',  ( 0.0000000000000000000, 0.0000000000000000000, -1.000000000000000000 ) ) ;
#126 = FILL_AREA_STYLE ('',( #328 ) ) ;
#127 = AXIS2_PLACEMENT_3D ( 'NONE', #211, #57, #198 ) ;
#128 = ORIENTED_EDGE ( 'NONE', *, *, #362, .T. ) ;
#129 = VERTEX_POINT ( 'NONE', #147 ) ;
#130 = ORIENTED_EDGE ( 'NONE', *, *, #363, .F. ) ;
#131 = CARTESIAN_POINT ( 'NONE',  ( 1.816125505703705100, 0.8175336038535145900, -2.224112287409909900E-016 ) ) ;
#132 = CIRCLE ( 'NONE', #12, 2.426000000000000200 ) ;
#133 = LINE ( 'NONE', #14, #213 ) ;
#134 =( GEOMETRIC_REPRESENTATION_CONTEXT ( 3 ) GLOBAL_UNCERTAINTY_ASSIGNED_CONTEXT ( ( #334 ) ) GLOBAL_UNIT_ASSIGNED_CONTEXT ( ( #157, #190, #372 ) ) REPRESENTATION_CONTEXT ( 'NONE', 'WORKASPACE' ) );
#135 = FACE_OUTER_BOUND ( 'NONE', #49, .T. ) ;
#136 = DIRECTION ( 'NONE',  ( -0.0000000000000000000, -1.000000000000000000, -0.0000000000000000000 ) ) ;
#137 = ADVANCED_FACE ( 'NONE', ( #135 ), #217, .T. ) ;
#138 = ADVANCED_FACE ( 'NONE', ( #2 ), #238, .T. ) ;
#139 = CARTESIAN_POINT ( 'NONE',  ( 0.0000000000000000000, 2.426000000000000200, 0.0000000000000000000 ) ) ;
#140 = ORIENTED_EDGE ( 'NONE', *, *, #40, .T. ) ;
#141 = CLOSED_SHELL ( 'NONE', ( #25, #231, #235, #368, #137, #56, #293, #312, #171, #263, #138, #81 ) ) ;
#142 = AXIS2_PLACEMENT_3D ( 'NONE', #101, #280, #72 ) ;
#143 = PRODUCT_DEFINITION_CONTEXT ( 'detailed design', #92, 'design' ) ;
#144 = ORIENTED_EDGE ( 'NONE', *, *, #287, .F. ) ;
#145 = ORIENTED_EDGE ( 'NONE', *, *, #303, .F. ) ;
#146 = DIRECTION ( 'NONE',  ( 0.0000000000000000000, 0.0000000000000000000, 1.000000000000000000 ) ) ;
#147 = CARTESIAN_POINT ( 'NONE',  ( 0.0000000000000000000, 11.79999999999999900, -5.029999999999999400 ) ) ;
#148 = EDGE_LOOP ( 'NONE', ( #75, #90, #172, #7 ) ) ;
#149 = ORIENTED_EDGE ( 'NONE', *, *, #168, .F. ) ;
#150 = FACE_OUTER_BOUND ( 'NONE', #155, .T. ) ;
#151 = PRESENTATION_STYLE_ASSIGNMENT (( #11 ) ) ;
#152 =( NAMED_UNIT ( * ) PLANE_ANGLE_UNIT ( ) SI_UNIT ( $, .RADIAN. ) );
#153 = AXIS2_PLACEMENT_3D ( 'NONE', #224, #183, #320 ) ;
#154 =( LENGTH_UNIT ( ) NAMED_UNIT ( * ) SI_UNIT ( .MILLI., .METRE. ) );
#155 = EDGE_LOOP ( 'NONE', ( #38, #265 ) ) ;
#156 = CARTESIAN_POINT ( 'NONE',  ( 0.0000000000000000000, 0.8175336038535145900, 0.0000000000000000000 ) ) ;
#157 =( LENGTH_UNIT ( ) NAMED_UNIT ( * ) SI_UNIT ( .MILLI., .METRE. ) );
#158 = DIRECTION ( 'NONE',  ( 0.0000000000000000000, 0.0000000000000000000, 1.000000000000000000 ) ) ;
#159 = ORIENTED_EDGE ( 'NONE', *, *, #283, .T. ) ;
#160 = DIRECTION ( 'NONE',  ( 0.0000000000000000000, 0.0000000000000000000, -1.000000000000000000 ) ) ;
#161 = AXIS2_PLACEMENT_3D ( 'NONE', #33, #30, #234 ) ;
#162 = MANIFOLD_SOLID_BREP ( 'Revolve1', #141 ) ;
#163 = DIRECTION ( 'NONE',  ( -0.0000000000000000000, -1.000000000000000000, -0.0000000000000000000 ) ) ;
#164 = DIRECTION ( 'NONE',  ( 0.0000000000000000000, 0.0000000000000000000, -1.000000000000000000 ) ) ;
#165 = EDGE_CURVE ( 'NONE', #355, #105, #179, .T. ) ;
#166 = DIRECTION ( 'NONE',  ( -0.0000000000000000000, -1.000000000000000000, -0.0000000000000000000 ) ) ;
#167 = VECTOR ( 'NONE', #46, 1000.000000000000000 ) ;
#168 = EDGE_CURVE ( 'NONE', #369, #105, #169, .T. ) ;
#169 = CIRCLE ( 'NONE', #63, 2.515000000000000100 ) ;
#170 = ORIENTED_EDGE ( 'NONE', *, *, #232, .F. ) ;
#171 = ADVANCED_FACE ( 'NONE', ( #10 ), #241, .T. ) ;
#172 = ORIENTED_EDGE ( 'NONE', *, *, #349, .T. ) ;
#173 = FACE_OUTER_BOUND ( 'NONE', #69, .T. ) ;
#174 = CARTESIAN_POINT ( 'NONE',  ( 2.665000000000000000, 13.60000000000000000, 0.0000000000000000000 ) ) ;
#175 = VERTEX_POINT ( 'NONE', #182 ) ;
#176 = AXIS2_PLACEMENT_3D ( 'NONE', #17, #193, #359 ) ;
#177 = EDGE_LOOP ( 'NONE', ( #62, #335, #114, #364 ) ) ;
#178 =( GEOMETRIC_REPRESENTATION_CONTEXT ( 3 ) GLOBAL_UNCERTAINTY_ASSIGNED_CONTEXT ( ( #233 ) ) GLOBAL_UNIT_ASSIGNED_CONTEXT ( ( #187, #152, #322 ) ) REPRESENTATION_CONTEXT ( 'NONE', 'WORKASPACE' ) );
#179 = LINE ( 'NONE', #96, #167 ) ;
#180 = CIRCLE ( 'NONE', #161, 3.598480967438468800 ) ;
#181 = AXIS2_PLACEMENT_3D ( 'NONE', #88, #367, #146 ) ;
#182 = CARTESIAN_POINT ( 'NONE',  ( 0.0000000000000000000, 0.8175336038535145900, -1.816125505703705100 ) ) ;
#183 = DIRECTION ( 'NONE',  ( -0.0000000000000000000, -1.000000000000000000, -0.0000000000000000000 ) ) ;
#184 = ORIENTED_EDGE ( 'NONE', *, *, #99, .T. ) ;
#185 = AXIS2_PLACEMENT_3D ( 'NONE', #19, #136, #346 ) ;
#186 = AXIS2_PLACEMENT_3D ( 'NONE', #305, #282, #73 ) ;
#187 =( LENGTH_UNIT ( ) NAMED_UNIT ( * ) SI_UNIT ( .MILLI., .METRE. ) );
#188 = CIRCLE ( 'NONE', #112, 1.991052631578946300 ) ;
#189 = AXIS2_PLACEMENT_3D ( 'NONE', #259, #78, #230 ) ;
#190 =( NAMED_UNIT ( * ) PLANE_ANGLE_UNIT ( ) SI_UNIT ( $, .RADIAN. ) );
#191 = CARTESIAN_POINT ( 'NONE',  ( 0.0000000000000000000, 3.702372543132418100, -1.658947368421053600 ) ) ;
#192 = DIRECTION ( 'NONE',  ( -1.224646799147353500E-016, 0.0000000000000000000, -1.000000000000000000 ) ) ;
#193 = DIRECTION ( 'NONE',  ( -0.0000000000000000000, -1.000000000000000000, -0.0000000000000000000 ) ) ;
#194 = STYLED_ITEM ( 'NONE', ( #151 ), #162 ) ;
#195 = DIRECTION ( 'NONE',  ( -0.0000000000000000000, -1.000000000000000000, -0.0000000000000000000 ) ) ;
#196 = DIRECTION ( 'NONE',  ( 0.0000000000000000000, 0.0000000000000000000, -1.000000000000000000 ) ) ;
#197 = EDGE_LOOP ( 'NONE', ( #360, #226, #248, #80, #209 ) ) ;
#198 = DIRECTION ( 'NONE',  ( 0.0000000000000000000, 0.0000000000000000000, -1.000000000000000000 ) ) ;
#199 = CIRCLE ( 'NONE', #345, 1.816125505703705100 ) ;
#200 = AXIS2_PLACEMENT_3D ( 'NONE', #21, #285, #196 ) ;
#201 = SPHERICAL_SURFACE ( 'NONE', #291, 2.426000000000000200 ) ;
#202 = MECHANICAL_DESIGN_GEOMETRIC_PRESENTATION_REPRESENTATION (  '', ( #240 ), #178 ) ;
#203 = DIRECTION ( 'NONE',  ( 0.0000000000000000000, 1.000000000000000000, 0.0000000000000000000 ) ) ;
#204 = EDGE_CURVE ( 'NONE', #355, #366, #336, .T. ) ;
#205 = DIRECTION ( 'NONE',  ( 0.0000000000000000000, -0.0000000000000000000, 1.000000000000000000 ) ) ;
#206 = ORIENTED_EDGE ( 'NONE', *, *, #363, .T. ) ;
#207 = CIRCLE ( 'NONE', #227, 1.991052631578946300 ) ;
#208 = DIRECTION ( 'NONE',  ( 0.0000000000000000000, 0.0000000000000000000, -1.000000000000000000 ) ) ;
#209 = ORIENTED_EDGE ( 'NONE', *, *, #4, .F. ) ;
#210 = DIRECTION ( 'NONE',  ( -0.0000000000000000000, -1.000000000000000000, -0.0000000000000000000 ) ) ;
#211 = CARTESIAN_POINT ( 'NONE',  ( 0.0000000000000000000, 3.252372543132418400, 0.0000000000000000000 ) ) ;
#212 = FACE_OUTER_BOUND ( 'NONE', #197, .T. ) ;
#213 = VECTOR ( 'NONE', #250, 1000.000000000000000 ) ;
#214 = EDGE_CURVE ( 'NONE', #105, #251, #207, .T. ) ;
#215 = ORIENTED_EDGE ( 'NONE', *, *, #214, .F. ) ;
#216 = SURFACE_SIDE_STYLE ('',( #97 ) ) ;
#217 = SPHERICAL_SURFACE ( 'NONE', #39, 2.426000000000000200 ) ;
#218 = DIRECTION ( 'NONE',  ( 0.0000000000000000000, 0.0000000000000000000, -1.000000000000000000 ) ) ;
#219 = PRESENTATION_LAYER_ASSIGNMENT (  '', '', ( #240 ) ) ;
#220 = CARTESIAN_POINT ( 'NONE',  ( 0.0000000000000000000, 11.80000000000000100, -2.515000000000000100 ) ) ;
#221 = CARTESIAN_POINT ( 'NONE',  ( 3.263683719727696100E-016, 11.14632638888888700, 2.665000000000000000 ) ) ;
#222 = EDGE_CURVE ( 'NONE', #129, #74, #273, .T. ) ;
#223 = VERTEX_POINT ( 'NONE', #347 ) ;
#224 = CARTESIAN_POINT ( 'NONE',  ( 0.0000000000000000000, 0.0000000000000000000, 0.0000000000000000000 ) ) ;
#225 = CARTESIAN_POINT ( 'NONE',  ( 4.406868198566191100E-016, 3.252372543132418400, 3.598480967438468800 ) ) ;
#226 = ORIENTED_EDGE ( 'NONE', *, *, #35, .T. ) ;
#227 = AXIS2_PLACEMENT_3D ( 'NONE', #258, #48, #228 ) ;
#228 = DIRECTION ( 'NONE',  ( -1.224646799147353200E-016, 0.0000000000000000000, -1.000000000000000000 ) ) ;
#229 = CIRCLE ( 'NONE', #343, 1.816125505703705100 ) ;
#230 = DIRECTION ( 'NONE',  ( 0.0000000000000000000, 0.0000000000000000000, -1.000000000000000000 ) ) ;
#231 = ADVANCED_FACE ( 'NONE', ( #173 ), #306, .T. ) ;
#232 = EDGE_CURVE ( 'NONE', #223, #321, #85, .T. ) ;
#233 = UNCERTAINTY_MEASURE_WITH_UNIT (LENGTH_MEASURE( 1.000000000000000100E-005 ), #187, 'distance_accuracy_value', 'NONE');
#234 = DIRECTION ( 'NONE',  ( 0.0000000000000000000, 0.0000000000000000000, -1.000000000000000000 ) ) ;
#235 = ADVANCED_FACE ( 'NONE', ( #13 ), #244, .T. ) ;
#236 = ORIENTED_EDGE ( 'NONE', *, *, #4, .T. ) ;
#237 = SHAPE_DEFINITION_REPRESENTATION ( #309, #272 ) ;
#238 = TOROIDAL_SURFACE ( 'NONE', #52, 2.665000000000000000, 2.453673611111111300 ) ;
#239 = ORIENTED_EDGE ( 'NONE', *, *, #106, .F. ) ;
#240 = STYLED_ITEM ( 'NONE', ( #262 ), #272 ) ;
#241 = CYLINDRICAL_SURFACE ( 'NONE', #153, 2.515000000000000100 ) ;
#242 = ORIENTED_EDGE ( 'NONE', *, *, #60, .F. ) ;
#243 = ORIENTED_EDGE ( 'NONE', *, *, #204, .F. ) ;
#244 = TOROIDAL_SURFACE ( 'NONE', #31, 1.658947368421053600, 1.991052631578946300 ) ;
#245 = CARTESIAN_POINT ( 'NONE',  ( 0.0000000000000000000, 3.252372543132418400, -3.598480967438468800 ) ) ;
#246 = AXIS2_PLACEMENT_3D ( 'NONE', #221, #15, #192 ) ;
#247 = FILL_AREA_STYLE_COLOUR ( '', #34 ) ;
#248 = ORIENTED_EDGE ( 'NONE', *, *, #8, .T. ) ;
#249 = DIRECTION ( 'NONE',  ( 0.0000000000000000000, 0.0000000000000000000, -1.000000000000000000 ) ) ;
#250 = DIRECTION ( 'NONE',  ( -0.0000000000000000000, -1.000000000000000000, -0.0000000000000000000 ) ) ;
#251 = VERTEX_POINT ( 'NONE', #225 ) ;
#252 = DIRECTION ( 'NONE',  ( -1.224646799147353200E-016, 0.0000000000000000000, -1.000000000000000000 ) ) ;
#253 = EDGE_LOOP ( 'NONE', ( #239, #243 ) ) ;
#254 = ORIENTED_EDGE ( 'NONE', *, *, #214, .T. ) ;
#255 = DIRECTION ( 'NONE',  ( -0.0000000000000000000, -1.000000000000000000, -0.0000000000000000000 ) ) ;
#256 = CARTESIAN_POINT ( 'NONE',  ( 0.0000000000000000000, 3.702372543132418100, 0.0000000000000000000 ) ) ;
#257 = AXIS2_PLACEMENT_3D ( 'NONE', #3, #24, #109 ) ;
#258 = CARTESIAN_POINT ( 'NONE',  ( 2.031624584690768300E-016, 3.702372543132418100, 1.658947368421053600 ) ) ;
#259 = CARTESIAN_POINT ( 'NONE',  ( 0.0000000000000000000, 5.500000000000000000, 0.0000000000000000000 ) ) ;
#260 = EDGE_LOOP ( 'NONE', ( #184, #159, #130, #284, #61 ) ) ;
#261 = AXIS2_PLACEMENT_3D ( 'NONE', #361, #166, #337 ) ;
#262 = PRESENTATION_STYLE_ASSIGNMENT (( #5 ) ) ;
#263 = ADVANCED_FACE ( 'NONE', ( #150, #18 ), #102, .T. ) ;
#264 = DIRECTION ( 'NONE',  ( 0.0000000000000000000, 0.0000000000000000000, -1.000000000000000000 ) ) ;
#265 = ORIENTED_EDGE ( 'NONE', *, *, #84, .T. ) ;
#266 = ORIENTED_EDGE ( 'NONE', *, *, #106, .T. ) ;
#267 = CIRCLE ( 'NONE', #76, 1.816125505703705100 ) ;
#268 = CARTESIAN_POINT ( 'NONE',  ( 3.743427449210892900E-016, 5.500000000000000000, 2.515000000000000100 ) ) ;
#269 = ORIENTED_EDGE ( 'NONE', *, *, #297, .F. ) ;
#270 = ORIENTED_EDGE ( 'NONE', *, *, #70, .T. ) ;
#271 = DIRECTION ( 'NONE',  ( -0.0000000000000000000, -0.0000000000000000000, -1.000000000000000000 ) ) ;
#272 = ADVANCED_BREP_SHAPE_REPRESENTATION ( '01661-00613MAXG_06_30mm', ( #162, #116 ), #296 ) ;
#273 = CIRCLE ( 'NONE', #261, 5.029999999999999400 ) ;
#274 = FACE_OUTER_BOUND ( 'NONE', #54, .T. ) ;
#275 = CARTESIAN_POINT ( 'NONE',  ( 0.0000000000000000000, 0.8175336038535145900, 0.0000000000000000000 ) ) ;
#276 = DIRECTION ( 'NONE',  ( 0.0000000000000000000, 0.0000000000000000000, -1.000000000000000000 ) ) ;
#277 = AXIS2_PLACEMENT_3D ( 'NONE', #353, #95, #218 ) ;
#278 = CARTESIAN_POINT ( 'NONE',  ( 3.079986699855593800E-016, 11.80000000000000100, 2.515000000000000100 ) ) ;
#279 = EDGE_LOOP ( 'NONE', ( #242, #170 ) ) ;
#280 = DIRECTION ( 'NONE',  ( 1.000000000000000000, 0.0000000000000000000, -1.224646799147353200E-016 ) ) ;
#281 = EDGE_CURVE ( 'NONE', #175, #289, #229, .T. ) ;
#282 = DIRECTION ( 'NONE',  ( 0.0000000000000000000, -1.000000000000000000, -0.0000000000000000000 ) ) ;
#283 = EDGE_CURVE ( 'NONE', #251, #59, #292, .T. ) ;
#284 = ORIENTED_EDGE ( 'NONE', *, *, #281, .F. ) ;
#285 = DIRECTION ( 'NONE',  ( -0.0000000000000000000, -1.000000000000000000, -0.0000000000000000000 ) ) ;
#286 = CIRCLE ( 'NONE', #181, 2.453673611111111300 ) ;
#287 = EDGE_CURVE ( 'NONE', #223, #74, #65, .T. ) ;
#288 = DIRECTION ( 'NONE',  ( 0.0000000000000000000, 0.0000000000000000000, 1.000000000000000000 ) ) ;
#289 = VERTEX_POINT ( 'NONE', #131 ) ;
#290 = CARTESIAN_POINT ( 'NONE',  ( 3.315490242988051200E-016, 0.8175336038535145900, 1.816125505703705100 ) ) ;
#291 = AXIS2_PLACEMENT_3D ( 'NONE', #139, #310, #53 ) ;
#292 = CIRCLE ( 'NONE', #142, 1.991052631578946300 ) ;
#293 = ADVANCED_FACE ( 'NONE', ( #212 ), #351, .T. ) ;
#294 = AXIS2_PLACEMENT_3D ( 'NONE', #338, #308, #104 ) ;
#295 = DIRECTION ( 'NONE',  ( -0.0000000000000000000, -1.000000000000000000, -0.0000000000000000000 ) ) ;
#296 =( GEOMETRIC_REPRESENTATION_CONTEXT ( 3 ) GLOBAL_UNCERTAINTY_ASSIGNED_CONTEXT ( ( #29 ) ) GLOBAL_UNIT_ASSIGNED_CONTEXT ( ( #154, #325, #123 ) ) REPRESENTATION_CONTEXT ( 'NONE', 'WORKASPACE' ) );
#297 = EDGE_CURVE ( 'NONE', #289, #111, #132, .T. ) ;
#298 = EDGE_LOOP ( 'NONE', ( #324, #254, #339, #145 ) ) ;
#299 = PRODUCT_CONTEXT ( 'NONE', #67, 'mechanical' ) ;
#300 = CARTESIAN_POINT ( 'NONE',  ( 0.0000000000000000000, 5.500000000000000000, -2.515000000000000100 ) ) ;
#301 = CARTESIAN_POINT ( 'NONE',  ( 0.0000000000000000000, 2.426000000000000200, 0.0000000000000000000 ) ) ;
#302 = CARTESIAN_POINT ( 'NONE',  ( 0.0000000000000000000, 13.60000000000000000, -2.665000000000000000 ) ) ;
#303 = EDGE_CURVE ( 'NONE', #369, #89, #50, .T. ) ;
#304 = DIRECTION ( 'NONE',  ( -0.0000000000000000000, -1.000000000000000000, -0.0000000000000000000 ) ) ;
#305 = CARTESIAN_POINT ( 'NONE',  ( 2.515000000000000100, 11.80000000000000100, 0.0000000000000000000 ) ) ;
#306 = CYLINDRICAL_SURFACE ( 'NONE', #200, 2.515000000000000100 ) ;
#307 = AXIS2_PLACEMENT_3D ( 'NONE', #1, #323, #122 ) ;
#308 = DIRECTION ( 'NONE',  ( -0.0000000000000000000, -1.000000000000000000, -0.0000000000000000000 ) ) ;
#309 = PRODUCT_DEFINITION_SHAPE ( 'NONE', 'NONE',  #94 ) ;
#310 = DIRECTION ( 'NONE',  ( -0.0000000000000000000, -0.0000000000000000000, -1.000000000000000000 ) ) ;
#311 = AXIS2_PLACEMENT_3D ( 'NONE', #275, #68, #249 ) ;
#312 = ADVANCED_FACE ( 'NONE', ( #370 ), #115, .T. ) ;
#313 = CARTESIAN_POINT ( 'NONE',  ( 0.0000000000000000000, 11.14632638888888700, 0.0000000000000000000 ) ) ;
#314 = ORIENTED_EDGE ( 'NONE', *, *, #70, .F. ) ;
#315 = AXIS2_PLACEMENT_3D ( 'NONE', #313, #55, #208 ) ;
#316 = DIRECTION ( 'NONE',  ( 0.0000000000000000000, 0.0000000000000000000, -1.000000000000000000 ) ) ;
#317 = DIRECTION ( 'NONE',  ( -0.0000000000000000000, -1.000000000000000000, -0.0000000000000000000 ) ) ;
#318 = DIRECTION ( 'NONE',  ( -1.000000000000000000, 0.0000000000000000000, 0.0000000000000000000 ) ) ;
#319 = PRESENTATION_LAYER_ASSIGNMENT (  '', '', ( #194 ) ) ;
#320 = DIRECTION ( 'NONE',  ( 0.0000000000000000000, 0.0000000000000000000, -1.000000000000000000 ) ) ;
#321 = VERTEX_POINT ( 'NONE', #302 ) ;
#322 =( NAMED_UNIT ( * ) SI_UNIT ( $, .STERADIAN. ) SOLID_ANGLE_UNIT ( ) );
#323 = DIRECTION ( 'NONE',  ( -0.0000000000000000000, -1.000000000000000000, -0.0000000000000000000 ) ) ;
#324 = ORIENTED_EDGE ( 'NONE', *, *, #168, .T. ) ;
#325 =( NAMED_UNIT ( * ) PLANE_ANGLE_UNIT ( ) SI_UNIT ( $, .RADIAN. ) );
#326 = DIRECTION ( 'NONE',  ( -0.0000000000000000000, -1.000000000000000000, -0.0000000000000000000 ) ) ;
#327 = ORIENTED_EDGE ( 'NONE', *, *, #281, .T. ) ;
#328 = FILL_AREA_STYLE_COLOUR ( '', #86 ) ;
#329 = AXIS2_PLACEMENT_3D ( 'NONE', #331, #304, #330 ) ;
#330 = DIRECTION ( 'NONE',  ( 0.0000000000000000000, 0.0000000000000000000, -1.000000000000000000 ) ) ;
#331 = CARTESIAN_POINT ( 'NONE',  ( 0.0000000000000000000, 3.702372543132418100, 0.0000000000000000000 ) ) ;
#332 = ORIENTED_EDGE ( 'NONE', *, *, #35, .F. ) ;
#333 = DIRECTION ( 'NONE',  ( 0.0000000000000000000, 0.0000000000000000000, -1.000000000000000000 ) ) ;
#334 = UNCERTAINTY_MEASURE_WITH_UNIT (LENGTH_MEASURE( 1.000000000000000100E-005 ), #157, 'distance_accuracy_value', 'NONE');
#335 = ORIENTED_EDGE ( 'NONE', *, *, #287, .T. ) ;
#336 = CIRCLE ( 'NONE', #294, 2.515000000000000100 ) ;
#337 = DIRECTION ( 'NONE',  ( 0.0000000000000000000, 0.0000000000000000000, -1.000000000000000000 ) ) ;
#338 = CARTESIAN_POINT ( 'NONE',  ( 0.0000000000000000000, 11.80000000000000100, 0.0000000000000000000 ) ) ;
#339 = ORIENTED_EDGE ( 'NONE', *, *, #99, .F. ) ;
#340 = TOROIDAL_SURFACE ( 'NONE', #277, 1.658947368421053600, 1.991052631578946300 ) ;
#341 = CIRCLE ( 'NONE', #257, 2.426000000000000200 ) ;
#342 = VERTEX_POINT ( 'NONE', #98 ) ;
#343 = AXIS2_PLACEMENT_3D ( 'NONE', #358, #163, #333 ) ;
#344 = CIRCLE ( 'NONE', #127, 3.598480967438468800 ) ;
#345 = AXIS2_PLACEMENT_3D ( 'NONE', #156, #326, #125 ) ;
#346 = DIRECTION ( 'NONE',  ( 0.0000000000000000000, 0.0000000000000000000, -1.000000000000000000 ) ) ;
#347 = CARTESIAN_POINT ( 'NONE',  ( 4.711828559719440600E-016, 13.60000000000000000, 2.665000000000000000 ) ) ;
#348 = ORIENTED_EDGE ( 'NONE', *, *, #165, .T. ) ;
#349 = EDGE_CURVE ( 'NONE', #366, #369, #133, .T. ) ;
#350 = DIRECTION ( 'NONE',  ( 1.000000000000000000, 0.0000000000000000000, 0.0000000000000000000 ) ) ;
#351 = TOROIDAL_SURFACE ( 'NONE', #37, 1.658947368421053600, 1.991052631578946300 ) ;
#352 = CIRCLE ( 'NONE', #185, 2.515000000000000100 ) ;
#353 = CARTESIAN_POINT ( 'NONE',  ( 0.0000000000000000000, 2.802372543132418200, 0.0000000000000000000 ) ) ;
#354 = CARTESIAN_POINT ( 'NONE',  ( 0.0000000000000000000, 11.14632638888888700, 0.0000000000000000000 ) ) ;
#355 = VERTEX_POINT ( 'NONE', #278 ) ;
#356 = DIRECTION ( 'NONE',  ( -1.000000000000000000, 0.0000000000000000000, 0.0000000000000000000 ) ) ;
#357 = CARTESIAN_POINT ( 'NONE',  ( 0.0000000000000000000, 2.802372543132418200, 0.0000000000000000000 ) ) ;
#358 = CARTESIAN_POINT ( 'NONE',  ( 0.0000000000000000000, 0.8175336038535145900, 0.0000000000000000000 ) ) ;
#359 = DIRECTION ( 'NONE',  ( 0.0000000000000000000, 0.0000000000000000000, -1.000000000000000000 ) ) ;
#360 = ORIENTED_EDGE ( 'NONE', *, *, #283, .F. ) ;
#361 = CARTESIAN_POINT ( 'NONE',  ( 0.0000000000000000000, 11.79999999999999900, 0.0000000000000000000 ) ) ;
#362 = EDGE_CURVE ( 'NONE', #342, #175, #199, .T. ) ;
#363 = EDGE_CURVE ( 'NONE', #289, #59, #42, .T. ) ;
#364 = ORIENTED_EDGE ( 'NONE', *, *, #83, .F. ) ;
#365 = AXIS2_PLACEMENT_3D ( 'NONE', #191, #356, #158 ) ;
#366 = VERTEX_POINT ( 'NONE', #220 ) ;
#367 = DIRECTION ( 'NONE',  ( -1.000000000000000000, 0.0000000000000000000, 0.0000000000000000000 ) ) ;
#368 = ADVANCED_FACE ( 'NONE', ( #66 ), #340, .T. ) ;
#369 = VERTEX_POINT ( 'NONE', #300 ) ;
#370 = FACE_OUTER_BOUND ( 'NONE', #23, .T. ) ;
#371 = SURFACE_STYLE_FILL_AREA ( #126 ) ;
#372 =( NAMED_UNIT ( * ) SI_UNIT ( $, .STERADIAN. ) SOLID_ANGLE_UNIT ( ) );
ENDSEC;
END-ISO-10303-21;
