ISO-10303-21;
HEADER;
FILE_DESCRIPTION (( 'STEP AP214' ),
    '1' );
FILE_NAME ('01661-00613.STEP',
    '2016-04-05T09:29:40',
    ( '' ),
    ( '' ),
    'SwSTEP 2.0',
    'SolidWorks 2015',
    '' );
FILE_SCHEMA (( 'AUTOMOTIVE_DESIGN' ));
ENDSEC;

DATA;
#1 = SURFACE_SIDE_STYLE ('',( #343 ) ) ;
#2 = ADVANCED_FACE ( 'NONE', ( #268 ), #85, .T. ) ;
#3 = SURFACE_STYLE_USAGE ( .BOTH. , #1 ) ;
#4 = COLOUR_RGB ( '',0.7921568627450980000, 0.8196078431372548800, 0.9333333333333333500 ) ;
#5 = ORIENTED_EDGE ( 'NONE', *, *, #88, .T. ) ;
#6 = DIRECTION ( 'NONE',  ( -0.0000000000000000000, -1.000000000000000000, -0.0000000000000000000 ) ) ;
#7 = ORIENTED_EDGE ( 'NONE', *, *, #311, .F. ) ;
#8 =( LENGTH_UNIT ( ) NAMED_UNIT ( * ) SI_UNIT ( .MILLI., .METRE. ) );
#9 = DIRECTION ( 'NONE',  ( 0.0000000000000000000, 0.0000000000000000000, -1.000000000000000000 ) ) ;
#10 = DIRECTION ( 'NONE',  ( 0.0000000000000000000, 0.0000000000000000000, -1.000000000000000000 ) ) ;
#11 = PRODUCT_RELATED_PRODUCT_CATEGORY ( 'part', '', ( #259 ) ) ;
#12 = CIRCLE ( 'NONE', #92, 2.426000000000000200 ) ;
#13 =( NAMED_UNIT ( * ) PLANE_ANGLE_UNIT ( ) SI_UNIT ( $, .RADIAN. ) );
#14 =( NAMED_UNIT ( * ) SI_UNIT ( $, .STERADIAN. ) SOLID_ANGLE_UNIT ( ) );
#15 = PRODUCT_DEFINITION_FORMATION_WITH_SPECIFIED_SOURCE ( 'ANY', '', #259, .NOT_KNOWN. ) ;
#16 = DIRECTION ( 'NONE',  ( -0.0000000000000000000, -1.000000000000000000, -0.0000000000000000000 ) ) ;
#17 = PRODUCT_DEFINITION ( 'UNKNOWN', '', #15, #219 ) ;
#18 = CIRCLE ( 'NONE', #78, 1.415999999999999900 ) ;
#19 = AXIS2_PLACEMENT_3D ( 'NONE', #296, #361, #366 ) ;
#20 = CONICAL_SURFACE ( 'NONE', #127, 1.416000000000000100, 0.3926990816987193100 ) ;
#21 = CIRCLE ( 'NONE', #135, 2.729565258478301000 ) ;
#22 = DIRECTION ( 'NONE',  ( -0.0000000000000000000, -0.0000000000000000000, -1.000000000000000000 ) ) ;
#23 = EDGE_CURVE ( 'NONE', #337, #124, #277, .T. ) ;
#24 = CARTESIAN_POINT ( 'NONE',  ( 2.970993134731479500E-016, 2.426000000000000200, 2.426000000000000200 ) ) ;
#25 = CIRCLE ( 'NONE', #122, 2.426000000000000200 ) ;
#26 = CIRCLE ( 'NONE', #82, 2.426000000000000200 ) ;
#27 = DIRECTION ( 'NONE',  ( -1.000000000000000000, 0.0000000000000000000, 0.0000000000000000000 ) ) ;
#28 = EDGE_CURVE ( 'NONE', #263, #209, #276, .T. ) ;
#29 = ORIENTED_EDGE ( 'NONE', *, *, #302, .T. ) ;
#30 = VERTEX_POINT ( 'NONE', #300 ) ;
#31 = ORIENTED_EDGE ( 'NONE', *, *, #367, .F. ) ;
#32 = ADVANCED_FACE ( 'NONE', ( #278 ), #288, .T. ) ;
#33 = CARTESIAN_POINT ( 'NONE',  ( 2.426000000000000200, 2.426000000000000200, -2.970993134731479500E-016 ) ) ;
#34 = VECTOR ( 'NONE', #99, 1000.000000000000000 ) ;
#35 = EDGE_CURVE ( 'NONE', #30, #209, #282, .T. ) ;
#36 = CIRCLE ( 'NONE', #97, 2.426000000000000200 ) ;
#37 =( GEOMETRIC_REPRESENTATION_CONTEXT ( 3 ) GLOBAL_UNCERTAINTY_ASSIGNED_CONTEXT ( ( #244 ) ) GLOBAL_UNIT_ASSIGNED_CONTEXT ( ( #353, #354, #356 ) ) REPRESENTATION_CONTEXT ( 'NONE', 'WORKASPACE' ) );
#38 = DIRECTION ( 'NONE',  ( -1.000000000000000000, 0.0000000000000000000, 0.0000000000000000000 ) ) ;
#39 = DIRECTION ( 'NONE',  ( -0.0000000000000000000, -1.000000000000000000, -0.0000000000000000000 ) ) ;
#40 = ORIENTED_EDGE ( 'NONE', *, *, #351, .T. ) ;
#41 = DIRECTION ( 'NONE',  ( -0.0000000000000000000, -1.000000000000000000, -0.0000000000000000000 ) ) ;
#42 = MECHANICAL_DESIGN_GEOMETRIC_PRESENTATION_REPRESENTATION (  '', ( #53 ), #37 ) ;
#43 = CARTESIAN_POINT ( 'NONE',  ( 0.0000000000000000000, 15.70000000000000300, 0.0000000000000000000 ) ) ;
#44 = ORIENTED_EDGE ( 'NONE', *, *, #23, .F. ) ;
#45 = DIRECTION ( 'NONE',  ( -0.0000000000000000000, -1.000000000000000000, -0.0000000000000000000 ) ) ;
#46 = ORIENTED_EDGE ( 'NONE', *, *, #111, .F. ) ;
#47 = PRESENTATION_LAYER_ASSIGNMENT (  '', '', ( #53 ) ) ;
#48 = DIRECTION ( 'NONE',  ( 0.0000000000000000000, 0.0000000000000000000, -1.000000000000000000 ) ) ;
#49 = DIRECTION ( 'NONE',  ( 1.000000000000000000, 0.0000000000000000000, 0.0000000000000000000 ) ) ;
#50 = ORIENTED_EDGE ( 'NONE', *, *, #358, .F. ) ;
#51 = CYLINDRICAL_SURFACE ( 'NONE', #58, 1.416000000000000100 ) ;
#52 = ORIENTED_EDGE ( 'NONE', *, *, #265, .T. ) ;
#53 = STYLED_ITEM ( 'NONE', ( #398 ), #140 ) ;
#54 = DIRECTION ( 'NONE',  ( 0.0000000000000000000, 0.0000000000000000000, -1.000000000000000000 ) ) ;
#55 = CARTESIAN_POINT ( 'NONE',  ( 2.970993134731479500E-016, 0.0000000000000000000, 2.426000000000000200 ) ) ;
#56 = CIRCLE ( 'NONE', #108, 1.416000000000000100 ) ;
#57 = FACE_OUTER_BOUND ( 'NONE', #118, .T. ) ;
#58 = AXIS2_PLACEMENT_3D ( 'NONE', #271, #270, #10 ) ;
#59 = EDGE_LOOP ( 'NONE', ( #256, #130, #173, #46 ) ) ;
#60 = DIRECTION ( 'NONE',  ( 0.0000000000000000000, 0.0000000000000000000, -1.000000000000000000 ) ) ;
#61 = DIRECTION ( 'NONE',  ( 0.0000000000000000000, 0.0000000000000000000, -1.000000000000000000 ) ) ;
#62 = ADVANCED_FACE ( 'NONE', ( #286, #273 ), #93, .T. ) ;
#63 = AXIS2_PLACEMENT_3D ( 'NONE', #312, #320, #322 ) ;
#64 = ORIENTED_EDGE ( 'NONE', *, *, #28, .F. ) ;
#65 = CIRCLE ( 'NONE', #63, 5.029999999999999400 ) ;
#66 = VECTOR ( 'NONE', #136, 1000.000000000000000 ) ;
#67 = CARTESIAN_POINT ( 'NONE',  ( 0.0000000000000000000, 43.89999999999999900, 0.0000000000000000000 ) ) ;
#68 =( GEOMETRIC_REPRESENTATION_CONTEXT ( 3 ) GLOBAL_UNCERTAINTY_ASSIGNED_CONTEXT ( ( #215 ) ) GLOBAL_UNIT_ASSIGNED_CONTEXT ( ( #325, #334, #336 ) ) REPRESENTATION_CONTEXT ( 'NONE', 'WORKASPACE' ) );
#69 = DIRECTION ( 'NONE',  ( -0.0000000000000000000, -1.000000000000000000, -0.0000000000000000000 ) ) ;
#70 = CARTESIAN_POINT ( 'NONE',  ( 0.0000000000000000000, 42.53355512369680700, 0.0000000000000000000 ) ) ;
#71 = FACE_OUTER_BOUND ( 'NONE', #143, .T. ) ;
#72 = DIRECTION ( 'NONE',  ( 0.0000000000000000000, 0.0000000000000000000, -1.000000000000000000 ) ) ;
#73 = AXIS2_PLACEMENT_3D ( 'NONE', #228, #260, #321 ) ;
#74 = CARTESIAN_POINT ( 'NONE',  ( 0.0000000000000000000, 13.33000000000000200, 0.0000000000000000000 ) ) ;
#75 = CYLINDRICAL_SURFACE ( 'NONE', #102, 1.416000000000000100 ) ;
#76 = CIRCLE ( 'NONE', #98, 1.415999999999999900 ) ;
#77 = VECTOR ( 'NONE', #362, 1000.000000000000000 ) ;
#78 = AXIS2_PLACEMENT_3D ( 'NONE', #397, #388, #381 ) ;
#79 = DIRECTION ( 'NONE',  ( -0.0000000000000000000, -1.000000000000000000, -0.0000000000000000000 ) ) ;
#80 = CARTESIAN_POINT ( 'NONE',  ( 0.0000000000000000000, 42.53355512369680700, 0.0000000000000000000 ) ) ;
#81 = CARTESIAN_POINT ( 'NONE',  ( 0.0000000000000000000, 15.70000000000000300, -2.729565258478301000 ) ) ;
#82 = AXIS2_PLACEMENT_3D ( 'NONE', #243, #252, #254 ) ;
#83 = PRODUCT_DEFINITION_SHAPE ( 'NONE', 'NONE',  #17 ) ;
#84 = DIRECTION ( 'NONE',  ( 0.0000000000000000000, 0.0000000000000000000, -1.000000000000000000 ) ) ;
#85 = TOROIDAL_SURFACE ( 'NONE', #242, 2.729565258478301000, 2.370000000000001400 ) ;
#86 = CARTESIAN_POINT ( 'NONE',  ( 0.0000000000000000000, 15.70000000000000300, 0.0000000000000000000 ) ) ;
#87 = DIRECTION ( 'NONE',  ( 0.0000000000000000000, 0.0000000000000000000, -1.000000000000000000 ) ) ;
#88 = EDGE_CURVE ( 'NONE', #114, #117, #274, .T. ) ;
#89 = DIRECTION ( 'NONE',  ( 0.0000000000000000000, 0.0000000000000000000, -1.000000000000000000 ) ) ;
#90 = DIRECTION ( 'NONE',  ( -0.0000000000000000000, -1.000000000000000000, -0.0000000000000000000 ) ) ;
#91 = DIRECTION ( 'NONE',  ( 0.0000000000000000000, 0.0000000000000000000, -1.000000000000000000 ) ) ;
#92 = AXIS2_PLACEMENT_3D ( 'NONE', #233, #237, #248 ) ;
#93 = PLANE ( 'NONE',  #223 ) ;
#94 = ORIENTED_EDGE ( 'NONE', *, *, #345, .T. ) ;
#95 = ADVANCED_FACE ( 'NONE', ( #287 ), #280, .T. ) ;
#96 = CARTESIAN_POINT ( 'NONE',  ( 1.734099867592652200E-016, 42.53355512369680700, 1.416000000000000100 ) ) ;
#97 = AXIS2_PLACEMENT_3D ( 'NONE', #216, #220, #222 ) ;
#98 = AXIS2_PLACEMENT_3D ( 'NONE', #197, #206, #210 ) ;
#99 = DIRECTION ( 'NONE',  ( 0.0000000000000000000, -0.9238795325112886300, -0.3826834323650852900 ) ) ;
#100 = ORIENTED_EDGE ( 'NONE', *, *, #358, .T. ) ;
#101 = CARTESIAN_POINT ( 'NONE',  ( 0.0000000000000000000, 42.53355512369680700, -1.416000000000000100 ) ) ;
#102 = AXIS2_PLACEMENT_3D ( 'NONE', #141, #142, #133 ) ;
#103 = CARTESIAN_POINT ( 'NONE',  ( 0.0000000000000000000, 13.89999999999999900, 0.0000000000000000000 ) ) ;
#104 = ORIENTED_EDGE ( 'NONE', *, *, #302, .F. ) ;
#105 = ORIENTED_EDGE ( 'NONE', *, *, #317, .F. ) ;
#106 = ORIENTED_EDGE ( 'NONE', *, *, #319, .F. ) ;
#107 = DIRECTION ( 'NONE',  ( -0.0000000000000000000, -1.000000000000000000, -0.0000000000000000000 ) ) ;
#108 = AXIS2_PLACEMENT_3D ( 'NONE', #166, #168, #169 ) ;
#109 = DIRECTION ( 'NONE',  ( -0.0000000000000000000, -1.000000000000000000, -0.0000000000000000000 ) ) ;
#110 = DIRECTION ( 'NONE',  ( 0.0000000000000000000, 0.0000000000000000000, -1.000000000000000000 ) ) ;
#111 = EDGE_CURVE ( 'NONE', #328, #170, #281, .T. ) ;
#112 = ORIENTED_EDGE ( 'NONE', *, *, #351, .F. ) ;
#113 = EDGE_LOOP ( 'NONE', ( #131, #104 ) ) ;
#114 = VERTEX_POINT ( 'NONE', #218 ) ;
#115 = CARTESIAN_POINT ( 'NONE',  ( 1.734099867592652200E-016, 0.0000000000000000000, 1.416000000000000100 ) ) ;
#116 = VERTEX_POINT ( 'NONE', #24 ) ;
#117 = VERTEX_POINT ( 'NONE', #120 ) ;
#118 = EDGE_LOOP ( 'NONE', ( #196, #194 ) ) ;
#119 = AXIS2_PLACEMENT_3D ( 'NONE', #184, #185, #186 ) ;
#120 = CARTESIAN_POINT ( 'NONE',  ( -1.485496567365739700E-016, 0.0000000000000000000, 0.0000000000000000000 ) ) ;
#121 = CARTESIAN_POINT ( 'NONE',  ( 0.0000000000000000000, 2.426000000000000200, 0.0000000000000000000 ) ) ;
#122 = AXIS2_PLACEMENT_3D ( 'NONE', #121, #128, #132 ) ;
#123 = ORIENTED_EDGE ( 'NONE', *, *, #345, .F. ) ;
#124 = VERTEX_POINT ( 'NONE', #33 ) ;
#125 = ORIENTED_EDGE ( 'NONE', *, *, #217, .F. ) ;
#126 = AXIS2_PLACEMENT_3D ( 'NONE', #103, #109, #110 ) ;
#127 = AXIS2_PLACEMENT_3D ( 'NONE', #80, #16, #61 ) ;
#128 = DIRECTION ( 'NONE',  ( -0.0000000000000000000, -1.000000000000000000, -0.0000000000000000000 ) ) ;
#129 = DIRECTION ( 'NONE',  ( 0.0000000000000000000, -1.000000000000000000, -0.0000000000000000000 ) ) ;
#130 = ORIENTED_EDGE ( 'NONE', *, *, #341, .T. ) ;
#131 = ORIENTED_EDGE ( 'NONE', *, *, #347, .F. ) ;
#132 = DIRECTION ( 'NONE',  ( 0.0000000000000000000, 0.0000000000000000000, -1.000000000000000000 ) ) ;
#133 = DIRECTION ( 'NONE',  ( 0.0000000000000000000, 0.0000000000000000000, -1.000000000000000000 ) ) ;
#134 = ADVANCED_FACE ( 'NONE', ( #294 ), #295, .T. ) ;
#135 = AXIS2_PLACEMENT_3D ( 'NONE', #86, #90, #91 ) ;
#136 = DIRECTION ( 'NONE',  ( -0.0000000000000000000, -1.000000000000000000, -0.0000000000000000000 ) ) ;
#137 = VERTEX_POINT ( 'NONE', #81 ) ;
#138 = DIRECTION ( 'NONE',  ( 0.0000000000000000000, 0.0000000000000000000, -1.000000000000000000 ) ) ;
#139 = EDGE_CURVE ( 'NONE', #158, #337, #293, .T. ) ;
#140 = ADVANCED_BREP_SHAPE_REPRESENTATION ( '01661-00613', ( #257, #19 ), #68 ) ;
#141 = CARTESIAN_POINT ( 'NONE',  ( 0.0000000000000000000, 0.0000000000000000000, 0.0000000000000000000 ) ) ;
#142 = DIRECTION ( 'NONE',  ( -0.0000000000000000000, -1.000000000000000000, -0.0000000000000000000 ) ) ;
#143 = EDGE_LOOP ( 'NONE', ( #204, #331, #31, #225 ) ) ;
#144 = ORIENTED_EDGE ( 'NONE', *, *, #28, .T. ) ;
#145 = CARTESIAN_POINT ( 'NONE',  ( 0.0000000000000000000, 2.426000000000000200, 0.0000000000000000000 ) ) ;
#146 = AXIS2_PLACEMENT_3D ( 'NONE', #67, #69, #72 ) ;
#147 = CARTESIAN_POINT ( 'NONE',  ( 1.734099867592652200E-016, 42.53355512369680700, 1.416000000000000100 ) ) ;
#148 = ORIENTED_EDGE ( 'NONE', *, *, #23, .T. ) ;
#149 = AXIS2_PLACEMENT_3D ( 'NONE', #181, #177, #157 ) ;
#150 = ORIENTED_EDGE ( 'NONE', *, *, #396, .T. ) ;
#151 = ORIENTED_EDGE ( 'NONE', *, *, #217, .T. ) ;
#152 = AXIS2_PLACEMENT_3D ( 'NONE', #307, #22, #27 ) ;
#153 = CARTESIAN_POINT ( 'NONE',  ( 0.0000000000000000000, 2.426000000000000200, -2.426000000000000200 ) ) ;
#154 = EDGE_CURVE ( 'NONE', #163, #328, #299, .T. ) ;
#155 = ORIENTED_EDGE ( 'NONE', *, *, #394, .T. ) ;
#156 = VERTEX_POINT ( 'NONE', #262 ) ;
#157 = DIRECTION ( 'NONE',  ( 0.0000000000000000000, 0.0000000000000000000, 1.000000000000000000 ) ) ;
#158 = VERTEX_POINT ( 'NONE', #258 ) ;
#159 = VERTEX_POINT ( 'NONE', #314 ) ;
#160 = AXIS2_PLACEMENT_3D ( 'NONE', #43, #45, #48 ) ;
#161 = VERTEX_POINT ( 'NONE', #327 ) ;
#162 = ORIENTED_EDGE ( 'NONE', *, *, #272, .F. ) ;
#163 = VERTEX_POINT ( 'NONE', #308 ) ;
#164 = DIRECTION ( 'NONE',  ( 0.0000000000000000000, 0.0000000000000000000, -1.000000000000000000 ) ) ;
#165 =( GEOMETRIC_REPRESENTATION_CONTEXT ( 3 ) GLOBAL_UNCERTAINTY_ASSIGNED_CONTEXT ( ( #178 ) ) GLOBAL_UNIT_ASSIGNED_CONTEXT ( ( #8, #13, #14 ) ) REPRESENTATION_CONTEXT ( 'NONE', 'WORKASPACE' ) );
#166 = CARTESIAN_POINT ( 'NONE',  ( 0.0000000000000000000, 42.53355512369680700, 0.0000000000000000000 ) ) ;
#167 = ADVANCED_FACE ( 'NONE', ( #315 ), #304, .T. ) ;
#168 = DIRECTION ( 'NONE',  ( -0.0000000000000000000, -1.000000000000000000, -0.0000000000000000000 ) ) ;
#169 = DIRECTION ( 'NONE',  ( 0.0000000000000000000, 0.0000000000000000000, -1.000000000000000000 ) ) ;
#170 = VERTEX_POINT ( 'NONE', #261 ) ;
#171 = PLANE ( 'NONE',  #192 ) ;
#172 = EDGE_LOOP ( 'NONE', ( #202, #29, #330, #125, #112 ) ) ;
#173 = ORIENTED_EDGE ( 'NONE', *, *, #317, .T. ) ;
#174 = ORIENTED_EDGE ( 'NONE', *, *, #311, .T. ) ;
#175 = CARTESIAN_POINT ( 'NONE',  ( 0.0000000000000000000, 0.0000000000000000000, 0.0000000000000000000 ) ) ;
#176 = MECHANICAL_DESIGN_GEOMETRIC_PRESENTATION_REPRESENTATION (  '', ( #187 ), #165 ) ;
#177 = DIRECTION ( 'NONE',  ( -1.000000000000000000, 0.0000000000000000000, 0.0000000000000000000 ) ) ;
#178 = UNCERTAINTY_MEASURE_WITH_UNIT (LENGTH_MEASURE( 1.000000000000000100E-005 ), #8, 'distance_accuracy_value', 'NONE');
#179 = AXIS2_PLACEMENT_3D ( 'NONE', #297, #39, #84 ) ;
#180 = ORIENTED_EDGE ( 'NONE', *, *, #292, .T. ) ;
#181 = CARTESIAN_POINT ( 'NONE',  ( 0.0000000000000000000, 13.33000000000000200, -2.729565258478301000 ) ) ;
#182 = DIRECTION ( 'NONE',  ( 0.0000000000000000000, 1.000000000000000000, 0.0000000000000000000 ) ) ;
#183 = ORIENTED_EDGE ( 'NONE', *, *, #347, .T. ) ;
#184 = CARTESIAN_POINT ( 'NONE',  ( 0.0000000000000000000, 43.89999999999999900, 0.0000000000000000000 ) ) ;
#185 = DIRECTION ( 'NONE',  ( -0.0000000000000000000, -1.000000000000000000, -0.0000000000000000000 ) ) ;
#186 = DIRECTION ( 'NONE',  ( 0.0000000000000000000, 0.0000000000000000000, -1.000000000000000000 ) ) ;
#187 = STYLED_ITEM ( 'NONE', ( #338 ), #257 ) ;
#188 = ORIENTED_EDGE ( 'NONE', *, *, #335, .F. ) ;
#189 = VERTEX_POINT ( 'NONE', #283 ) ;
#190 = PRESENTATION_LAYER_ASSIGNMENT (  '', '', ( #187 ) ) ;
#191 = EDGE_LOOP ( 'NONE', ( #224, #333, #188, #105 ) ) ;
#192 = AXIS2_PLACEMENT_3D ( 'NONE', #393, #129, #138 ) ;
#193 = DIRECTION ( 'NONE',  ( -0.0000000000000000000, -1.000000000000000000, -0.0000000000000000000 ) ) ;
#194 = ORIENTED_EDGE ( 'NONE', *, *, #341, .F. ) ;
#195 = AXIS2_PLACEMENT_3D ( 'NONE', #175, #385, #234 ) ;
#196 = ORIENTED_EDGE ( 'NONE', *, *, #289, .F. ) ;
#197 = CARTESIAN_POINT ( 'NONE',  ( 0.0000000000000000000, 15.70000000000000300, 0.0000000000000000000 ) ) ;
#198 = ORIENTED_EDGE ( 'NONE', *, *, #367, .T. ) ;
#199 = CARTESIAN_POINT ( 'NONE',  ( 1.415999999999999900, 15.70000000000000300, 0.0000000000000000000 ) ) ;
#200 = ADVANCED_FACE ( 'NONE', ( #310, #313 ), #171, .T. ) ;
#201 = DIRECTION ( 'NONE',  ( -0.0000000000000000000, -1.000000000000000000, -0.0000000000000000000 ) ) ;
#202 = ORIENTED_EDGE ( 'NONE', *, *, #279, .F. ) ;
#203 = ORIENTED_EDGE ( 'NONE', *, *, #272, .T. ) ;
#204 = ORIENTED_EDGE ( 'NONE', *, *, #335, .T. ) ;
#205 = AXIS2_PLACEMENT_3D ( 'NONE', #74, #6, #89 ) ;
#206 = DIRECTION ( 'NONE',  ( -0.0000000000000000000, -1.000000000000000000, -0.0000000000000000000 ) ) ;
#207 = DIRECTION ( 'NONE',  ( 0.0000000000000000000, -0.0000000000000000000, 1.000000000000000000 ) ) ;
#208 = CLOSED_SHELL ( 'NONE', ( #32, #384, #134, #167, #264, #95, #230, #200, #2, #62, #329, #301, #359 ) ) ;
#209 = VERTEX_POINT ( 'NONE', #285 ) ;
#210 = DIRECTION ( 'NONE',  ( 0.0000000000000000000, 0.0000000000000000000, -1.000000000000000000 ) ) ;
#211 = AXIS2_PLACEMENT_3D ( 'NONE', #395, #79, #60 ) ;
#212 = FILL_AREA_STYLE ('',( #348 ) ) ;
#213 = AXIS2_PLACEMENT_3D ( 'NONE', #226, #266, #38 ) ;
#214 = PLANE ( 'NONE',  #73 ) ;
#215 = UNCERTAINTY_MEASURE_WITH_UNIT (LENGTH_MEASURE( 1.000000000000000100E-005 ), #325, 'distance_accuracy_value', 'NONE');
#216 = CARTESIAN_POINT ( 'NONE',  ( 0.0000000000000000000, 13.89999999999999900, 0.0000000000000000000 ) ) ;
#217 = EDGE_CURVE ( 'NONE', #114, #337, #323, .T. ) ;
#218 = CARTESIAN_POINT ( 'NONE',  ( -2.426000000000000200, 2.426000000000000200, 0.0000000000000000000 ) ) ;
#219 = PRODUCT_DEFINITION_CONTEXT ( 'detailed design', #369, 'design' ) ;
#220 = DIRECTION ( 'NONE',  ( -0.0000000000000000000, -1.000000000000000000, -0.0000000000000000000 ) ) ;
#221 = AXIS2_PLACEMENT_3D ( 'NONE', #70, #107, #164 ) ;
#222 = DIRECTION ( 'NONE',  ( 0.0000000000000000000, 0.0000000000000000000, -1.000000000000000000 ) ) ;
#223 = AXIS2_PLACEMENT_3D ( 'NONE', #199, #182, #207 ) ;
#224 = ORIENTED_EDGE ( 'NONE', *, *, #289, .T. ) ;
#225 = ORIENTED_EDGE ( 'NONE', *, *, #394, .F. ) ;
#226 = CARTESIAN_POINT ( 'NONE',  ( 0.0000000000000000000, 2.426000000000000200, 0.0000000000000000000 ) ) ;
#227 = AXIS2_PLACEMENT_3D ( 'NONE', #145, #247, #49 ) ;
#228 = CARTESIAN_POINT ( 'NONE',  ( 0.8499999999999999800, 43.89999999999999900, 0.0000000000000000000 ) ) ;
#229 = EDGE_LOOP ( 'NONE', ( #50, #174, #40, #5 ) ) ;
#230 = ADVANCED_FACE ( 'NONE', ( #309 ), #342, .T. ) ;
#231 = EDGE_LOOP ( 'NONE', ( #106, #246, #155, #123 ) ) ;
#232 = AXIS2_PLACEMENT_3D ( 'NONE', #290, #275, #87 ) ;
#233 = CARTESIAN_POINT ( 'NONE',  ( 0.0000000000000000000, 2.426000000000000200, 0.0000000000000000000 ) ) ;
#234 = DIRECTION ( 'NONE',  ( 0.0000000000000000000, 0.0000000000000000000, -1.000000000000000000 ) ) ;
#235 = EDGE_LOOP ( 'NONE', ( #52, #144, #391, #162 ) ) ;
#236 = AXIS2_PLACEMENT_3D ( 'NONE', #382, #360, #54 ) ;
#237 = DIRECTION ( 'NONE',  ( -0.0000000000000000000, -1.000000000000000000, -0.0000000000000000000 ) ) ;
#238 = AXIS2_PLACEMENT_3D ( 'NONE', #344, #390, #389 ) ;
#239 = EDGE_LOOP ( 'NONE', ( #241, #150 ) ) ;
#240 = EDGE_LOOP ( 'NONE', ( #151, #148, #100, #267 ) ) ;
#241 = ORIENTED_EDGE ( 'NONE', *, *, #35, .T. ) ;
#242 = AXIS2_PLACEMENT_3D ( 'NONE', #371, #193, #255 ) ;
#243 = CARTESIAN_POINT ( 'NONE',  ( 0.0000000000000000000, 2.426000000000000200, 0.0000000000000000000 ) ) ;
#244 = UNCERTAINTY_MEASURE_WITH_UNIT (LENGTH_MEASURE( 1.000000000000000100E-005 ), #353, 'distance_accuracy_value', 'NONE');
#245 = EDGE_LOOP ( 'NONE', ( #183, #375, #7, #44, #250 ) ) ;
#246 = ORIENTED_EDGE ( 'NONE', *, *, #111, .T. ) ;
#247 = DIRECTION ( 'NONE',  ( -0.0000000000000000000, 0.0000000000000000000, 1.000000000000000000 ) ) ;
#248 = DIRECTION ( 'NONE',  ( 0.0000000000000000000, 0.0000000000000000000, -1.000000000000000000 ) ) ;
#249 = LINE ( 'NONE', #284, #77 ) ;
#250 = ORIENTED_EDGE ( 'NONE', *, *, #139, .F. ) ;
#251 = EDGE_LOOP ( 'NONE', ( #198, #94 ) ) ;
#252 = DIRECTION ( 'NONE',  ( -1.224646799147353200E-016, 0.0000000000000000000, -1.000000000000000000 ) ) ;
#253 = AXIS2_PLACEMENT_3D ( 'NONE', #332, #201, #9 ) ;
#254 = DIRECTION ( 'NONE',  ( -1.000000000000000000, 0.0000000000000000000, 1.224646799147353500E-016 ) ) ;
#255 = DIRECTION ( 'NONE',  ( 0.0000000000000000000, 0.0000000000000000000, -1.000000000000000000 ) ) ;
#256 = ORIENTED_EDGE ( 'NONE', *, *, #154, .F. ) ;
#257 = MANIFOLD_SOLID_BREP ( 'Revolve1', #208 ) ;
#258 = CARTESIAN_POINT ( 'NONE',  ( 0.0000000000000000000, 13.89999999999999900, -2.426000000000000200 ) ) ;
#259 = PRODUCT ( '01661-00613', '01661-00613', '', ( #368 ) ) ;
#260 = DIRECTION ( 'NONE',  ( 0.0000000000000000000, 1.000000000000000000, 0.0000000000000000000 ) ) ;
#261 = CARTESIAN_POINT ( 'NONE',  ( 0.0000000000000000000, 42.53355512369680700, -1.416000000000000100 ) ) ;
#262 = CARTESIAN_POINT ( 'NONE',  ( 0.0000000000000000000, 43.89999999999999900, -0.8499999999999999800 ) ) ;
#263 = VERTEX_POINT ( 'NONE', #387 ) ;
#264 = ADVANCED_FACE ( 'NONE', ( #357 ), #373, .T. ) ;
#265 = EDGE_CURVE ( 'NONE', #137, #263, #372, .T. ) ;
#266 = DIRECTION ( 'NONE',  ( -0.0000000000000000000, -0.0000000000000000000, -1.000000000000000000 ) ) ;
#267 = ORIENTED_EDGE ( 'NONE', *, *, #88, .F. ) ;
#268 = FACE_OUTER_BOUND ( 'NONE', #269, .T. ) ;
#269 = EDGE_LOOP ( 'NONE', ( #64, #180, #203, #392 ) ) ;
#270 = DIRECTION ( 'NONE',  ( -0.0000000000000000000, -1.000000000000000000, -0.0000000000000000000 ) ) ;
#271 = CARTESIAN_POINT ( 'NONE',  ( 0.0000000000000000000, 0.0000000000000000000, 0.0000000000000000000 ) ) ;
#272 = EDGE_CURVE ( 'NONE', #137, #30, #355, .T. ) ;
#273 = FACE_OUTER_BOUND ( 'NONE', #298, .T. ) ;
#274 = CIRCLE ( 'NONE', #227, 2.426000000000000200 ) ;
#275 = DIRECTION ( 'NONE',  ( -0.0000000000000000000, -1.000000000000000000, -0.0000000000000000000 ) ) ;
#276 = CIRCLE ( 'NONE', #238, 2.370000000000001400 ) ;
#277 = CIRCLE ( 'NONE', #253, 2.426000000000000200 ) ;
#278 = FACE_OUTER_BOUND ( 'NONE', #191, .T. ) ;
#279 = EDGE_CURVE ( 'NONE', #159, #116, #363, .T. ) ;
#280 = SPHERICAL_SURFACE ( 'NONE', #213, 2.426000000000000200 ) ;
#281 = CIRCLE ( 'NONE', #221, 1.416000000000000100 ) ;
#282 = CIRCLE ( 'NONE', #232, 5.029999999999999400 ) ;
#283 = CARTESIAN_POINT ( 'NONE',  ( 1.734099867592652000E-016, 15.70000000000000300, 1.415999999999999900 ) ) ;
#284 = CARTESIAN_POINT ( 'NONE',  ( 0.0000000000000000000, 0.0000000000000000000, -1.416000000000000100 ) ) ;
#285 = CARTESIAN_POINT ( 'NONE',  ( 6.159973399711187500E-016, 13.90000000000000000, 5.029999999999999400 ) ) ;
#286 = FACE_BOUND ( 'NONE', #251, .T. ) ;
#287 = FACE_OUTER_BOUND ( 'NONE', #229, .T. ) ;
#288 = CONICAL_SURFACE ( 'NONE', #236, 1.416000000000000100, 0.3926990816987193100 ) ;
#289 = EDGE_CURVE ( 'NONE', #156, #163, #364, .T. ) ;
#290 = CARTESIAN_POINT ( 'NONE',  ( 0.0000000000000000000, 13.90000000000000000, 0.0000000000000000000 ) ) ;
#291 = FILL_AREA_STYLE_COLOUR ( '', #4 ) ;
#292 = EDGE_CURVE ( 'NONE', #263, #137, #21, .T. ) ;
#293 = LINE ( 'NONE', #349, #306 ) ;
#294 = FACE_OUTER_BOUND ( 'NONE', #235, .T. ) ;
#295 = TOROIDAL_SURFACE ( 'NONE', #205, 2.729565258478301000, 2.370000000000001400 ) ;
#296 = CARTESIAN_POINT ( 'NONE',  ( 0.0000000000000000000, 0.0000000000000000000, 0.0000000000000000000 ) ) ;
#297 = CARTESIAN_POINT ( 'NONE',  ( 0.0000000000000000000, 0.0000000000000000000, 0.0000000000000000000 ) ) ;
#298 = EDGE_LOOP ( 'NONE', ( #324, #305 ) ) ;
#299 = LINE ( 'NONE', #96, #303 ) ;
#300 = CARTESIAN_POINT ( 'NONE',  ( 0.0000000000000000000, 13.90000000000000000, -5.029999999999999400 ) ) ;
#301 = ADVANCED_FACE ( 'NONE', ( #365 ), #20, .T. ) ;
#302 = EDGE_CURVE ( 'NONE', #159, #158, #379, .T. ) ;
#303 = VECTOR ( 'NONE', #378, 1000.000000000000000 ) ;
#304 = CYLINDRICAL_SURFACE ( 'NONE', #195, 2.426000000000000200 ) ;
#305 = ORIENTED_EDGE ( 'NONE', *, *, #292, .F. ) ;
#306 = VECTOR ( 'NONE', #316, 1000.000000000000000 ) ;
#307 = CARTESIAN_POINT ( 'NONE',  ( 0.0000000000000000000, 2.426000000000000200, 0.0000000000000000000 ) ) ;
#308 = CARTESIAN_POINT ( 'NONE',  ( 1.387524823433951200E-016, 43.89999999999999900, 0.8499999999999999800 ) ) ;
#309 = FACE_OUTER_BOUND ( 'NONE', #172, .T. ) ;
#310 = FACE_OUTER_BOUND ( 'NONE', #239, .T. ) ;
#311 = EDGE_CURVE ( 'NONE', #124, #116, #25, .T. ) ;
#312 = CARTESIAN_POINT ( 'NONE',  ( 0.0000000000000000000, 13.90000000000000000, 0.0000000000000000000 ) ) ;
#313 = FACE_BOUND ( 'NONE', #113, .T. ) ;
#314 = CARTESIAN_POINT ( 'NONE',  ( 2.970993134731479500E-016, 13.89999999999999900, 2.426000000000000200 ) ) ;
#315 = FACE_OUTER_BOUND ( 'NONE', #245, .T. ) ;
#316 = DIRECTION ( 'NONE',  ( -0.0000000000000000000, -1.000000000000000000, -0.0000000000000000000 ) ) ;
#317 = EDGE_CURVE ( 'NONE', #156, #170, #377, .T. ) ;
#318 = COLOUR_RGB ( '',0.7921568627450980000, 0.8196078431372548800, 0.9333333333333333500 ) ;
#319 = EDGE_CURVE ( 'NONE', #328, #189, #376, .T. ) ;
#320 = DIRECTION ( 'NONE',  ( -0.0000000000000000000, -1.000000000000000000, -0.0000000000000000000 ) ) ;
#321 = DIRECTION ( 'NONE',  ( 0.0000000000000000000, -0.0000000000000000000, 1.000000000000000000 ) ) ;
#322 = DIRECTION ( 'NONE',  ( 0.0000000000000000000, 0.0000000000000000000, -1.000000000000000000 ) ) ;
#323 = CIRCLE ( 'NONE', #211, 2.426000000000000200 ) ;
#324 = ORIENTED_EDGE ( 'NONE', *, *, #265, .F. ) ;
#325 =( LENGTH_UNIT ( ) NAMED_UNIT ( * ) SI_UNIT ( .MILLI., .METRE. ) );
#326 = SHAPE_DEFINITION_REPRESENTATION ( #83, #140 ) ;
#327 = CARTESIAN_POINT ( 'NONE',  ( 0.0000000000000000000, 15.70000000000000300, -1.415999999999999900 ) ) ;
#328 = VERTEX_POINT ( 'NONE', #147 ) ;
#329 = ADVANCED_FACE ( 'NONE', ( #383 ), #75, .T. ) ;
#330 = ORIENTED_EDGE ( 'NONE', *, *, #139, .T. ) ;
#331 = ORIENTED_EDGE ( 'NONE', *, *, #319, .T. ) ;
#332 = CARTESIAN_POINT ( 'NONE',  ( 0.0000000000000000000, 2.426000000000000200, 0.0000000000000000000 ) ) ;
#333 = ORIENTED_EDGE ( 'NONE', *, *, #154, .T. ) ;
#334 =( NAMED_UNIT ( * ) PLANE_ANGLE_UNIT ( ) SI_UNIT ( $, .RADIAN. ) );
#335 = EDGE_CURVE ( 'NONE', #170, #328, #56, .T. ) ;
#336 =( NAMED_UNIT ( * ) SI_UNIT ( $, .STERADIAN. ) SOLID_ANGLE_UNIT ( ) );
#337 = VERTEX_POINT ( 'NONE', #153 ) ;
#338 = PRESENTATION_STYLE_ASSIGNMENT (( #3 ) ) ;
#339 = APPLICATION_PROTOCOL_DEFINITION ( 'draft international standard', 'automotive_design', 1998, #340 ) ;
#340 = APPLICATION_CONTEXT ( 'automotive_design' ) ;
#341 = EDGE_CURVE ( 'NONE', #163, #156, #380, .T. ) ;
#342 = CYLINDRICAL_SURFACE ( 'NONE', #179, 2.426000000000000200 ) ;
#343 = SURFACE_STYLE_FILL_AREA ( #212 ) ;
#344 = CARTESIAN_POINT ( 'NONE',  ( 3.342753356859269100E-016, 13.33000000000000200, 2.729565258478301000 ) ) ;
#345 = EDGE_CURVE ( 'NONE', #189, #161, #76, .T. ) ;
#346 = FILL_AREA_STYLE ('',( #291 ) ) ;
#347 = EDGE_CURVE ( 'NONE', #158, #159, #36, .T. ) ;
#348 = FILL_AREA_STYLE_COLOUR ( '', #318 ) ;
#349 = CARTESIAN_POINT ( 'NONE',  ( 0.0000000000000000000, 0.0000000000000000000, -2.426000000000000200 ) ) ;
#350 = SURFACE_SIDE_STYLE ('',( #386 ) ) ;
#351 = EDGE_CURVE ( 'NONE', #116, #114, #12, .T. ) ;
#352 = SURFACE_STYLE_USAGE ( .BOTH. , #350 ) ;
#353 =( LENGTH_UNIT ( ) NAMED_UNIT ( * ) SI_UNIT ( .MILLI., .METRE. ) );
#354 =( NAMED_UNIT ( * ) PLANE_ANGLE_UNIT ( ) SI_UNIT ( $, .RADIAN. ) );
#355 = CIRCLE ( 'NONE', #149, 2.370000000000001400 ) ;
#356 =( NAMED_UNIT ( * ) SI_UNIT ( $, .STERADIAN. ) SOLID_ANGLE_UNIT ( ) );
#357 = FACE_OUTER_BOUND ( 'NONE', #240, .T. ) ;
#358 = EDGE_CURVE ( 'NONE', #124, #117, #26, .T. ) ;
#359 = ADVANCED_FACE ( 'NONE', ( #57 ), #214, .T. ) ;
#360 = DIRECTION ( 'NONE',  ( -0.0000000000000000000, -1.000000000000000000, -0.0000000000000000000 ) ) ;
#361 = DIRECTION ( 'NONE',  ( 0.0000000000000000000, 0.0000000000000000000, 1.000000000000000000 ) ) ;
#362 = DIRECTION ( 'NONE',  ( -0.0000000000000000000, -1.000000000000000000, -0.0000000000000000000 ) ) ;
#363 = LINE ( 'NONE', #55, #370 ) ;
#364 = CIRCLE ( 'NONE', #146, 0.8499999999999999800 ) ;
#365 = FACE_OUTER_BOUND ( 'NONE', #59, .T. ) ;
#366 = DIRECTION ( 'NONE',  ( 1.000000000000000000, 0.0000000000000000000, 0.0000000000000000000 ) ) ;
#367 = EDGE_CURVE ( 'NONE', #161, #189, #18, .T. ) ;
#368 = PRODUCT_CONTEXT ( 'NONE', #340, 'mechanical' ) ;
#369 = APPLICATION_CONTEXT ( 'automotive_design' ) ;
#370 = VECTOR ( 'NONE', #41, 1000.000000000000000 ) ;
#371 = CARTESIAN_POINT ( 'NONE',  ( 0.0000000000000000000, 13.33000000000000200, 0.0000000000000000000 ) ) ;
#372 = CIRCLE ( 'NONE', #160, 2.729565258478301000 ) ;
#373 = SPHERICAL_SURFACE ( 'NONE', #152, 2.426000000000000200 ) ;
#374 = APPLICATION_PROTOCOL_DEFINITION ( 'draft international standard', 'automotive_design', 1998, #369 ) ;
#375 = ORIENTED_EDGE ( 'NONE', *, *, #279, .T. ) ;
#376 = LINE ( 'NONE', #115, #66 ) ;
#377 = LINE ( 'NONE', #101, #34 ) ;
#378 = DIRECTION ( 'NONE',  ( 4.686520405326243100E-017, -0.9238795325112886300, 0.3826834323650852900 ) ) ;
#379 = CIRCLE ( 'NONE', #126, 2.426000000000000200 ) ;
#380 = CIRCLE ( 'NONE', #119, 0.8499999999999999800 ) ;
#381 = DIRECTION ( 'NONE',  ( 0.0000000000000000000, 0.0000000000000000000, -1.000000000000000000 ) ) ;
#382 = CARTESIAN_POINT ( 'NONE',  ( 0.0000000000000000000, 42.53355512369680700, 0.0000000000000000000 ) ) ;
#383 = FACE_OUTER_BOUND ( 'NONE', #231, .T. ) ;
#384 = ADVANCED_FACE ( 'NONE', ( #71 ), #51, .T. ) ;
#385 = DIRECTION ( 'NONE',  ( -0.0000000000000000000, -1.000000000000000000, -0.0000000000000000000 ) ) ;
#386 = SURFACE_STYLE_FILL_AREA ( #346 ) ;
#387 = CARTESIAN_POINT ( 'NONE',  ( 4.751363378285228300E-016, 15.70000000000000300, 2.729565258478301000 ) ) ;
#388 = DIRECTION ( 'NONE',  ( -0.0000000000000000000, -1.000000000000000000, -0.0000000000000000000 ) ) ;
#389 = DIRECTION ( 'NONE',  ( -1.224646799147353200E-016, 0.0000000000000000000, -1.000000000000000000 ) ) ;
#390 = DIRECTION ( 'NONE',  ( 1.000000000000000000, 0.0000000000000000000, -1.224646799147353200E-016 ) ) ;
#391 = ORIENTED_EDGE ( 'NONE', *, *, #35, .F. ) ;
#392 = ORIENTED_EDGE ( 'NONE', *, *, #396, .F. ) ;
#393 = CARTESIAN_POINT ( 'NONE',  ( 2.426000000000000200, 13.89999999999999900, 0.0000000000000000000 ) ) ;
#394 = EDGE_CURVE ( 'NONE', #170, #161, #249, .T. ) ;
#395 = CARTESIAN_POINT ( 'NONE',  ( 0.0000000000000000000, 2.426000000000000200, 0.0000000000000000000 ) ) ;
#396 = EDGE_CURVE ( 'NONE', #209, #30, #65, .T. ) ;
#397 = CARTESIAN_POINT ( 'NONE',  ( 0.0000000000000000000, 15.70000000000000300, 0.0000000000000000000 ) ) ;
#398 = PRESENTATION_STYLE_ASSIGNMENT (( #352 ) ) ;
ENDSEC;
END-ISO-10303-21;
