ISO-10303-21;
HEADER;
FILE_DESCRIPTION (( 'STEP AP214' ),
    '1' );
FILE_NAME ('01641-00631MIDG_16_25mm.STEP',
    '2016-04-28T13:06:18',
    ( '' ),
    ( '' ),
    'SwSTEP 2.0',
    'SolidWorks 2015',
    '' );
FILE_SCHEMA (( 'AUTOMOTIVE_DESIGN' ));
ENDSEC;

DATA;
#1 = CARTESIAN_POINT ( 'NONE',  ( 0.0000000000000000000, 0.0000000000000000000, 0.0000000000000000000 ) ) ;
#2 = CARTESIAN_POINT ( 'NONE',  ( 2.031624584690768300E-016, 3.707168881056380500, 1.658947368421053600 ) ) ;
#3 = DIRECTION ( 'NONE',  ( 1.000000000000000000, 0.0000000000000000000, -1.224646799147353200E-016 ) ) ;
#4 = EDGE_CURVE ( 'NONE', #358, #198, #77, .T. ) ;
#5 = VERTEX_POINT ( 'NONE', #210 ) ;
#6 = ORIENTED_EDGE ( 'NONE', *, *, #255, .T. ) ;
#7 = ORIENTED_EDGE ( 'NONE', *, *, #357, .T. ) ;
#8 = DIRECTION ( 'NONE',  ( -0.0000000000000000000, -0.0000000000000000000, -1.000000000000000000 ) ) ;
#9 = EDGE_CURVE ( 'NONE', #59, #73, #207, .T. ) ;
#10 = CARTESIAN_POINT ( 'NONE',  ( 0.0000000000000000000, 0.8222671980093240200, 0.0000000000000000000 ) ) ;
#11 = ORIENTED_EDGE ( 'NONE', *, *, #89, .T. ) ;
#12 = EDGE_LOOP ( 'NONE', ( #200, #25 ) ) ;
#13 = DIRECTION ( 'NONE',  ( -1.224646799147353200E-016, 0.0000000000000000000, -1.000000000000000000 ) ) ;
#14 = CARTESIAN_POINT ( 'NONE',  ( 0.0000000000000000000, 20.50053990610328800, 0.0000000000000000000 ) ) ;
#15 = ORIENTED_EDGE ( 'NONE', *, *, #266, .T. ) ;
#16 = EDGE_LOOP ( 'NONE', ( #144, #231, #34, #83 ) ) ;
#17 = PRODUCT_RELATED_PRODUCT_CATEGORY ( 'part', '', ( #35 ) ) ;
#18 = DIRECTION ( 'NONE',  ( -0.0000000000000000000, -1.000000000000000000, -0.0000000000000000000 ) ) ;
#19 = DIRECTION ( 'NONE',  ( 1.000000000000000000, 0.0000000000000000000, -1.224646799147353200E-016 ) ) ;
#20 = DIRECTION ( 'NONE',  ( 0.0000000000000000000, 0.0000000000000000000, -1.000000000000000000 ) ) ;
#21 = ORIENTED_EDGE ( 'NONE', *, *, #85, .T. ) ;
#22 = DIRECTION ( 'NONE',  ( 0.0000000000000000000, 0.0000000000000000000, -1.000000000000000000 ) ) ;
#23 = CIRCLE ( 'NONE', #201, 2.524999999999999900 ) ;
#24 = PRODUCT_DEFINITION_FORMATION_WITH_SPECIFIED_SOURCE ( 'ANY', '', #35, .NOT_KNOWN. ) ;
#25 = ORIENTED_EDGE ( 'NONE', *, *, #341, .T. ) ;
#26 = ORIENTED_EDGE ( 'NONE', *, *, #330, .F. ) ;
#27 = AXIS2_PLACEMENT_3D ( 'NONE', #367, #19, #278 ) ;
#28 = CARTESIAN_POINT ( 'NONE',  ( 0.0000000000000000000, 3.257168881056379000, 0.0000000000000000000 ) ) ;
#29 = DIRECTION ( 'NONE',  ( -0.0000000000000000000, -1.000000000000000000, -0.0000000000000000000 ) ) ;
#30 = VERTEX_POINT ( 'NONE', #212 ) ;
#31 = CIRCLE ( 'NONE', #131, 1.815331160274324700 ) ;
#32 = ORIENTED_EDGE ( 'NONE', *, *, #269, .F. ) ;
#33 = VERTEX_POINT ( 'NONE', #296 ) ;
#34 = ORIENTED_EDGE ( 'NONE', *, *, #167, .T. ) ;
#35 = PRODUCT ( '01641-00631MIDG_16_25mm', '01641-00631MIDG_16_25mm', '', ( #112 ) ) ;
#36 = DIRECTION ( 'NONE',  ( 0.0000000000000000000, 0.0000000000000000000, -1.000000000000000000 ) ) ;
#37 = PRODUCT_DEFINITION ( 'UNKNOWN', '', #24, #324 ) ;
#38 = DIRECTION ( 'NONE',  ( -0.0000000000000000000, -1.000000000000000000, -0.0000000000000000000 ) ) ;
#39 = DIRECTION ( 'NONE',  ( 0.0000000000000000000, 0.0000000000000000000, 1.000000000000000000 ) ) ;
#40 = ORIENTED_EDGE ( 'NONE', *, *, #85, .F. ) ;
#41 = DIRECTION ( 'NONE',  ( -1.000000000000000000, 0.0000000000000000000, 0.0000000000000000000 ) ) ;
#42 = DIRECTION ( 'NONE',  ( -0.0000000000000000000, -1.000000000000000000, -0.0000000000000000000 ) ) ;
#43 = ADVANCED_FACE ( 'NONE', ( #365 ), #215, .T. ) ;
#44 = AXIS2_PLACEMENT_3D ( 'NONE', #146, #190, #191 ) ;
#45 = CARTESIAN_POINT ( 'NONE',  ( 0.0000000000000000000, 20.50053990610328800, -4.924999999999999800 ) ) ;
#46 = CIRCLE ( 'NONE', #116, 2.524999999999999900 ) ;
#47 = ORIENTED_EDGE ( 'NONE', *, *, #315, .T. ) ;
#48 = ORIENTED_EDGE ( 'NONE', *, *, #110, .T. ) ;
#49 = CARTESIAN_POINT ( 'NONE',  ( 4.406868198566191100E-016, 3.257168881056379000, 3.598480967438468300 ) ) ;
#50 = COLOUR_RGB ( '',0.7921568627450980000, 0.8196078431372548800, 0.9333333333333333500 ) ;
#51 = ADVANCED_FACE ( 'NONE', ( #242, #247 ), #362, .T. ) ;
#52 = CARTESIAN_POINT ( 'NONE',  ( 0.0000000000000000000, 21.75000000000000000, -8.064999999999999500 ) ) ;
#53 = ORIENTED_EDGE ( 'NONE', *, *, #363, .F. ) ;
#54 = CARTESIAN_POINT ( 'NONE',  ( 0.0000000000000000000, 0.0000000000000000000, 0.0000000000000000000 ) ) ;
#55 = DIRECTION ( 'NONE',  ( -1.000000000000000000, 0.0000000000000000000, 1.224646799147353200E-016 ) ) ;
#56 = VERTEX_POINT ( 'NONE', #219 ) ;
#57 = CARTESIAN_POINT ( 'NONE',  ( 0.0000000000000000000, 0.8222671980093240200, -1.815331160274324700 ) ) ;
#58 = CARTESIAN_POINT ( 'NONE',  ( 0.0000000000000000000, 0.8222671980093240200, 0.0000000000000000000 ) ) ;
#59 = VERTEX_POINT ( 'NONE', #52 ) ;
#60 = CARTESIAN_POINT ( 'NONE',  ( 9.876776435123404100E-016, 21.75000000000000000, 8.064999999999999500 ) ) ;
#61 = VERTEX_POINT ( 'NONE', #57 ) ;
#62 = CARTESIAN_POINT ( 'NONE',  ( 0.0000000000000000000, 23.87999999999999900, 0.0000000000000000000 ) ) ;
#63 = DIRECTION ( 'NONE',  ( -0.0000000000000000000, -1.000000000000000000, -0.0000000000000000000 ) ) ;
#64 = DIRECTION ( 'NONE',  ( -0.0000000000000000000, -1.000000000000000000, -0.0000000000000000000 ) ) ;
#65 = DIRECTION ( 'NONE',  ( 0.0000000000000000000, 0.0000000000000000000, -1.000000000000000000 ) ) ;
#66 = EDGE_CURVE ( 'NONE', #166, #220, #268, .T. ) ;
#67 = DIRECTION ( 'NONE',  ( 0.0000000000000000000, 0.0000000000000000000, -1.000000000000000000 ) ) ;
#68 = ORIENTED_EDGE ( 'NONE', *, *, #286, .T. ) ;
#69 = ORIENTED_EDGE ( 'NONE', *, *, #318, .F. ) ;
#70 =( GEOMETRIC_REPRESENTATION_CONTEXT ( 3 ) GLOBAL_UNCERTAINTY_ASSIGNED_CONTEXT ( ( #361 ) ) GLOBAL_UNIT_ASSIGNED_CONTEXT ( ( #240, #213, #185 ) ) REPRESENTATION_CONTEXT ( 'NONE', 'WORKASPACE' ) );
#71 =( NAMED_UNIT ( * ) PLANE_ANGLE_UNIT ( ) SI_UNIT ( $, .RADIAN. ) );
#72 = CIRCLE ( 'NONE', #174, 1.815331160274324700 ) ;
#73 = VERTEX_POINT ( 'NONE', #60 ) ;
#74 = DIRECTION ( 'NONE',  ( 0.0000000000000000000, -0.0000000000000000000, 1.000000000000000000 ) ) ;
#75 = ORIENTED_EDGE ( 'NONE', *, *, #243, .T. ) ;
#76 = ORIENTED_EDGE ( 'NONE', *, *, #199, .F. ) ;
#77 = LINE ( 'NONE', #354, #119 ) ;
#78 = MECHANICAL_DESIGN_GEOMETRIC_PRESENTATION_REPRESENTATION (  '', ( #96 ), #70 ) ;
#79 = DIRECTION ( 'NONE',  ( -0.0000000000000000000, -1.000000000000000000, -0.0000000000000000000 ) ) ;
#80 = DIRECTION ( 'NONE',  ( -1.224646799147353200E-016, 0.0000000000000000000, -1.000000000000000000 ) ) ;
#81 = ORIENTED_EDGE ( 'NONE', *, *, #318, .T. ) ;
#82 = ORIENTED_EDGE ( 'NONE', *, *, #282, .F. ) ;
#83 = ORIENTED_EDGE ( 'NONE', *, *, #315, .F. ) ;
#84 = ORIENTED_EDGE ( 'NONE', *, *, #259, .T. ) ;
#85 = EDGE_CURVE ( 'NONE', #30, #198, #250, .T. ) ;
#86 = CARTESIAN_POINT ( 'NONE',  ( 2.031624584690768300E-016, 2.807168881056380200, 1.658947368421053600 ) ) ;
#87 = EDGE_LOOP ( 'NONE', ( #234, #15, #227, #208 ) ) ;
#88 = PRESENTATION_LAYER_ASSIGNMENT (  '', '', ( #96 ) ) ;
#89 = EDGE_CURVE ( 'NONE', #135, #73, #151, .T. ) ;
#90 = DIRECTION ( 'NONE',  ( 0.0000000000000000000, -1.000000000000000000, -0.0000000000000000000 ) ) ;
#91 = CIRCLE ( 'NONE', #149, 8.064999999999999500 ) ;
#92 = DIRECTION ( 'NONE',  ( 1.000000000000000000, 0.0000000000000000000, -1.224646799147353200E-016 ) ) ;
#93 =( LENGTH_UNIT ( ) NAMED_UNIT ( * ) SI_UNIT ( .MILLI., .METRE. ) );
#94 = DIRECTION ( 'NONE',  ( -1.224646799147353200E-016, 0.0000000000000000000, -1.000000000000000000 ) ) ;
#95 = EDGE_LOOP ( 'NONE', ( #7, #182, #6, #53 ) ) ;
#96 = STYLED_ITEM ( 'NONE', ( #97 ), #287 ) ;
#97 = PRESENTATION_STYLE_ASSIGNMENT (( #251 ) ) ;
#98 = CARTESIAN_POINT ( 'NONE',  ( 3.092233167847066500E-016, 21.75000000000000000, 2.524999999999999900 ) ) ;
#99 = CARTESIAN_POINT ( 'NONE',  ( 0.0000000000000000000, 21.75000000000000000, 0.0000000000000000000 ) ) ;
#100 = DIRECTION ( 'NONE',  ( -0.0000000000000000000, -1.000000000000000000, -0.0000000000000000000 ) ) ;
#101 = DIRECTION ( 'NONE',  ( 0.0000000000000000000, 0.0000000000000000000, -1.000000000000000000 ) ) ;
#102 =( GEOMETRIC_REPRESENTATION_CONTEXT ( 3 ) GLOBAL_UNCERTAINTY_ASSIGNED_CONTEXT ( ( #122 ) ) GLOBAL_UNIT_ASSIGNED_CONTEXT ( ( #132, #170, #172 ) ) REPRESENTATION_CONTEXT ( 'NONE', 'WORKASPACE' ) );
#103 = CARTESIAN_POINT ( 'NONE',  ( 1.815331160274325000, 0.8222671980093240200, -2.223139494822402500E-016 ) ) ;
#104 = ORIENTED_EDGE ( 'NONE', *, *, #9, .F. ) ;
#105 = ORIENTED_EDGE ( 'NONE', *, *, #259, .F. ) ;
#106 = AXIS2_PLACEMENT_3D ( 'NONE', #331, #338, #67 ) ;
#107 = ORIENTED_EDGE ( 'NONE', *, *, #286, .F. ) ;
#108 = CARTESIAN_POINT ( 'NONE',  ( 0.0000000000000000000, 0.8222671980093240200, 0.0000000000000000000 ) ) ;
#109 = CARTESIAN_POINT ( 'NONE',  ( 0.0000000000000000000, 2.415000000000000000, 0.0000000000000000000 ) ) ;
#110 = EDGE_CURVE ( 'NONE', #135, #33, #238, .T. ) ;
#111 = DIRECTION ( 'NONE',  ( -0.0000000000000000000, -1.000000000000000000, -0.0000000000000000000 ) ) ;
#112 = PRODUCT_CONTEXT ( 'NONE', #184, 'mechanical' ) ;
#113 = DIRECTION ( 'NONE',  ( 0.0000000000000000000, 0.0000000000000000000, -1.000000000000000000 ) ) ;
#114 = CARTESIAN_POINT ( 'NONE',  ( 0.0000000000000000000, 2.807168881056380200, -1.658947368421053600 ) ) ;
#115 = DIRECTION ( 'NONE',  ( -0.0000000000000000000, -1.000000000000000000, -0.0000000000000000000 ) ) ;
#116 = AXIS2_PLACEMENT_3D ( 'NONE', #147, #152, #161 ) ;
#117 = DIRECTION ( 'NONE',  ( -0.0000000000000000000, -1.000000000000000000, -0.0000000000000000000 ) ) ;
#118 = FILL_AREA_STYLE_COLOUR ( '', #50 ) ;
#119 = VECTOR ( 'NONE', #348, 1000.000000000000000 ) ;
#120 = EDGE_LOOP ( 'NONE', ( #248, #11, #104, #105 ) ) ;
#121 = AXIS2_PLACEMENT_3D ( 'NONE', #283, #90, #164 ) ;
#122 = UNCERTAINTY_MEASURE_WITH_UNIT (LENGTH_MEASURE( 1.000000000000000100E-005 ), #132, 'distance_accuracy_value', 'NONE');
#123 = AXIS2_PLACEMENT_3D ( 'NONE', #133, #138, #140 ) ;
#124 = CIRCLE ( 'NONE', #157, 1.991052631578945400 ) ;
#125 = DIRECTION ( 'NONE',  ( -1.000000000000000000, 0.0000000000000000000, 0.0000000000000000000 ) ) ;
#126 = VERTEX_POINT ( 'NONE', #136 ) ;
#127 = ORIENTED_EDGE ( 'NONE', *, *, #110, .F. ) ;
#128 = DIRECTION ( 'NONE',  ( -0.0000000000000000000, -1.000000000000000000, -0.0000000000000000000 ) ) ;
#129 = DIRECTION ( 'NONE',  ( -0.0000000000000000000, -1.000000000000000000, -0.0000000000000000000 ) ) ;
#130 = VERTEX_POINT ( 'NONE', #49 ) ;
#131 = AXIS2_PLACEMENT_3D ( 'NONE', #108, #111, #113 ) ;
#132 =( LENGTH_UNIT ( ) NAMED_UNIT ( * ) SI_UNIT ( .MILLI., .METRE. ) );
#133 = CARTESIAN_POINT ( 'NONE',  ( 0.0000000000000000000, 2.415000000000000000, 0.0000000000000000000 ) ) ;
#134 = ORIENTED_EDGE ( 'NONE', *, *, #89, .F. ) ;
#135 = VERTEX_POINT ( 'NONE', #237 ) ;
#136 = CARTESIAN_POINT ( 'NONE',  ( 0.0000000000000000000, 21.75000000000000000, -2.524999999999999900 ) ) ;
#137 = PRODUCT_DEFINITION_SHAPE ( 'NONE', 'NONE',  #37 ) ;
#138 = DIRECTION ( 'NONE',  ( -0.0000000000000000000, 0.0000000000000000000, 1.000000000000000000 ) ) ;
#139 = ADVANCED_FACE ( 'NONE', ( #275 ), #271, .T. ) ;
#140 = DIRECTION ( 'NONE',  ( 1.000000000000000000, 0.0000000000000000000, 0.0000000000000000000 ) ) ;
#141 = AXIS2_PLACEMENT_3D ( 'NONE', #370, #342, #366 ) ;
#142 = TOROIDAL_SURFACE ( 'NONE', #209, 4.924999999999999800, 3.379460093896711600 ) ;
#143 = CARTESIAN_POINT ( 'NONE',  ( 0.0000000000000000000, 5.500000000000000000, 0.0000000000000000000 ) ) ;
#144 = ORIENTED_EDGE ( 'NONE', *, *, #4, .F. ) ;
#145 = CLOSED_SHELL ( 'NONE', ( #222, #301, #252, #194, #139, #203, #204, #162, #264, #51, #312, #43 ) ) ;
#146 = CARTESIAN_POINT ( 'NONE',  ( 0.0000000000000000000, 0.0000000000000000000, 0.0000000000000000000 ) ) ;
#147 = CARTESIAN_POINT ( 'NONE',  ( 0.0000000000000000000, 21.75000000000000000, 0.0000000000000000000 ) ) ;
#148 = CARTESIAN_POINT ( 'NONE',  ( 0.0000000000000000000, 3.707168881056380500, 0.0000000000000000000 ) ) ;
#149 = AXIS2_PLACEMENT_3D ( 'NONE', #99, #100, #101 ) ;
#150 = EDGE_LOOP ( 'NONE', ( #21, #68, #321, #82 ) ) ;
#151 = CIRCLE ( 'NONE', #27, 3.379460093896711600 ) ;
#152 = DIRECTION ( 'NONE',  ( -0.0000000000000000000, -1.000000000000000000, -0.0000000000000000000 ) ) ;
#153 = AXIS2_PLACEMENT_3D ( 'NONE', #352, #115, #158 ) ;
#154 = DIRECTION ( 'NONE',  ( 0.0000000000000000000, 0.0000000000000000000, -1.000000000000000000 ) ) ;
#155 = ORIENTED_EDGE ( 'NONE', *, *, #336, .F. ) ;
#156 = FILL_AREA_STYLE_COLOUR ( '', #178 ) ;
#157 = AXIS2_PLACEMENT_3D ( 'NONE', #86, #92, #94 ) ;
#158 = DIRECTION ( 'NONE',  ( 0.0000000000000000000, 0.0000000000000000000, -1.000000000000000000 ) ) ;
#159 = DIRECTION ( 'NONE',  ( -0.0000000000000000000, -1.000000000000000000, -0.0000000000000000000 ) ) ;
#160 = ORIENTED_EDGE ( 'NONE', *, *, #167, .F. ) ;
#161 = DIRECTION ( 'NONE',  ( 0.0000000000000000000, 0.0000000000000000000, -1.000000000000000000 ) ) ;
#162 = ADVANCED_FACE ( 'NONE', ( #274 ), #267, .T. ) ;
#163 = ORIENTED_EDGE ( 'NONE', *, *, #266, .F. ) ;
#164 = DIRECTION ( 'NONE',  ( 0.0000000000000000000, 0.0000000000000000000, -1.000000000000000000 ) ) ;
#165 = DIRECTION ( 'NONE',  ( -0.0000000000000000000, -1.000000000000000000, -0.0000000000000000000 ) ) ;
#166 = VERTEX_POINT ( 'NONE', #300 ) ;
#167 = EDGE_CURVE ( 'NONE', #126, #30, #280, .T. ) ;
#168 = DIRECTION ( 'NONE',  ( 0.0000000000000000000, 0.0000000000000000000, -1.000000000000000000 ) ) ;
#169 = DIRECTION ( 'NONE',  ( -0.0000000000000000000, -1.000000000000000000, -0.0000000000000000000 ) ) ;
#170 =( NAMED_UNIT ( * ) PLANE_ANGLE_UNIT ( ) SI_UNIT ( $, .RADIAN. ) );
#171 = CIRCLE ( 'NONE', #189, 3.598480967438468300 ) ;
#172 =( NAMED_UNIT ( * ) SI_UNIT ( $, .STERADIAN. ) SOLID_ANGLE_UNIT ( ) );
#173 = EDGE_LOOP ( 'NONE', ( #241, #345, #40, #160 ) ) ;
#174 = AXIS2_PLACEMENT_3D ( 'NONE', #58, #63, #65 ) ;
#175 = EDGE_LOOP ( 'NONE', ( #107, #47, #235, #69 ) ) ;
#176 = CARTESIAN_POINT ( 'NONE',  ( 0.0000000000000000000, 3.257168881056379000, 0.0000000000000000000 ) ) ;
#177 = CIRCLE ( 'NONE', #317, 3.379460093896711600 ) ;
#178 = COLOUR_RGB ( '',0.7921568627450980000, 0.8196078431372548800, 0.9333333333333333500 ) ;
#179 = APPLICATION_PROTOCOL_DEFINITION ( 'draft international standard', 'automotive_design', 1998, #184 ) ;
#180 = CYLINDRICAL_SURFACE ( 'NONE', #195, 2.524999999999999900 ) ;
#181 = ORIENTED_EDGE ( 'NONE', *, *, #341, .F. ) ;
#182 = ORIENTED_EDGE ( 'NONE', *, *, #330, .T. ) ;
#183 = ORIENTED_EDGE ( 'NONE', *, *, #336, .T. ) ;
#184 = APPLICATION_CONTEXT ( 'automotive_design' ) ;
#185 =( NAMED_UNIT ( * ) SI_UNIT ( $, .STERADIAN. ) SOLID_ANGLE_UNIT ( ) );
#186 = DIRECTION ( 'NONE',  ( 0.0000000000000000000, 0.0000000000000000000, -1.000000000000000000 ) ) ;
#187 = FACE_OUTER_BOUND ( 'NONE', #173, .T. ) ;
#188 = DIRECTION ( 'NONE',  ( 0.0000000000000000000, 0.0000000000000000000, -1.000000000000000000 ) ) ;
#189 = AXIS2_PLACEMENT_3D ( 'NONE', #28, #29, #36 ) ;
#190 = DIRECTION ( 'NONE',  ( 0.0000000000000000000, 0.0000000000000000000, 1.000000000000000000 ) ) ;
#191 = DIRECTION ( 'NONE',  ( 1.000000000000000000, 0.0000000000000000000, 0.0000000000000000000 ) ) ;
#192 = EDGE_LOOP ( 'NONE', ( #32, #127 ) ) ;
#193 = CIRCLE ( 'NONE', #360, 3.598480967438468300 ) ;
#194 = ADVANCED_FACE ( 'NONE', ( #289 ), #279, .T. ) ;
#195 = AXIS2_PLACEMENT_3D ( 'NONE', #1, #129, #288 ) ;
#196 = APPLICATION_CONTEXT ( 'automotive_design' ) ;
#197 = EDGE_CURVE ( 'NONE', #126, #358, #216, .T. ) ;
#198 = VERTEX_POINT ( 'NONE', #290 ) ;
#199 = EDGE_CURVE ( 'NONE', #56, #61, #272, .T. ) ;
#200 = ORIENTED_EDGE ( 'NONE', *, *, #9, .T. ) ;
#201 = AXIS2_PLACEMENT_3D ( 'NONE', #143, #117, #22 ) ;
#202 = EDGE_LOOP ( 'NONE', ( #155, #81, #229, #206, #344 ) ) ;
#203 = ADVANCED_FACE ( 'NONE', ( #297 ), #298, .T. ) ;
#204 = ADVANCED_FACE ( 'NONE', ( #303 ), #304, .T. ) ;
#205 = APPLICATION_PROTOCOL_DEFINITION ( 'draft international standard', 'automotive_design', 1998, #196 ) ;
#206 = ORIENTED_EDGE ( 'NONE', *, *, #357, .F. ) ;
#207 = CIRCLE ( 'NONE', #106, 8.064999999999999500 ) ;
#208 = ORIENTED_EDGE ( 'NONE', *, *, #363, .T. ) ;
#209 = AXIS2_PLACEMENT_3D ( 'NONE', #14, #18, #20 ) ;
#210 = CARTESIAN_POINT ( 'NONE',  ( -1.478761009970428900E-016, 4.336808689942017700E-016, 0.0000000000000000000 ) ) ;
#211 = AXIS2_PLACEMENT_3D ( 'NONE', #340, #310, #74 ) ;
#212 = CARTESIAN_POINT ( 'NONE',  ( 0.0000000000000000000, 5.500000000000000000, -2.524999999999999900 ) ) ;
#213 =( NAMED_UNIT ( * ) PLANE_ANGLE_UNIT ( ) SI_UNIT ( $, .RADIAN. ) );
#214 = ORIENTED_EDGE ( 'NONE', *, *, #369, .F. ) ;
#215 = PLANE ( 'NONE',  #211 ) ;
#216 = CIRCLE ( 'NONE', #329, 2.524999999999999900 ) ;
#217 = SHAPE_DEFINITION_REPRESENTATION ( #137, #287 ) ;
#218 = AXIS2_PLACEMENT_3D ( 'NONE', #2, #3, #13 ) ;
#219 = CARTESIAN_POINT ( 'NONE',  ( 0.0000000000000000000, 3.257168881056379000, -3.598480967438468300 ) ) ;
#220 = VERTEX_POINT ( 'NONE', #244 ) ;
#221 = ORIENTED_EDGE ( 'NONE', *, *, #197, .F. ) ;
#222 = ADVANCED_FACE ( 'NONE', ( #293 ), #359, .T. ) ;
#223 = DIRECTION ( 'NONE',  ( 0.0000000000000000000, 0.0000000000000000000, -1.000000000000000000 ) ) ;
#224 = FACE_OUTER_BOUND ( 'NONE', #228, .T. ) ;
#225 = AXIS2_PLACEMENT_3D ( 'NONE', #261, #125, #260 ) ;
#226 = EDGE_LOOP ( 'NONE', ( #221, #214 ) ) ;
#227 = ORIENTED_EDGE ( 'NONE', *, *, #66, .T. ) ;
#228 = EDGE_LOOP ( 'NONE', ( #134, #48, #84, #181 ) ) ;
#229 = ORIENTED_EDGE ( 'NONE', *, *, #199, .T. ) ;
#230 = AXIS2_PLACEMENT_3D ( 'NONE', #299, #356, #347 ) ;
#231 = ORIENTED_EDGE ( 'NONE', *, *, #369, .T. ) ;
#232 =( GEOMETRIC_REPRESENTATION_CONTEXT ( 3 ) GLOBAL_UNCERTAINTY_ASSIGNED_CONTEXT ( ( #371 ) ) GLOBAL_UNIT_ASSIGNED_CONTEXT ( ( #93, #71, #325 ) ) REPRESENTATION_CONTEXT ( 'NONE', 'WORKASPACE' ) );
#233 = AXIS2_PLACEMENT_3D ( 'NONE', #353, #332, #273 ) ;
#234 = ORIENTED_EDGE ( 'NONE', *, *, #255, .F. ) ;
#235 = ORIENTED_EDGE ( 'NONE', *, *, #282, .T. ) ;
#236 = DIRECTION ( 'NONE',  ( 0.0000000000000000000, 0.0000000000000000000, -1.000000000000000000 ) ) ;
#237 = CARTESIAN_POINT ( 'NONE',  ( 7.954080960462058600E-016, 23.87999999999999900, 4.924999999999999800 ) ) ;
#238 = CIRCLE ( 'NONE', #230, 4.924999999999999800 ) ;
#239 = MECHANICAL_DESIGN_GEOMETRIC_PRESENTATION_REPRESENTATION (  '', ( #257 ), #232 ) ;
#240 =( LENGTH_UNIT ( ) NAMED_UNIT ( * ) SI_UNIT ( .MILLI., .METRE. ) );
#241 = ORIENTED_EDGE ( 'NONE', *, *, #197, .T. ) ;
#242 = FACE_OUTER_BOUND ( 'NONE', #12, .T. ) ;
#243 = EDGE_CURVE ( 'NONE', #56, #130, #193, .T. ) ;
#244 = CARTESIAN_POINT ( 'NONE',  ( -1.815331160274325000, 0.8222671980093240200, 0.0000000000000000000 ) ) ;
#245 = CARTESIAN_POINT ( 'NONE',  ( 0.0000000000000000000, 2.807168881056380200, 0.0000000000000000000 ) ) ;
#246 = CIRCLE ( 'NONE', #218, 1.991052631578946300 ) ;
#247 = FACE_BOUND ( 'NONE', #226, .T. ) ;
#248 = ORIENTED_EDGE ( 'NONE', *, *, #269, .T. ) ;
#249 = CARTESIAN_POINT ( 'NONE',  ( 0.0000000000000000000, 20.50053990610328800, 0.0000000000000000000 ) ) ;
#250 = CIRCLE ( 'NONE', #233, 2.524999999999999900 ) ;
#251 = SURFACE_STYLE_USAGE ( .BOTH. , #262 ) ;
#252 = ADVANCED_FACE ( 'NONE', ( #307 ), #309, .T. ) ;
#253 = DIRECTION ( 'NONE',  ( -1.000000000000000000, 0.0000000000000000000, 0.0000000000000000000 ) ) ;
#254 = PRESENTATION_LAYER_ASSIGNMENT (  '', '', ( #257 ) ) ;
#255 = EDGE_CURVE ( 'NONE', #372, #5, #313, .T. ) ;
#256 = DIRECTION ( 'NONE',  ( 0.0000000000000000000, 0.0000000000000000000, 1.000000000000000000 ) ) ;
#257 = STYLED_ITEM ( 'NONE', ( #335 ), #276 ) ;
#258 = EDGE_LOOP ( 'NONE', ( #75, #183, #163, #26, #76 ) ) ;
#259 = EDGE_CURVE ( 'NONE', #33, #59, #177, .T. ) ;
#260 = DIRECTION ( 'NONE',  ( 0.0000000000000000000, 0.0000000000000000000, 1.000000000000000000 ) ) ;
#261 = CARTESIAN_POINT ( 'NONE',  ( 0.0000000000000000000, 3.707168881056380500, -1.658947368421053600 ) ) ;
#262 = SURFACE_SIDE_STYLE ('',( #334 ) ) ;
#263 = AXIS2_PLACEMENT_3D ( 'NONE', #54, #128, #188 ) ;
#264 = ADVANCED_FACE ( 'NONE', ( #316 ), #322, .T. ) ;
#265 = DIRECTION ( 'NONE',  ( -1.000000000000000000, 0.0000000000000000000, 0.0000000000000000000 ) ) ;
#266 = EDGE_CURVE ( 'NONE', #372, #166, #327, .T. ) ;
#267 = TOROIDAL_SURFACE ( 'NONE', #323, 1.658947368421053600, 1.991052631578946300 ) ;
#268 = CIRCLE ( 'NONE', #153, 1.815331160274324700 ) ;
#269 = EDGE_CURVE ( 'NONE', #33, #135, #311, .T. ) ;
#270 = FILL_AREA_STYLE ('',( #118 ) ) ;
#271 = SPHERICAL_SURFACE ( 'NONE', #141, 2.414999999999999600 ) ;
#272 = CIRCLE ( 'NONE', #364, 1.991052631578945400 ) ;
#273 = DIRECTION ( 'NONE',  ( 0.0000000000000000000, 0.0000000000000000000, -1.000000000000000000 ) ) ;
#274 = FACE_OUTER_BOUND ( 'NONE', #175, .T. ) ;
#275 = FACE_OUTER_BOUND ( 'NONE', #95, .T. ) ;
#276 = MANIFOLD_SOLID_BREP ( 'Revolve1', #145 ) ;
#277 = DIRECTION ( 'NONE',  ( -0.0000000000000000000, -1.000000000000000000, -0.0000000000000000000 ) ) ;
#278 = DIRECTION ( 'NONE',  ( -1.224646799147353000E-016, 0.0000000000000000000, -1.000000000000000000 ) ) ;
#279 = TOROIDAL_SURFACE ( 'NONE', #368, 1.658947368421053600, 1.991052631578945400 ) ;
#280 = LINE ( 'NONE', #295, #291 ) ;
#281 = CARTESIAN_POINT ( 'NONE',  ( 0.0000000000000000000, 21.75000000000000000, 0.0000000000000000000 ) ) ;
#282 = EDGE_CURVE ( 'NONE', #30, #56, #349, .T. ) ;
#283 = CARTESIAN_POINT ( 'NONE',  ( 2.524999999999999900, 21.75000000000000000, 0.0000000000000000000 ) ) ;
#284 = DIRECTION ( 'NONE',  ( 0.0000000000000000000, 0.0000000000000000000, -1.000000000000000000 ) ) ;
#285 = FILL_AREA_STYLE ('',( #156 ) ) ;
#286 = EDGE_CURVE ( 'NONE', #198, #130, #246, .T. ) ;
#287 = ADVANCED_BREP_SHAPE_REPRESENTATION ( '01641-00631MIDG_16_25mm', ( #276, #44 ), #102 ) ;
#288 = DIRECTION ( 'NONE',  ( 0.0000000000000000000, 0.0000000000000000000, -1.000000000000000000 ) ) ;
#289 = FACE_OUTER_BOUND ( 'NONE', #258, .T. ) ;
#290 = CARTESIAN_POINT ( 'NONE',  ( 3.749550683206629800E-016, 5.500000000000000000, 2.524999999999999900 ) ) ;
#291 = VECTOR ( 'NONE', #38, 1000.000000000000000 ) ;
#292 = DIRECTION ( 'NONE',  ( 0.0000000000000000000, 0.0000000000000000000, -1.000000000000000000 ) ) ;
#293 = FACE_OUTER_BOUND ( 'NONE', #120, .T. ) ;
#294 = CARTESIAN_POINT ( 'NONE',  ( 0.0000000000000000000, 3.707168881056380500, 0.0000000000000000000 ) ) ;
#295 = CARTESIAN_POINT ( 'NONE',  ( 0.0000000000000000000, 0.0000000000000000000, -2.524999999999999900 ) ) ;
#296 = CARTESIAN_POINT ( 'NONE',  ( 0.0000000000000000000, 23.87999999999999900, -4.924999999999999800 ) ) ;
#297 = FACE_OUTER_BOUND ( 'NONE', #87, .T. ) ;
#298 = SPHERICAL_SURFACE ( 'NONE', #355, 2.414999999999999600 ) ;
#299 = CARTESIAN_POINT ( 'NONE',  ( 0.0000000000000000000, 23.87999999999999900, 0.0000000000000000000 ) ) ;
#300 = CARTESIAN_POINT ( 'NONE',  ( 3.315003846694297000E-016, 0.8222671980093240200, 1.815331160274324700 ) ) ;
#301 = ADVANCED_FACE ( 'NONE', ( #187 ), #180, .T. ) ;
#302 = CARTESIAN_POINT ( 'NONE',  ( 0.0000000000000000000, 2.807168881056380200, 0.0000000000000000000 ) ) ;
#303 = FACE_OUTER_BOUND ( 'NONE', #202, .T. ) ;
#304 = TOROIDAL_SURFACE ( 'NONE', #350, 1.658947368421053600, 1.991052631578945400 ) ;
#305 = AXIS2_PLACEMENT_3D ( 'NONE', #10, #326, #223 ) ;
#306 = CARTESIAN_POINT ( 'NONE',  ( 0.0000000000000000000, 2.415000000000000000, 0.0000000000000000000 ) ) ;
#307 = FACE_OUTER_BOUND ( 'NONE', #150, .T. ) ;
#308 = AXIS2_PLACEMENT_3D ( 'NONE', #62, #79, #292 ) ;
#309 = TOROIDAL_SURFACE ( 'NONE', #337, 1.658947368421053600, 1.991052631578946300 ) ;
#310 = DIRECTION ( 'NONE',  ( 0.0000000000000000000, 1.000000000000000000, 0.0000000000000000000 ) ) ;
#311 = CIRCLE ( 'NONE', #308, 4.924999999999999800 ) ;
#312 = ADVANCED_FACE ( 'NONE', ( #224 ), #142, .T. ) ;
#313 = CIRCLE ( 'NONE', #339, 2.414999999999999600 ) ;
#314 = DIRECTION ( 'NONE',  ( 0.0000000000000000000, 0.0000000000000000000, -1.000000000000000000 ) ) ;
#315 = EDGE_CURVE ( 'NONE', #198, #30, #23, .T. ) ;
#316 = FACE_OUTER_BOUND ( 'NONE', #16, .T. ) ;
#317 = AXIS2_PLACEMENT_3D ( 'NONE', #45, #41, #39 ) ;
#318 = EDGE_CURVE ( 'NONE', #130, #56, #171, .T. ) ;
#319 = SURFACE_STYLE_FILL_AREA ( #285 ) ;
#320 = SURFACE_SIDE_STYLE ('',( #319 ) ) ;
#321 = ORIENTED_EDGE ( 'NONE', *, *, #243, .F. ) ;
#322 = CYLINDRICAL_SURFACE ( 'NONE', #263, 2.524999999999999900 ) ;
#323 = AXIS2_PLACEMENT_3D ( 'NONE', #294, #64, #351 ) ;
#324 = PRODUCT_DEFINITION_CONTEXT ( 'detailed design', #196, 'design' ) ;
#325 =( NAMED_UNIT ( * ) SI_UNIT ( $, .STERADIAN. ) SOLID_ANGLE_UNIT ( ) );
#326 = DIRECTION ( 'NONE',  ( -0.0000000000000000000, -1.000000000000000000, -0.0000000000000000000 ) ) ;
#327 = CIRCLE ( 'NONE', #305, 1.815331160274324700 ) ;
#328 = CIRCLE ( 'NONE', #123, 2.414999999999999600 ) ;
#329 = AXIS2_PLACEMENT_3D ( 'NONE', #281, #277, #284 ) ;
#330 = EDGE_CURVE ( 'NONE', #61, #372, #72, .T. ) ;
#331 = CARTESIAN_POINT ( 'NONE',  ( 0.0000000000000000000, 21.75000000000000000, 0.0000000000000000000 ) ) ;
#332 = DIRECTION ( 'NONE',  ( -0.0000000000000000000, -1.000000000000000000, -0.0000000000000000000 ) ) ;
#333 = DIRECTION ( 'NONE',  ( -0.0000000000000000000, -1.000000000000000000, -0.0000000000000000000 ) ) ;
#334 = SURFACE_STYLE_FILL_AREA ( #270 ) ;
#335 = PRESENTATION_STYLE_ASSIGNMENT (( #346 ) ) ;
#336 = EDGE_CURVE ( 'NONE', #130, #166, #124, .T. ) ;
#337 = AXIS2_PLACEMENT_3D ( 'NONE', #148, #165, #186 ) ;
#338 = DIRECTION ( 'NONE',  ( -0.0000000000000000000, -1.000000000000000000, -0.0000000000000000000 ) ) ;
#339 = AXIS2_PLACEMENT_3D ( 'NONE', #109, #80, #55 ) ;
#340 = CARTESIAN_POINT ( 'NONE',  ( 4.924999999999999800, 23.87999999999999900, 0.0000000000000000000 ) ) ;
#341 = EDGE_CURVE ( 'NONE', #73, #59, #91, .T. ) ;
#342 = DIRECTION ( 'NONE',  ( -0.0000000000000000000, -0.0000000000000000000, -1.000000000000000000 ) ) ;
#343 = AXIS2_PLACEMENT_3D ( 'NONE', #249, #159, #154 ) ;
#344 = ORIENTED_EDGE ( 'NONE', *, *, #66, .F. ) ;
#345 = ORIENTED_EDGE ( 'NONE', *, *, #4, .T. ) ;
#346 = SURFACE_STYLE_USAGE ( .BOTH. , #320 ) ;
#347 = DIRECTION ( 'NONE',  ( 0.0000000000000000000, 0.0000000000000000000, -1.000000000000000000 ) ) ;
#348 = DIRECTION ( 'NONE',  ( -0.0000000000000000000, -1.000000000000000000, -0.0000000000000000000 ) ) ;
#349 = CIRCLE ( 'NONE', #225, 1.991052631578946300 ) ;
#350 = AXIS2_PLACEMENT_3D ( 'NONE', #245, #42, #236 ) ;
#351 = DIRECTION ( 'NONE',  ( 0.0000000000000000000, 0.0000000000000000000, -1.000000000000000000 ) ) ;
#352 = CARTESIAN_POINT ( 'NONE',  ( 0.0000000000000000000, 0.8222671980093240200, 0.0000000000000000000 ) ) ;
#353 = CARTESIAN_POINT ( 'NONE',  ( 0.0000000000000000000, 5.500000000000000000, 0.0000000000000000000 ) ) ;
#354 = CARTESIAN_POINT ( 'NONE',  ( 3.092233167847066500E-016, 0.0000000000000000000, 2.524999999999999900 ) ) ;
#355 = AXIS2_PLACEMENT_3D ( 'NONE', #306, #8, #253 ) ;
#356 = DIRECTION ( 'NONE',  ( -0.0000000000000000000, -1.000000000000000000, -0.0000000000000000000 ) ) ;
#357 = EDGE_CURVE ( 'NONE', #220, #61, #31, .T. ) ;
#358 = VERTEX_POINT ( 'NONE', #98 ) ;
#359 = TOROIDAL_SURFACE ( 'NONE', #343, 4.924999999999999800, 3.379460093896711600 ) ;
#360 = AXIS2_PLACEMENT_3D ( 'NONE', #176, #169, #168 ) ;
#361 = UNCERTAINTY_MEASURE_WITH_UNIT (LENGTH_MEASURE( 1.000000000000000100E-005 ), #240, 'distance_accuracy_value', 'NONE');
#362 = PLANE ( 'NONE',  #121 ) ;
#363 = EDGE_CURVE ( 'NONE', #220, #5, #328, .T. ) ;
#364 = AXIS2_PLACEMENT_3D ( 'NONE', #114, #265, #256 ) ;
#365 = FACE_OUTER_BOUND ( 'NONE', #192, .T. ) ;
#366 = DIRECTION ( 'NONE',  ( -1.000000000000000000, 0.0000000000000000000, 0.0000000000000000000 ) ) ;
#367 = CARTESIAN_POINT ( 'NONE',  ( 6.031385485800714100E-016, 20.50053990610328800, 4.924999999999999800 ) ) ;
#368 = AXIS2_PLACEMENT_3D ( 'NONE', #302, #333, #314 ) ;
#369 = EDGE_CURVE ( 'NONE', #358, #126, #46, .T. ) ;
#370 = CARTESIAN_POINT ( 'NONE',  ( 0.0000000000000000000, 2.415000000000000000, 0.0000000000000000000 ) ) ;
#371 = UNCERTAINTY_MEASURE_WITH_UNIT (LENGTH_MEASURE( 1.000000000000000100E-005 ), #93, 'distance_accuracy_value', 'NONE');
#372 = VERTEX_POINT ( 'NONE', #103 ) ;
ENDSEC;
END-ISO-10303-21;
