ISO-10303-21;
HEADER;
FILE_DESCRIPTION (( 'STEP AP214' ),
    '1' );
FILE_NAME ('01641-00631.STEP',
    '2016-04-05T09:59:34',
    ( '' ),
    ( '' ),
    'SwSTEP 2.0',
    'SolidWorks 2015',
    '' );
FILE_SCHEMA (( 'AUTOMOTIVE_DESIGN' ));
ENDSEC;

DATA;
#1 = SURFACE_STYLE_USAGE ( .BOTH. , #51 ) ;
#2 = PRODUCT_DEFINITION ( 'UNKNOWN', '', #33, #358 ) ;
#3 = ADVANCED_FACE ( 'NONE', ( #92 ), #266, .T. ) ;
#4 = EDGE_LOOP ( 'NONE', ( #295, #158, #311, #316 ) ) ;
#5 = ADVANCED_FACE ( 'NONE', ( #384 ), #231, .T. ) ;
#6 = FILL_AREA_STYLE ('',( #67 ) ) ;
#7 = PRODUCT_RELATED_PRODUCT_CATEGORY ( 'part', '', ( #155 ) ) ;
#8 = CIRCLE ( 'NONE', #38, 2.415000000000000000 ) ;
#9 = ADVANCED_FACE ( 'NONE', ( #396 ), #265, .T. ) ;
#10 = AXIS2_PLACEMENT_3D ( 'NONE', #220, #159, #154 ) ;
#11 = ORIENTED_EDGE ( 'NONE', *, *, #315, .F. ) ;
#12 = ADVANCED_FACE ( 'NONE', ( #223 ), #279, .T. ) ;
#13 = ORIENTED_EDGE ( 'NONE', *, *, #192, .T. ) ;
#14 = CARTESIAN_POINT ( 'NONE',  ( 1.734099867592652000E-016, 57.16355512369680300, 1.415999999999999900 ) ) ;
#15 = ADVANCED_FACE ( 'NONE', ( #204 ), #232, .T. ) ;
#16 = CARTESIAN_POINT ( 'NONE',  ( 0.0000000000000000000, 58.53000000000000100, -0.8499999999999999800 ) ) ;
#17 =( NAMED_UNIT ( * ) PLANE_ANGLE_UNIT ( ) SI_UNIT ( $, .RADIAN. ) );
#18 =( GEOMETRIC_REPRESENTATION_CONTEXT ( 3 ) GLOBAL_UNCERTAINTY_ASSIGNED_CONTEXT ( ( #353 ) ) GLOBAL_UNIT_ASSIGNED_CONTEXT ( ( #176, #175, #174 ) ) REPRESENTATION_CONTEXT ( 'NONE', 'WORKASPACE' ) );
#19 = CARTESIAN_POINT ( 'NONE',  ( 0.0000000000000000000, 30.32999999999999800, 0.0000000000000000000 ) ) ;
#20 = MECHANICAL_DESIGN_GEOMETRIC_PRESENTATION_REPRESENTATION (  '', ( #27 ), #18 ) ;
#21 = DIRECTION ( 'NONE',  ( -0.0000000000000000000, -1.000000000000000000, -0.0000000000000000000 ) ) ;
#22 = DIRECTION ( 'NONE',  ( 0.0000000000000000000, 0.0000000000000000000, -1.000000000000000000 ) ) ;
#23 = CARTESIAN_POINT ( 'NONE',  ( 2.415000000000000000, 28.19999999999999900, 0.0000000000000000000 ) ) ;
#24 = CARTESIAN_POINT ( 'NONE',  ( 0.0000000000000000000, 0.0000000000000000000, -2.415000000000000000 ) ) ;
#25 = DIRECTION ( 'NONE',  ( -0.0000000000000000000, -1.000000000000000000, -0.0000000000000000000 ) ) ;
#26 = PRESENTATION_LAYER_ASSIGNMENT (  '', '', ( #27 ) ) ;
#27 = STYLED_ITEM ( 'NONE', ( #208 ), #362 ) ;
#28 = ADVANCED_FACE ( 'NONE', ( #230 ), #250, .T. ) ;
#29 = EDGE_LOOP ( 'NONE', ( #130, #118 ) ) ;
#30 = AXIS2_PLACEMENT_3D ( 'NONE', #203, #126, #264 ) ;
#31 = AXIS2_PLACEMENT_3D ( 'NONE', #215, #213, #211 ) ;
#32 = CARTESIAN_POINT ( 'NONE',  ( 8.433030044673189800E-016, 30.32999999999999800, 5.707183213224569200 ) ) ;
#33 = PRODUCT_DEFINITION_FORMATION_WITH_SPECIFIED_SOURCE ( 'ANY', '', #155, .NOT_KNOWN. ) ;
#34 = CARTESIAN_POINT ( 'NONE',  ( 0.0000000000000000000, 28.19999999999999900, 0.0000000000000000000 ) ) ;
#35 = DIRECTION ( 'NONE',  ( -0.0000000000000000000, -1.000000000000000000, -0.0000000000000000000 ) ) ;
#36 =( GEOMETRIC_REPRESENTATION_CONTEXT ( 3 ) GLOBAL_UNCERTAINTY_ASSIGNED_CONTEXT ( ( #395 ) ) GLOBAL_UNIT_ASSIGNED_CONTEXT ( ( #238, #206, #195 ) ) REPRESENTATION_CONTEXT ( 'NONE', 'WORKASPACE' ) );
#37 = AXIS2_PLACEMENT_3D ( 'NONE', #257, #247, #244 ) ;
#38 = AXIS2_PLACEMENT_3D ( 'NONE', #354, #373, #389 ) ;
#39 = DIRECTION ( 'NONE',  ( 0.0000000000000000000, -0.9238795325112892900, -0.3826834323650834500 ) ) ;
#40 = CARTESIAN_POINT ( 'NONE',  ( 2.957522019940858200E-016, 2.415000000000000000, 2.415000000000000000 ) ) ;
#41 = CARTESIAN_POINT ( 'NONE',  ( 0.0000000000000000000, 27.95999999999999400, 0.0000000000000000000 ) ) ;
#42 = AXIS2_PLACEMENT_3D ( 'NONE', #153, #170, #181 ) ;
#43 = DIRECTION ( 'NONE',  ( 0.0000000000000000000, 0.0000000000000000000, -1.000000000000000000 ) ) ;
#44 = EDGE_LOOP ( 'NONE', ( #79, #86, #235, #73 ) ) ;
#45 = EDGE_LOOP ( 'NONE', ( #187, #167 ) ) ;
#46 = AXIS2_PLACEMENT_3D ( 'NONE', #365, #314, #301 ) ;
#47 = PRODUCT_DEFINITION_SHAPE ( 'NONE', 'NONE',  #2 ) ;
#48 = AXIS2_PLACEMENT_3D ( 'NONE', #351, #379, #370 ) ;
#49 = AXIS2_PLACEMENT_3D ( 'NONE', #212, #128, #62 ) ;
#50 = CLOSED_SHELL ( 'NONE', ( #299, #366, #5, #390, #15, #9, #12, #327, #28, #346, #267, #3, #371 ) ) ;
#51 = SURFACE_SIDE_STYLE ('',( #309 ) ) ;
#52 = ORIENTED_EDGE ( 'NONE', *, *, #198, .F. ) ;
#53 = ORIENTED_EDGE ( 'NONE', *, *, #205, .F. ) ;
#54 = AXIS2_PLACEMENT_3D ( 'NONE', #276, #275, #271 ) ;
#55 = ORIENTED_EDGE ( 'NONE', *, *, #385, .F. ) ;
#56 = DIRECTION ( 'NONE',  ( -0.0000000000000000000, -1.000000000000000000, -0.0000000000000000000 ) ) ;
#57 = AXIS2_PLACEMENT_3D ( 'NONE', #350, #349, #345 ) ;
#58 = ORIENTED_EDGE ( 'NONE', *, *, #117, .T. ) ;
#59 = ORIENTED_EDGE ( 'NONE', *, *, #385, .T. ) ;
#60 = AXIS2_PLACEMENT_3D ( 'NONE', #392, #391, #381 ) ;
#61 = AXIS2_PLACEMENT_3D ( 'NONE', #363, #361, #360 ) ;
#62 = DIRECTION ( 'NONE',  ( 0.0000000000000000000, 0.0000000000000000000, -1.000000000000000000 ) ) ;
#63 = EDGE_LOOP ( 'NONE', ( #292, #268, #254, #218, #193 ) ) ;
#64 = VERTEX_POINT ( 'NONE', #160 ) ;
#65 = ORIENTED_EDGE ( 'NONE', *, *, #359, .T. ) ;
#66 = AXIS2_PLACEMENT_3D ( 'NONE', #23, #108, #398 ) ;
#67 = FILL_AREA_STYLE_COLOUR ( '', #322 ) ;
#68 = DIRECTION ( 'NONE',  ( -0.0000000000000000000, -1.000000000000000000, -0.0000000000000000000 ) ) ;
#69 = FACE_OUTER_BOUND ( 'NONE', #328, .T. ) ;
#70 = ORIENTED_EDGE ( 'NONE', *, *, #214, .F. ) ;
#71 = DIRECTION ( 'NONE',  ( 4.686520405326220900E-017, -0.9238795325112892900, 0.3826834323650834500 ) ) ;
#72 = AXIS2_PLACEMENT_3D ( 'NONE', #263, #131, #355 ) ;
#73 = ORIENTED_EDGE ( 'NONE', *, *, #287, .F. ) ;
#74 =( GEOMETRIC_REPRESENTATION_CONTEXT ( 3 ) GLOBAL_UNCERTAINTY_ASSIGNED_CONTEXT ( ( #123 ) ) GLOBAL_UNIT_ASSIGNED_CONTEXT ( ( #339, #17, #99 ) ) REPRESENTATION_CONTEXT ( 'NONE', 'WORKASPACE' ) );
#75 = MECHANICAL_DESIGN_GEOMETRIC_PRESENTATION_REPRESENTATION (  '', ( #81 ), #74 ) ;
#76 = PRESENTATION_LAYER_ASSIGNMENT (  '', '', ( #81 ) ) ;
#77 = CARTESIAN_POINT ( 'NONE',  ( 9.876776435123404100E-016, 28.19999999999999900, 8.064999999999999500 ) ) ;
#78 = FACE_BOUND ( 'NONE', #29, .T. ) ;
#79 = ORIENTED_EDGE ( 'NONE', *, *, #225, .F. ) ;
#80 = DIRECTION ( 'NONE',  ( -0.0000000000000000000, -1.000000000000000000, -0.0000000000000000000 ) ) ;
#81 = STYLED_ITEM ( 'NONE', ( #286 ), #317 ) ;
#82 = CARTESIAN_POINT ( 'NONE',  ( 0.0000000000000000000, 57.16355512369680300, 0.0000000000000000000 ) ) ;
#83 = CARTESIAN_POINT ( 'NONE',  ( 1.734099867592652000E-016, 57.16355512369680300, 1.415999999999999900 ) ) ;
#84 = AXIS2_PLACEMENT_3D ( 'NONE', #306, #340, #352 ) ;
#85 = APPLICATION_CONTEXT ( 'automotive_design' ) ;
#86 = ORIENTED_EDGE ( 'NONE', *, *, #357, .T. ) ;
#87 = DIRECTION ( 'NONE',  ( -1.000000000000000000, 0.0000000000000000000, 0.0000000000000000000 ) ) ;
#88 = DIRECTION ( 'NONE',  ( 0.0000000000000000000, 0.0000000000000000000, -1.000000000000000000 ) ) ;
#89 = AXIS2_PLACEMENT_3D ( 'NONE', #82, #80, #111 ) ;
#90 = DIRECTION ( 'NONE',  ( -0.0000000000000000000, -1.000000000000000000, -0.0000000000000000000 ) ) ;
#91 = ORIENTED_EDGE ( 'NONE', *, *, #117, .F. ) ;
#92 = FACE_OUTER_BOUND ( 'NONE', #163, .T. ) ;
#93 = ORIENTED_EDGE ( 'NONE', *, *, #281, .F. ) ;
#94 = ORIENTED_EDGE ( 'NONE', *, *, #199, .F. ) ;
#95 = DIRECTION ( 'NONE',  ( -0.0000000000000000000, -1.000000000000000000, -0.0000000000000000000 ) ) ;
#96 = EDGE_CURVE ( 'NONE', #253, #64, #269, .T. ) ;
#97 = PLANE ( 'NONE',  #60 ) ;
#98 = AXIS2_PLACEMENT_3D ( 'NONE', #149, #56, #138 ) ;
#99 =( NAMED_UNIT ( * ) SI_UNIT ( $, .STERADIAN. ) SOLID_ANGLE_UNIT ( ) );
#100 = EDGE_CURVE ( 'NONE', #234, #241, #242, .T. ) ;
#101 = DIRECTION ( 'NONE',  ( 0.0000000000000000000, 0.0000000000000000000, -1.000000000000000000 ) ) ;
#102 = CARTESIAN_POINT ( 'NONE',  ( 0.0000000000000000000, 0.0000000000000000000, -1.415999999999999900 ) ) ;
#103 = VERTEX_POINT ( 'NONE', #14 ) ;
#104 = CARTESIAN_POINT ( 'NONE',  ( 0.0000000000000000000, 27.95999999999999400, 0.0000000000000000000 ) ) ;
#105 = AXIS2_PLACEMENT_3D ( 'NONE', #196, #151, #165 ) ;
#106 = CARTESIAN_POINT ( 'NONE',  ( 0.0000000000000000000, 2.415000000000000000, -2.415000000000000000 ) ) ;
#107 = DIRECTION ( 'NONE',  ( -0.0000000000000000000, -1.000000000000000000, -0.0000000000000000000 ) ) ;
#108 = DIRECTION ( 'NONE',  ( 0.0000000000000000000, -1.000000000000000000, -0.0000000000000000000 ) ) ;
#109 = ORIENTED_EDGE ( 'NONE', *, *, #214, .T. ) ;
#110 = AXIS2_PLACEMENT_3D ( 'NONE', #335, #376, #377 ) ;
#111 = DIRECTION ( 'NONE',  ( 0.0000000000000000000, 0.0000000000000000000, -1.000000000000000000 ) ) ;
#112 = CARTESIAN_POINT ( 'NONE',  ( 0.0000000000000000000, 30.32999999999999800, 0.0000000000000000000 ) ) ;
#113 = VERTEX_POINT ( 'NONE', #162 ) ;
#114 = VERTEX_POINT ( 'NONE', #16 ) ;
#115 = VERTEX_POINT ( 'NONE', #32 ) ;
#116 = AXIS2_PLACEMENT_3D ( 'NONE', #312, #293, #356 ) ;
#117 = EDGE_CURVE ( 'NONE', #114, #113, #387, .T. ) ;
#118 = ORIENTED_EDGE ( 'NONE', *, *, #287, .T. ) ;
#119 = AXIS2_PLACEMENT_3D ( 'NONE', #157, #260, #240 ) ;
#120 = AXIS2_PLACEMENT_3D ( 'NONE', #277, #201, #324 ) ;
#121 = AXIS2_PLACEMENT_3D ( 'NONE', #382, #90, #101 ) ;
#122 = DIRECTION ( 'NONE',  ( 0.0000000000000000000, 0.0000000000000000000, -1.000000000000000000 ) ) ;
#123 = UNCERTAINTY_MEASURE_WITH_UNIT (LENGTH_MEASURE( 1.000000000000000100E-005 ), #339, 'distance_accuracy_value', 'NONE');
#124 = CIRCLE ( 'NONE', #31, 2.370000000000003700 ) ;
#125 = AXIS2_PLACEMENT_3D ( 'NONE', #112, #95, #88 ) ;
#126 = DIRECTION ( 'NONE',  ( -0.0000000000000000000, -1.000000000000000000, -0.0000000000000000000 ) ) ;
#127 = ORIENTED_EDGE ( 'NONE', *, *, #294, .F. ) ;
#128 = DIRECTION ( 'NONE',  ( -0.0000000000000000000, -1.000000000000000000, -0.0000000000000000000 ) ) ;
#129 = AXIS2_PLACEMENT_3D ( 'NONE', #259, #251, #249 ) ;
#130 = ORIENTED_EDGE ( 'NONE', *, *, #96, .T. ) ;
#131 = DIRECTION ( 'NONE',  ( -0.0000000000000000000, -0.0000000000000000000, -1.000000000000000000 ) ) ;
#132 = ORIENTED_EDGE ( 'NONE', *, *, #393, .T. ) ;
#133 = FACE_OUTER_BOUND ( 'NONE', #190, .T. ) ;
#134 = CARTESIAN_POINT ( 'NONE',  ( 0.0000000000000000000, 57.16355512369680300, -1.415999999999999900 ) ) ;
#135 = ORIENTED_EDGE ( 'NONE', *, *, #199, .T. ) ;
#136 = CARTESIAN_POINT ( 'NONE',  ( 0.0000000000000000000, 28.19999999999999900, -8.064999999999999500 ) ) ;
#137 = CARTESIAN_POINT ( 'NONE',  ( 1.387524823433950900E-016, 58.53000000000000100, 0.8499999999999999800 ) ) ;
#138 = DIRECTION ( 'NONE',  ( 0.0000000000000000000, 0.0000000000000000000, -1.000000000000000000 ) ) ;
#139 = EDGE_CURVE ( 'NONE', #343, #272, #289, .T. ) ;
#140 = AXIS2_PLACEMENT_3D ( 'NONE', #296, #68, #388 ) ;
#141 = APPLICATION_PROTOCOL_DEFINITION ( 'draft international standard', 'automotive_design', 1998, #85 ) ;
#142 = PLANE ( 'NONE',  #66 ) ;
#143 = CYLINDRICAL_SURFACE ( 'NONE', #30, 2.415000000000000000 ) ;
#144 = EDGE_CURVE ( 'NONE', #243, #252, #291, .T. ) ;
#145 = AXIS2_PLACEMENT_3D ( 'NONE', #386, #184, #43 ) ;
#146 = AXIS2_PLACEMENT_3D ( 'NONE', #34, #156, #147 ) ;
#147 = DIRECTION ( 'NONE',  ( 0.0000000000000000000, 0.0000000000000000000, -1.000000000000000000 ) ) ;
#148 = ORIENTED_EDGE ( 'NONE', *, *, #359, .F. ) ;
#149 = CARTESIAN_POINT ( 'NONE',  ( 0.0000000000000000000, 28.19999999999999900, 0.0000000000000000000 ) ) ;
#150 = DIRECTION ( 'NONE',  ( 0.0000000000000000000, 0.0000000000000000000, -1.000000000000000000 ) ) ;
#151 = DIRECTION ( 'NONE',  ( -0.0000000000000000000, 0.0000000000000000000, 1.000000000000000000 ) ) ;
#152 = PRODUCT_CONTEXT ( 'NONE', #182, 'mechanical' ) ;
#153 = CARTESIAN_POINT ( 'NONE',  ( 0.0000000000000000000, 2.415000000000000000, 0.0000000000000000000 ) ) ;
#154 = DIRECTION ( 'NONE',  ( 1.000000000000000000, 0.0000000000000000000, 0.0000000000000000000 ) ) ;
#155 = PRODUCT ( '01641-00631', '01641-00631', '', ( #152 ) ) ;
#156 = DIRECTION ( 'NONE',  ( -0.0000000000000000000, -1.000000000000000000, -0.0000000000000000000 ) ) ;
#157 = CARTESIAN_POINT ( 'NONE',  ( 0.0000000000000000000, 30.32999999999999800, 0.0000000000000000000 ) ) ;
#158 = ORIENTED_EDGE ( 'NONE', *, *, #378, .T. ) ;
#159 = DIRECTION ( 'NONE',  ( 0.0000000000000000000, 0.0000000000000000000, 1.000000000000000000 ) ) ;
#160 = CARTESIAN_POINT ( 'NONE',  ( 1.734099867592652000E-016, 30.32999999999999800, 1.415999999999999900 ) ) ;
#161 = AXIS2_PLACEMENT_3D ( 'NONE', #104, #189, #122 ) ;
#162 = CARTESIAN_POINT ( 'NONE',  ( 0.0000000000000000000, 57.16355512369680300, -1.415999999999999900 ) ) ;
#163 = EDGE_LOOP ( 'NONE', ( #70, #59, #58, #331 ) ) ;
#164 = AXIS2_PLACEMENT_3D ( 'NONE', #310, #237, #320 ) ;
#165 = DIRECTION ( 'NONE',  ( 1.000000000000000000, 0.0000000000000000000, 0.0000000000000000000 ) ) ;
#166 = CYLINDRICAL_SURFACE ( 'NONE', #48, 1.415999999999999900 ) ;
#167 = ORIENTED_EDGE ( 'NONE', *, *, #383, .F. ) ;
#168 = CIRCLE ( 'NONE', #57, 2.370000000000003700 ) ;
#169 = ORIENTED_EDGE ( 'NONE', *, *, #205, .T. ) ;
#170 = DIRECTION ( 'NONE',  ( -0.0000000000000000000, -1.000000000000000000, -0.0000000000000000000 ) ) ;
#171 = AXIS2_PLACEMENT_3D ( 'NONE', #19, #21, #22 ) ;
#172 = ORIENTED_EDGE ( 'NONE', *, *, #256, .T. ) ;
#173 = CIRCLE ( 'NONE', #61, 1.415999999999999900 ) ;
#174 =( NAMED_UNIT ( * ) SI_UNIT ( $, .STERADIAN. ) SOLID_ANGLE_UNIT ( ) );
#175 =( NAMED_UNIT ( * ) PLANE_ANGLE_UNIT ( ) SI_UNIT ( $, .RADIAN. ) );
#176 =( LENGTH_UNIT ( ) NAMED_UNIT ( * ) SI_UNIT ( .MILLI., .METRE. ) );
#177 = SURFACE_STYLE_USAGE ( .BOTH. , #178 ) ;
#178 = SURFACE_SIDE_STYLE ('',( #207 ) ) ;
#179 = FILL_AREA_STYLE ('',( #233 ) ) ;
#180 = AXIS2_PLACEMENT_3D ( 'NONE', #394, #380, #87 ) ;
#181 = DIRECTION ( 'NONE',  ( 0.0000000000000000000, 0.0000000000000000000, -1.000000000000000000 ) ) ;
#182 = APPLICATION_CONTEXT ( 'automotive_design' ) ;
#183 = AXIS2_PLACEMENT_3D ( 'NONE', #41, #228, #150 ) ;
#184 = DIRECTION ( 'NONE',  ( -0.0000000000000000000, -1.000000000000000000, -0.0000000000000000000 ) ) ;
#185 = EDGE_CURVE ( 'NONE', #280, #343, #202, .T. ) ;
#186 = CIRCLE ( 'NONE', #119, 1.415999999999999900 ) ;
#187 = ORIENTED_EDGE ( 'NONE', *, *, #256, .F. ) ;
#188 = VERTEX_POINT ( 'NONE', #305 ) ;
#189 = DIRECTION ( 'NONE',  ( -0.0000000000000000000, -1.000000000000000000, -0.0000000000000000000 ) ) ;
#190 = EDGE_LOOP ( 'NONE', ( #93, #94 ) ) ;
#191 = ORIENTED_EDGE ( 'NONE', *, *, #294, .T. ) ;
#192 = EDGE_CURVE ( 'NONE', #397, #343, #313, .T. ) ;
#193 = ORIENTED_EDGE ( 'NONE', *, *, #139, .F. ) ;
#194 = APPLICATION_PROTOCOL_DEFINITION ( 'draft international standard', 'automotive_design', 1998, #182 ) ;
#195 =( NAMED_UNIT ( * ) SI_UNIT ( $, .STERADIAN. ) SOLID_ANGLE_UNIT ( ) );
#196 = CARTESIAN_POINT ( 'NONE',  ( 0.0000000000000000000, 2.415000000000000000, 0.0000000000000000000 ) ) ;
#197 = FACE_BOUND ( 'NONE', #45, .T. ) ;
#198 = EDGE_CURVE ( 'NONE', #113, #103, #308, .T. ) ;
#199 = EDGE_CURVE ( 'NONE', #115, #188, #325, .T. ) ;
#200 = COLOUR_RGB ( '',0.7921568627450980000, 0.8196078431372548800, 0.9333333333333333500 ) ;
#201 = DIRECTION ( 'NONE',  ( -0.0000000000000000000, -1.000000000000000000, -0.0000000000000000000 ) ) ;
#202 = CIRCLE ( 'NONE', #140, 2.415000000000000000 ) ;
#203 = CARTESIAN_POINT ( 'NONE',  ( 0.0000000000000000000, 0.0000000000000000000, 0.0000000000000000000 ) ) ;
#204 = FACE_OUTER_BOUND ( 'NONE', #4, .T. ) ;
#205 = EDGE_CURVE ( 'NONE', #114, #323, #283, .T. ) ;
#206 =( NAMED_UNIT ( * ) PLANE_ANGLE_UNIT ( ) SI_UNIT ( $, .RADIAN. ) );
#207 = SURFACE_STYLE_FILL_AREA ( #179 ) ;
#208 = PRESENTATION_STYLE_ASSIGNMENT (( #177 ) ) ;
#209 = EDGE_LOOP ( 'NONE', ( #169, #109, #52, #91 ) ) ;
#210 = ORIENTED_EDGE ( 'NONE', *, *, #100, .T. ) ;
#211 = DIRECTION ( 'NONE',  ( 0.0000000000000000000, 0.0000000000000000000, 1.000000000000000000 ) ) ;
#212 = CARTESIAN_POINT ( 'NONE',  ( 0.0000000000000000000, 57.16355512369680300, 0.0000000000000000000 ) ) ;
#213 = DIRECTION ( 'NONE',  ( -1.000000000000000000, 0.0000000000000000000, 0.0000000000000000000 ) ) ;
#214 = EDGE_CURVE ( 'NONE', #323, #103, #284, .T. ) ;
#215 = CARTESIAN_POINT ( 'NONE',  ( 0.0000000000000000000, 27.95999999999999400, -5.707183213224569200 ) ) ;
#216 = ORIENTED_EDGE ( 'NONE', *, *, #96, .F. ) ;
#217 = CIRCLE ( 'NONE', #37, 0.8499999999999999800 ) ;
#218 = ORIENTED_EDGE ( 'NONE', *, *, #375, .F. ) ;
#219 = CARTESIAN_POINT ( 'NONE',  ( -2.415000000000000000, 2.415000000000000000, 0.0000000000000000000 ) ) ;
#220 = CARTESIAN_POINT ( 'NONE',  ( 0.0000000000000000000, 0.0000000000000000000, 0.0000000000000000000 ) ) ;
#221 = EDGE_LOOP ( 'NONE', ( #148, #135, #132, #127 ) ) ;
#222 = CARTESIAN_POINT ( 'NONE',  ( 2.957522019940858200E-016, 28.19999999999999900, 2.415000000000000000 ) ) ;
#223 = FACE_OUTER_BOUND ( 'NONE', #63, .T. ) ;
#224 = FACE_OUTER_BOUND ( 'NONE', #261, .T. ) ;
#225 = EDGE_CURVE ( 'NONE', #103, #64, #329, .T. ) ;
#226 = FACE_OUTER_BOUND ( 'NONE', #332, .T. ) ;
#227 = ORIENTED_EDGE ( 'NONE', *, *, #393, .F. ) ;
#228 = DIRECTION ( 'NONE',  ( -0.0000000000000000000, -1.000000000000000000, -0.0000000000000000000 ) ) ;
#229 = EDGE_CURVE ( 'NONE', #113, #253, #348, .T. ) ;
#230 = FACE_OUTER_BOUND ( 'NONE', #221, .T. ) ;
#231 = TOROIDAL_SURFACE ( 'NONE', #183, 5.707183213224569200, 2.370000000000003700 ) ;
#232 = SPHERICAL_SURFACE ( 'NONE', #72, 2.415000000000000000 ) ;
#233 = FILL_AREA_STYLE_COLOUR ( '', #200 ) ;
#234 = VERTEX_POINT ( 'NONE', #136 ) ;
#235 = ORIENTED_EDGE ( 'NONE', *, *, #229, .T. ) ;
#236 = ORIENTED_EDGE ( 'NONE', *, *, #185, .F. ) ;
#237 = DIRECTION ( 'NONE',  ( -0.0000000000000000000, -1.000000000000000000, -0.0000000000000000000 ) ) ;
#238 =( LENGTH_UNIT ( ) NAMED_UNIT ( * ) SI_UNIT ( .MILLI., .METRE. ) );
#239 = FACE_OUTER_BOUND ( 'NONE', #338, .T. ) ;
#240 = DIRECTION ( 'NONE',  ( 0.0000000000000000000, 0.0000000000000000000, -1.000000000000000000 ) ) ;
#241 = VERTEX_POINT ( 'NONE', #77 ) ;
#242 = CIRCLE ( 'NONE', #146, 8.064999999999999500 ) ;
#243 = VERTEX_POINT ( 'NONE', #326 ) ;
#244 = DIRECTION ( 'NONE',  ( 0.0000000000000000000, 0.0000000000000000000, -1.000000000000000000 ) ) ;
#245 = CARTESIAN_POINT ( 'NONE',  ( 1.734099867592652000E-016, 0.0000000000000000000, 1.415999999999999900 ) ) ;
#246 = CIRCLE ( 'NONE', #42, 2.415000000000000000 ) ;
#247 = DIRECTION ( 'NONE',  ( -0.0000000000000000000, -1.000000000000000000, -0.0000000000000000000 ) ) ;
#248 = CIRCLE ( 'NONE', #54, 2.415000000000000000 ) ;
#249 = DIRECTION ( 'NONE',  ( 0.0000000000000000000, 0.0000000000000000000, -1.000000000000000000 ) ) ;
#250 = TOROIDAL_SURFACE ( 'NONE', #161, 5.707183213224569200, 2.370000000000003700 ) ;
#251 = DIRECTION ( 'NONE',  ( -0.0000000000000000000, -1.000000000000000000, -0.0000000000000000000 ) ) ;
#252 = VERTEX_POINT ( 'NONE', #106 ) ;
#253 = VERTEX_POINT ( 'NONE', #347 ) ;
#254 = ORIENTED_EDGE ( 'NONE', *, *, #144, .T. ) ;
#255 = VERTEX_POINT ( 'NONE', #336 ) ;
#256 = EDGE_CURVE ( 'NONE', #243, #397, #334, .T. ) ;
#257 = CARTESIAN_POINT ( 'NONE',  ( 0.0000000000000000000, 58.53000000000000100, 0.0000000000000000000 ) ) ;
#258 = SHAPE_DEFINITION_REPRESENTATION ( #47, #362 ) ;
#259 = CARTESIAN_POINT ( 'NONE',  ( 0.0000000000000000000, 57.16355512369680300, 0.0000000000000000000 ) ) ;
#260 = DIRECTION ( 'NONE',  ( -0.0000000000000000000, -1.000000000000000000, -0.0000000000000000000 ) ) ;
#261 = EDGE_LOOP ( 'NONE', ( #53, #55 ) ) ;
#262 = VECTOR ( 'NONE', #39, 1000.000000000000100 ) ;
#263 = CARTESIAN_POINT ( 'NONE',  ( 0.0000000000000000000, 2.415000000000000000, 0.0000000000000000000 ) ) ;
#264 = DIRECTION ( 'NONE',  ( 0.0000000000000000000, 0.0000000000000000000, -1.000000000000000000 ) ) ;
#265 = SPHERICAL_SURFACE ( 'NONE', #180, 2.415000000000000000 ) ;
#266 = CONICAL_SURFACE ( 'NONE', #49, 1.415999999999999900, 0.3926990816987173700 ) ;
#267 = ADVANCED_FACE ( 'NONE', ( #374 ), #303, .T. ) ;
#268 = ORIENTED_EDGE ( 'NONE', *, *, #383, .T. ) ;
#269 = CIRCLE ( 'NONE', #171, 1.415999999999999900 ) ;
#270 = ORIENTED_EDGE ( 'NONE', *, *, #100, .F. ) ;
#271 = DIRECTION ( 'NONE',  ( 0.0000000000000000000, 0.0000000000000000000, -1.000000000000000000 ) ) ;
#272 = VERTEX_POINT ( 'NONE', #219 ) ;
#273 = CARTESIAN_POINT ( 'NONE',  ( 2.415000000000000000, 2.415000000000000000, -2.957522019940858200E-016 ) ) ;
#274 = DIRECTION ( 'NONE',  ( -0.0000000000000000000, -1.000000000000000000, -0.0000000000000000000 ) ) ;
#275 = DIRECTION ( 'NONE',  ( -0.0000000000000000000, -1.000000000000000000, -0.0000000000000000000 ) ) ;
#276 = CARTESIAN_POINT ( 'NONE',  ( 0.0000000000000000000, 2.415000000000000000, 0.0000000000000000000 ) ) ;
#277 = CARTESIAN_POINT ( 'NONE',  ( 0.0000000000000000000, 28.19999999999999900, 0.0000000000000000000 ) ) ;
#278 = CARTESIAN_POINT ( 'NONE',  ( 2.957522019940858200E-016, 0.0000000000000000000, 2.415000000000000000 ) ) ;
#279 = CYLINDRICAL_SURFACE ( 'NONE', #164, 2.415000000000000000 ) ;
#280 = VERTEX_POINT ( 'NONE', #273 ) ;
#281 = EDGE_CURVE ( 'NONE', #188, #115, #369, .T. ) ;
#282 = VECTOR ( 'NONE', #35, 1000.000000000000000 ) ;
#283 = CIRCLE ( 'NONE', #121, 0.8499999999999999800 ) ;
#284 = LINE ( 'NONE', #83, #341 ) ;
#285 = ORIENTED_EDGE ( 'NONE', *, *, #290, .T. ) ;
#286 = PRESENTATION_STYLE_ASSIGNMENT (( #1 ) ) ;
#287 = EDGE_CURVE ( 'NONE', #64, #253, #186, .T. ) ;
#288 = ORIENTED_EDGE ( 'NONE', *, *, #139, .T. ) ;
#289 = CIRCLE ( 'NONE', #145, 2.415000000000000000 ) ;
#290 = EDGE_CURVE ( 'NONE', #272, #255, #367, .T. ) ;
#291 = LINE ( 'NONE', #24, #282 ) ;
#292 = ORIENTED_EDGE ( 'NONE', *, *, #192, .F. ) ;
#293 = DIRECTION ( 'NONE',  ( -0.0000000000000000000, -1.000000000000000000, -0.0000000000000000000 ) ) ;
#294 = EDGE_CURVE ( 'NONE', #241, #234, #372, .T. ) ;
#295 = ORIENTED_EDGE ( 'NONE', *, *, #375, .T. ) ;
#296 = CARTESIAN_POINT ( 'NONE',  ( 0.0000000000000000000, 2.415000000000000000, 0.0000000000000000000 ) ) ;
#297 = EDGE_LOOP ( 'NONE', ( #344, #65, #270, #227 ) ) ;
#298 = CONICAL_SURFACE ( 'NONE', #89, 1.415999999999999900, 0.3926990816987173700 ) ;
#299 = ADVANCED_FACE ( 'NONE', ( #307 ), #298, .T. ) ;
#300 = CIRCLE ( 'NONE', #84, 2.415000000000000000 ) ;
#301 = DIRECTION ( 'NONE',  ( 0.0000000000000000000, -0.0000000000000000000, 1.000000000000000000 ) ) ;
#302 = ORIENTED_EDGE ( 'NONE', *, *, #144, .F. ) ;
#303 = CYLINDRICAL_SURFACE ( 'NONE', #110, 1.415999999999999900 ) ;
#304 = ORIENTED_EDGE ( 'NONE', *, *, #229, .F. ) ;
#305 = CARTESIAN_POINT ( 'NONE',  ( 0.0000000000000000000, 30.32999999999999800, -5.707183213224569200 ) ) ;
#306 = CARTESIAN_POINT ( 'NONE',  ( 0.0000000000000000000, 2.415000000000000000, 0.0000000000000000000 ) ) ;
#307 = FACE_OUTER_BOUND ( 'NONE', #209, .T. ) ;
#308 = CIRCLE ( 'NONE', #129, 1.415999999999999900 ) ;
#309 = SURFACE_STYLE_FILL_AREA ( #6 ) ;
#310 = CARTESIAN_POINT ( 'NONE',  ( 0.0000000000000000000, 0.0000000000000000000, 0.0000000000000000000 ) ) ;
#311 = ORIENTED_EDGE ( 'NONE', *, *, #315, .T. ) ;
#312 = CARTESIAN_POINT ( 'NONE',  ( 0.0000000000000000000, 30.32999999999999800, 0.0000000000000000000 ) ) ;
#313 = LINE ( 'NONE', #278, #319 ) ;
#314 = DIRECTION ( 'NONE',  ( 0.0000000000000000000, 1.000000000000000000, 0.0000000000000000000 ) ) ;
#315 = EDGE_CURVE ( 'NONE', #280, #255, #300, .T. ) ;
#316 = ORIENTED_EDGE ( 'NONE', *, *, #290, .F. ) ;
#317 = MANIFOLD_SOLID_BREP ( 'Revolve1', #50 ) ;
#318 = ORIENTED_EDGE ( 'NONE', *, *, #185, .T. ) ;
#319 = VECTOR ( 'NONE', #25, 1000.000000000000000 ) ;
#320 = DIRECTION ( 'NONE',  ( 0.0000000000000000000, 0.0000000000000000000, -1.000000000000000000 ) ) ;
#321 = ORIENTED_EDGE ( 'NONE', *, *, #225, .T. ) ;
#322 = COLOUR_RGB ( '',0.7921568627450980000, 0.8196078431372548800, 0.9333333333333333500 ) ;
#323 = VERTEX_POINT ( 'NONE', #137 ) ;
#324 = DIRECTION ( 'NONE',  ( 0.0000000000000000000, 0.0000000000000000000, -1.000000000000000000 ) ) ;
#325 = CIRCLE ( 'NONE', #125, 5.707183213224569200 ) ;
#326 = CARTESIAN_POINT ( 'NONE',  ( 0.0000000000000000000, 28.19999999999999900, -2.415000000000000000 ) ) ;
#327 = ADVANCED_FACE ( 'NONE', ( #69, #197 ), #142, .T. ) ;
#328 = EDGE_LOOP ( 'NONE', ( #210, #191 ) ) ;
#329 = LINE ( 'NONE', #245, #364 ) ;
#330 = ORIENTED_EDGE ( 'NONE', *, *, #378, .F. ) ;
#331 = ORIENTED_EDGE ( 'NONE', *, *, #357, .F. ) ;
#332 = EDGE_LOOP ( 'NONE', ( #172, #13, #236, #330, #302 ) ) ;
#333 = PLANE ( 'NONE',  #46 ) ;
#334 = CIRCLE ( 'NONE', #120, 2.415000000000000000 ) ;
#335 = CARTESIAN_POINT ( 'NONE',  ( 0.0000000000000000000, 0.0000000000000000000, 0.0000000000000000000 ) ) ;
#336 = CARTESIAN_POINT ( 'NONE',  ( -1.478761009970429100E-016, 0.0000000000000000000, 0.0000000000000000000 ) ) ;
#337 = EDGE_LOOP ( 'NONE', ( #11, #318, #288, #285 ) ) ;
#338 = EDGE_LOOP ( 'NONE', ( #342, #321, #216, #304 ) ) ;
#339 =( LENGTH_UNIT ( ) NAMED_UNIT ( * ) SI_UNIT ( .MILLI., .METRE. ) );
#340 = DIRECTION ( 'NONE',  ( -1.224646799147353200E-016, 0.0000000000000000000, -1.000000000000000000 ) ) ;
#341 = VECTOR ( 'NONE', #71, 1000.000000000000100 ) ;
#342 = ORIENTED_EDGE ( 'NONE', *, *, #198, .T. ) ;
#343 = VERTEX_POINT ( 'NONE', #40 ) ;
#344 = ORIENTED_EDGE ( 'NONE', *, *, #281, .T. ) ;
#345 = DIRECTION ( 'NONE',  ( -1.224646799147353200E-016, 0.0000000000000000000, -1.000000000000000000 ) ) ;
#346 = ADVANCED_FACE ( 'NONE', ( #78, #133 ), #97, .T. ) ;
#347 = CARTESIAN_POINT ( 'NONE',  ( 0.0000000000000000000, 30.32999999999999800, -1.415999999999999900 ) ) ;
#348 = LINE ( 'NONE', #102, #368 ) ;
#349 = DIRECTION ( 'NONE',  ( 1.000000000000000000, 0.0000000000000000000, -1.224646799147353200E-016 ) ) ;
#350 = CARTESIAN_POINT ( 'NONE',  ( 6.989283654222975500E-016, 27.95999999999999400, 5.707183213224569200 ) ) ;
#351 = CARTESIAN_POINT ( 'NONE',  ( 0.0000000000000000000, 0.0000000000000000000, 0.0000000000000000000 ) ) ;
#352 = DIRECTION ( 'NONE',  ( -1.000000000000000000, 0.0000000000000000000, 1.224646799147353200E-016 ) ) ;
#353 = UNCERTAINTY_MEASURE_WITH_UNIT (LENGTH_MEASURE( 1.000000000000000100E-005 ), #176, 'distance_accuracy_value', 'NONE');
#354 = CARTESIAN_POINT ( 'NONE',  ( 0.0000000000000000000, 28.19999999999999900, 0.0000000000000000000 ) ) ;
#355 = DIRECTION ( 'NONE',  ( -1.000000000000000000, 0.0000000000000000000, 0.0000000000000000000 ) ) ;
#356 = DIRECTION ( 'NONE',  ( 0.0000000000000000000, 0.0000000000000000000, -1.000000000000000000 ) ) ;
#357 = EDGE_CURVE ( 'NONE', #103, #113, #173, .T. ) ;
#358 = PRODUCT_DEFINITION_CONTEXT ( 'detailed design', #85, 'design' ) ;
#359 = EDGE_CURVE ( 'NONE', #115, #241, #168, .T. ) ;
#360 = DIRECTION ( 'NONE',  ( 0.0000000000000000000, 0.0000000000000000000, -1.000000000000000000 ) ) ;
#361 = DIRECTION ( 'NONE',  ( -0.0000000000000000000, -1.000000000000000000, -0.0000000000000000000 ) ) ;
#362 = ADVANCED_BREP_SHAPE_REPRESENTATION ( '01641-00631', ( #317, #10 ), #36 ) ;
#363 = CARTESIAN_POINT ( 'NONE',  ( 0.0000000000000000000, 57.16355512369680300, 0.0000000000000000000 ) ) ;
#364 = VECTOR ( 'NONE', #274, 1000.000000000000000 ) ;
#365 = CARTESIAN_POINT ( 'NONE',  ( 0.8499999999999999800, 58.53000000000000100, 0.0000000000000000000 ) ) ;
#366 = ADVANCED_FACE ( 'NONE', ( #239 ), #166, .T. ) ;
#367 = CIRCLE ( 'NONE', #105, 2.415000000000000000 ) ;
#368 = VECTOR ( 'NONE', #107, 1000.000000000000000 ) ;
#369 = CIRCLE ( 'NONE', #116, 5.707183213224569200 ) ;
#370 = DIRECTION ( 'NONE',  ( 0.0000000000000000000, 0.0000000000000000000, -1.000000000000000000 ) ) ;
#371 = ADVANCED_FACE ( 'NONE', ( #224 ), #333, .T. ) ;
#372 = CIRCLE ( 'NONE', #98, 8.064999999999999500 ) ;
#373 = DIRECTION ( 'NONE',  ( -0.0000000000000000000, -1.000000000000000000, -0.0000000000000000000 ) ) ;
#374 = FACE_OUTER_BOUND ( 'NONE', #44, .T. ) ;
#375 = EDGE_CURVE ( 'NONE', #272, #252, #248, .T. ) ;
#376 = DIRECTION ( 'NONE',  ( -0.0000000000000000000, -1.000000000000000000, -0.0000000000000000000 ) ) ;
#377 = DIRECTION ( 'NONE',  ( 0.0000000000000000000, 0.0000000000000000000, -1.000000000000000000 ) ) ;
#378 = EDGE_CURVE ( 'NONE', #252, #280, #246, .T. ) ;
#379 = DIRECTION ( 'NONE',  ( -0.0000000000000000000, -1.000000000000000000, -0.0000000000000000000 ) ) ;
#380 = DIRECTION ( 'NONE',  ( -0.0000000000000000000, -0.0000000000000000000, -1.000000000000000000 ) ) ;
#381 = DIRECTION ( 'NONE',  ( 0.0000000000000000000, -0.0000000000000000000, 1.000000000000000000 ) ) ;
#382 = CARTESIAN_POINT ( 'NONE',  ( 0.0000000000000000000, 58.53000000000000100, 0.0000000000000000000 ) ) ;
#383 = EDGE_CURVE ( 'NONE', #397, #243, #8, .T. ) ;
#384 = FACE_OUTER_BOUND ( 'NONE', #297, .T. ) ;
#385 = EDGE_CURVE ( 'NONE', #323, #114, #217, .T. ) ;
#386 = CARTESIAN_POINT ( 'NONE',  ( 0.0000000000000000000, 2.415000000000000000, 0.0000000000000000000 ) ) ;
#387 = LINE ( 'NONE', #134, #262 ) ;
#388 = DIRECTION ( 'NONE',  ( 0.0000000000000000000, 0.0000000000000000000, -1.000000000000000000 ) ) ;
#389 = DIRECTION ( 'NONE',  ( 0.0000000000000000000, 0.0000000000000000000, -1.000000000000000000 ) ) ;
#390 = ADVANCED_FACE ( 'NONE', ( #226 ), #143, .T. ) ;
#391 = DIRECTION ( 'NONE',  ( 0.0000000000000000000, 1.000000000000000000, 0.0000000000000000000 ) ) ;
#392 = CARTESIAN_POINT ( 'NONE',  ( 1.415999999999999900, 30.32999999999999800, 0.0000000000000000000 ) ) ;
#393 = EDGE_CURVE ( 'NONE', #188, #234, #124, .T. ) ;
#394 = CARTESIAN_POINT ( 'NONE',  ( 0.0000000000000000000, 2.415000000000000000, 0.0000000000000000000 ) ) ;
#395 = UNCERTAINTY_MEASURE_WITH_UNIT (LENGTH_MEASURE( 1.000000000000000100E-005 ), #238, 'distance_accuracy_value', 'NONE');
#396 = FACE_OUTER_BOUND ( 'NONE', #337, .T. ) ;
#397 = VERTEX_POINT ( 'NONE', #222 ) ;
#398 = DIRECTION ( 'NONE',  ( 0.0000000000000000000, 0.0000000000000000000, -1.000000000000000000 ) ) ;
ENDSEC;
END-ISO-10303-21;
