ISO-10303-21;
HEADER;
FILE_DESCRIPTION (( 'STEP AP214' ),
    '1' );
FILE_NAME ('01641-00621MING_06_40mm.STEP',
    '2016-04-28T13:03:47',
    ( '' ),
    ( '' ),
    'SwSTEP 2.0',
    'SolidWorks 2015',
    '' );
FILE_SCHEMA (( 'AUTOMOTIVE_DESIGN' ));
ENDSEC;

DATA;
#1 = CARTESIAN_POINT ( 'NONE',  ( 0.0000000000000000000, 3.707168881056380500, 0.0000000000000000000 ) ) ;
#2 = CIRCLE ( 'NONE', #135, 1.815331160274324700 ) ;
#3 = ORIENTED_EDGE ( 'NONE', *, *, #211, .T. ) ;
#4 = DIRECTION ( 'NONE',  ( -1.000000000000000000, 0.0000000000000000000, 0.0000000000000000000 ) ) ;
#5 = DIRECTION ( 'NONE',  ( 1.000000000000000000, 0.0000000000000000000, -1.224646799147353200E-016 ) ) ;
#6 = AXIS2_PLACEMENT_3D ( 'NONE', #128, #152, #57 ) ;
#7 = FACE_OUTER_BOUND ( 'NONE', #329, .T. ) ;
#8 = DIRECTION ( 'NONE',  ( -1.224646799147353200E-016, 0.0000000000000000000, -1.000000000000000000 ) ) ;
#9 = CARTESIAN_POINT ( 'NONE',  ( 0.0000000000000000000, 2.415000000000000000, 0.0000000000000000000 ) ) ;
#10 = CARTESIAN_POINT ( 'NONE',  ( 0.0000000000000000000, 11.90000000000000000, 0.0000000000000000000 ) ) ;
#11 = LINE ( 'NONE', #308, #82 ) ;
#12 = AXIS2_PLACEMENT_3D ( 'NONE', #346, #337, #139 ) ;
#13 = AXIS2_PLACEMENT_3D ( 'NONE', #269, #295, #126 ) ;
#14 = CARTESIAN_POINT ( 'NONE',  ( 0.0000000000000000000, 0.8222671980093240200, 0.0000000000000000000 ) ) ;
#15 = ORIENTED_EDGE ( 'NONE', *, *, #80, .F. ) ;
#16 = TOROIDAL_SURFACE ( 'NONE', #6, 1.658947368421053600, 1.991052631578945400 ) ;
#17 = ORIENTED_EDGE ( 'NONE', *, *, #326, .F. ) ;
#18 = CARTESIAN_POINT ( 'NONE',  ( 2.031624584690768300E-016, 2.807168881056380200, 1.658947368421053600 ) ) ;
#19 = CIRCLE ( 'NONE', #174, 3.379460093896714300 ) ;
#20 = VERTEX_POINT ( 'NONE', #56 ) ;
#21 = DIRECTION ( 'NONE',  ( -0.0000000000000000000, -1.000000000000000000, -0.0000000000000000000 ) ) ;
#22 = CARTESIAN_POINT ( 'NONE',  ( 0.0000000000000000000, 2.415000000000000000, 0.0000000000000000000 ) ) ;
#23 =( NAMED_UNIT ( * ) PLANE_ANGLE_UNIT ( ) SI_UNIT ( $, .RADIAN. ) );
#24 = DIRECTION ( 'NONE',  ( -1.000000000000000000, 0.0000000000000000000, 1.224646799147353200E-016 ) ) ;
#25 = CARTESIAN_POINT ( 'NONE',  ( 3.092233167847066500E-016, 11.90000000000000000, 2.524999999999999900 ) ) ;
#26 = CIRCLE ( 'NONE', #250, 1.991052631578946300 ) ;
#27 = AXIS2_PLACEMENT_3D ( 'NONE', #195, #92, #330 ) ;
#28 = ADVANCED_FACE ( 'NONE', ( #162 ), #252, .T. ) ;
#29 = CARTESIAN_POINT ( 'NONE',  ( 0.0000000000000000000, 10.65053990610328700, -4.924999999999999800 ) ) ;
#30 = DIRECTION ( 'NONE',  ( 0.0000000000000000000, 0.0000000000000000000, -1.000000000000000000 ) ) ;
#31 = DIRECTION ( 'NONE',  ( 0.0000000000000000000, 0.0000000000000000000, -1.000000000000000000 ) ) ;
#32 = FACE_OUTER_BOUND ( 'NONE', #235, .T. ) ;
#33 = DIRECTION ( 'NONE',  ( -0.0000000000000000000, 0.0000000000000000000, 1.000000000000000000 ) ) ;
#34 = ORIENTED_EDGE ( 'NONE', *, *, #74, .T. ) ;
#35 = FILL_AREA_STYLE ('',( #212 ) ) ;
#36 = VERTEX_POINT ( 'NONE', #227 ) ;
#37 = MANIFOLD_SOLID_BREP ( 'Revolve1', #73 ) ;
#38 =( NAMED_UNIT ( * ) PLANE_ANGLE_UNIT ( ) SI_UNIT ( $, .RADIAN. ) );
#39 = APPLICATION_CONTEXT ( 'automotive_design' ) ;
#40 = AXIS2_PLACEMENT_3D ( 'NONE', #163, #199, #65 ) ;
#41 = CIRCLE ( 'NONE', #304, 8.064999999999999500 ) ;
#42 = DIRECTION ( 'NONE',  ( -1.000000000000000000, 0.0000000000000000000, 0.0000000000000000000 ) ) ;
#43 = DIRECTION ( 'NONE',  ( -0.0000000000000000000, -1.000000000000000000, -0.0000000000000000000 ) ) ;
#44 = EDGE_CURVE ( 'NONE', #153, #148, #19, .T. ) ;
#45 = ORIENTED_EDGE ( 'NONE', *, *, #136, .T. ) ;
#46 = PLANE ( 'NONE',  #79 ) ;
#47 = DIRECTION ( 'NONE',  ( -0.0000000000000000000, -1.000000000000000000, -0.0000000000000000000 ) ) ;
#48 = FILL_AREA_STYLE_COLOUR ( '', #122 ) ;
#49 = CARTESIAN_POINT ( 'NONE',  ( 0.0000000000000000000, 11.90000000000000000, -2.524999999999999900 ) ) ;
#50 = CIRCLE ( 'NONE', #259, 4.924999999999999800 ) ;
#51 = DIRECTION ( 'NONE',  ( 0.0000000000000000000, 0.0000000000000000000, -1.000000000000000000 ) ) ;
#52 = VERTEX_POINT ( 'NONE', #77 ) ;
#53 = SHAPE_DEFINITION_REPRESENTATION ( #190, #140 ) ;
#54 = CIRCLE ( 'NONE', #27, 2.524999999999999900 ) ;
#55 = ORIENTED_EDGE ( 'NONE', *, *, #74, .F. ) ;
#56 = CARTESIAN_POINT ( 'NONE',  ( -1.815331160274325000, 0.8222671980093240200, 0.0000000000000000000 ) ) ;
#57 = DIRECTION ( 'NONE',  ( 0.0000000000000000000, 0.0000000000000000000, -1.000000000000000000 ) ) ;
#58 = DIRECTION ( 'NONE',  ( 1.000000000000000000, 0.0000000000000000000, -1.224646799147353200E-016 ) ) ;
#59 = CARTESIAN_POINT ( 'NONE',  ( 0.0000000000000000000, 5.500000000000000000, 0.0000000000000000000 ) ) ;
#60 = ADVANCED_FACE ( 'NONE', ( #358 ), #16, .T. ) ;
#61 = DIRECTION ( 'NONE',  ( 1.000000000000000000, 0.0000000000000000000, 0.0000000000000000000 ) ) ;
#62 = DIRECTION ( 'NONE',  ( 0.0000000000000000000, 0.0000000000000000000, 1.000000000000000000 ) ) ;
#63 = AXIS2_PLACEMENT_3D ( 'NONE', #10, #371, #150 ) ;
#64 = DIRECTION ( 'NONE',  ( -0.0000000000000000000, -1.000000000000000000, -0.0000000000000000000 ) ) ;
#65 = DIRECTION ( 'NONE',  ( 0.0000000000000000000, 0.0000000000000000000, -1.000000000000000000 ) ) ;
#66 = CARTESIAN_POINT ( 'NONE',  ( 0.0000000000000000000, 14.03000000000000100, 0.0000000000000000000 ) ) ;
#67 = CARTESIAN_POINT ( 'NONE',  ( 0.0000000000000000000, 3.707168881056380500, -1.658947368421053600 ) ) ;
#68 = DIRECTION ( 'NONE',  ( 0.0000000000000000000, 0.0000000000000000000, 1.000000000000000000 ) ) ;
#69 = ORIENTED_EDGE ( 'NONE', *, *, #157, .T. ) ;
#70 = ORIENTED_EDGE ( 'NONE', *, *, #175, .F. ) ;
#71 = FACE_OUTER_BOUND ( 'NONE', #273, .T. ) ;
#72 = SURFACE_SIDE_STYLE ('',( #116 ) ) ;
#73 = CLOSED_SHELL ( 'NONE', ( #238, #261, #226, #60, #111, #229, #223, #28, #270, #87, #220, #268 ) ) ;
#74 = EDGE_CURVE ( 'NONE', #119, #52, #303, .T. ) ;
#75 = ORIENTED_EDGE ( 'NONE', *, *, #331, .F. ) ;
#76 = CARTESIAN_POINT ( 'NONE',  ( 0.0000000000000000000, 0.8222671980093240200, 0.0000000000000000000 ) ) ;
#77 = CARTESIAN_POINT ( 'NONE',  ( 3.315003846694297000E-016, 0.8222671980093240200, 1.815331160274324700 ) ) ;
#78 = FACE_OUTER_BOUND ( 'NONE', #201, .T. ) ;
#79 = AXIS2_PLACEMENT_3D ( 'NONE', #276, #98, #278 ) ;
#80 = EDGE_CURVE ( 'NONE', #88, #361, #231, .T. ) ;
#81 = CARTESIAN_POINT ( 'NONE',  ( 4.924999999999999800, 14.03000000000000100, 0.0000000000000000000 ) ) ;
#82 = VECTOR ( 'NONE', #186, 1000.000000000000000 ) ;
#83 = CARTESIAN_POINT ( 'NONE',  ( 6.031385485800714100E-016, 10.65053990610328700, 4.924999999999999800 ) ) ;
#84 = PRESENTATION_LAYER_ASSIGNMENT (  '', '', ( #210 ) ) ;
#85 = DIRECTION ( 'NONE',  ( -1.224646799147353200E-016, 0.0000000000000000000, -1.000000000000000000 ) ) ;
#86 = DIRECTION ( 'NONE',  ( 1.000000000000000000, 0.0000000000000000000, -1.224646799147353200E-016 ) ) ;
#87 = ADVANCED_FACE ( 'NONE', ( #32, #147 ), #46, .T. ) ;
#88 = VERTEX_POINT ( 'NONE', #49 ) ;
#89 = PRODUCT_RELATED_PRODUCT_CATEGORY ( 'part', '', ( #172 ) ) ;
#90 = VERTEX_POINT ( 'NONE', #296 ) ;
#91 = DIRECTION ( 'NONE',  ( 0.0000000000000000000, 0.0000000000000000000, 1.000000000000000000 ) ) ;
#92 = DIRECTION ( 'NONE',  ( -0.0000000000000000000, -1.000000000000000000, -0.0000000000000000000 ) ) ;
#93 = EDGE_CURVE ( 'NONE', #240, #149, #11, .T. ) ;
#94 = CARTESIAN_POINT ( 'NONE',  ( 0.0000000000000000000, 0.8222671980093240200, 0.0000000000000000000 ) ) ;
#95 = ORIENTED_EDGE ( 'NONE', *, *, #93, .F. ) ;
#96 = APPLICATION_PROTOCOL_DEFINITION ( 'draft international standard', 'automotive_design', 1998, #39 ) ;
#97 = ORIENTED_EDGE ( 'NONE', *, *, #196, .F. ) ;
#98 = DIRECTION ( 'NONE',  ( 0.0000000000000000000, -1.000000000000000000, -0.0000000000000000000 ) ) ;
#99 = PRODUCT_DEFINITION_FORMATION_WITH_SPECIFIED_SOURCE ( 'ANY', '', #172, .NOT_KNOWN. ) ;
#100 = DIRECTION ( 'NONE',  ( -0.0000000000000000000, -1.000000000000000000, -0.0000000000000000000 ) ) ;
#101 = CIRCLE ( 'NONE', #63, 2.524999999999999900 ) ;
#102 = VERTEX_POINT ( 'NONE', #314 ) ;
#103 = ORIENTED_EDGE ( 'NONE', *, *, #294, .F. ) ;
#104 = DIRECTION ( 'NONE',  ( -1.000000000000000000, 0.0000000000000000000, 0.0000000000000000000 ) ) ;
#105 = ORIENTED_EDGE ( 'NONE', *, *, #106, .T. ) ;
#106 = EDGE_CURVE ( 'NONE', #88, #240, #101, .T. ) ;
#107 = ORIENTED_EDGE ( 'NONE', *, *, #326, .T. ) ;
#108 = CARTESIAN_POINT ( 'NONE',  ( 7.954080960462058600E-016, 14.03000000000000100, 4.924999999999999800 ) ) ;
#109 = CARTESIAN_POINT ( 'NONE',  ( 0.0000000000000000000, 2.807168881056380200, -1.658947368421053600 ) ) ;
#110 = ORIENTED_EDGE ( 'NONE', *, *, #234, .F. ) ;
#111 = ADVANCED_FACE ( 'NONE', ( #71 ), #313, .T. ) ;
#112 = PRODUCT_CONTEXT ( 'NONE', #39, 'mechanical' ) ;
#113 = EDGE_LOOP ( 'NONE', ( #213, #185, #55, #247, #110 ) ) ;
#114 = ORIENTED_EDGE ( 'NONE', *, *, #196, .T. ) ;
#115 = DIRECTION ( 'NONE',  ( -0.0000000000000000000, -0.0000000000000000000, -1.000000000000000000 ) ) ;
#116 = SURFACE_STYLE_FILL_AREA ( #357 ) ;
#117 = AXIS2_PLACEMENT_3D ( 'NONE', #335, #352, #180 ) ;
#118 = EDGE_CURVE ( 'NONE', #240, #88, #224, .T. ) ;
#119 = VERTEX_POINT ( 'NONE', #274 ) ;
#120 = ORIENTED_EDGE ( 'NONE', *, *, #283, .F. ) ;
#121 =( NAMED_UNIT ( * ) SI_UNIT ( $, .STERADIAN. ) SOLID_ANGLE_UNIT ( ) );
#122 = COLOUR_RGB ( '',0.7921568627450980000, 0.8196078431372548800, 0.9333333333333333500 ) ;
#123 = ORIENTED_EDGE ( 'NONE', *, *, #217, .F. ) ;
#124 = EDGE_CURVE ( 'NONE', #153, #102, #50, .T. ) ;
#125 = ORIENTED_EDGE ( 'NONE', *, *, #157, .F. ) ;
#126 = DIRECTION ( 'NONE',  ( 0.0000000000000000000, 0.0000000000000000000, -1.000000000000000000 ) ) ;
#127 = ORIENTED_EDGE ( 'NONE', *, *, #124, .T. ) ;
#128 = CARTESIAN_POINT ( 'NONE',  ( 0.0000000000000000000, 2.807168881056380200, 0.0000000000000000000 ) ) ;
#129 =( LENGTH_UNIT ( ) NAMED_UNIT ( * ) SI_UNIT ( .MILLI., .METRE. ) );
#130 = PRODUCT_DEFINITION ( 'UNKNOWN', '', #99, #236 ) ;
#131 = CIRCLE ( 'NONE', #322, 1.991052631578945400 ) ;
#132 = VERTEX_POINT ( 'NONE', #241 ) ;
#133 = VERTEX_POINT ( 'NONE', #327 ) ;
#134 = DIRECTION ( 'NONE',  ( 0.0000000000000000000, 0.0000000000000000000, -1.000000000000000000 ) ) ;
#135 = AXIS2_PLACEMENT_3D ( 'NONE', #14, #137, #173 ) ;
#136 = EDGE_CURVE ( 'NONE', #36, #148, #363, .T. ) ;
#137 = DIRECTION ( 'NONE',  ( -0.0000000000000000000, -1.000000000000000000, -0.0000000000000000000 ) ) ;
#138 = EDGE_LOOP ( 'NONE', ( #17, #34, #366, #189 ) ) ;
#139 = DIRECTION ( 'NONE',  ( 0.0000000000000000000, 0.0000000000000000000, -1.000000000000000000 ) ) ;
#140 = ADVANCED_BREP_SHAPE_REPRESENTATION ( '01641-00621MING_06_40mm', ( #37, #164 ), #245 ) ;
#141 = PRESENTATION_STYLE_ASSIGNMENT (( #285 ) ) ;
#142 =( NAMED_UNIT ( * ) PLANE_ANGLE_UNIT ( ) SI_UNIT ( $, .RADIAN. ) );
#143 =( LENGTH_UNIT ( ) NAMED_UNIT ( * ) SI_UNIT ( .MILLI., .METRE. ) );
#144 = FACE_OUTER_BOUND ( 'NONE', #293, .T. ) ;
#145 = ORIENTED_EDGE ( 'NONE', *, *, #155, .F. ) ;
#146 = EDGE_CURVE ( 'NONE', #361, #132, #26, .T. ) ;
#147 = FACE_BOUND ( 'NONE', #165, .T. ) ;
#148 = VERTEX_POINT ( 'NONE', #208 ) ;
#149 = VERTEX_POINT ( 'NONE', #348 ) ;
#150 = DIRECTION ( 'NONE',  ( 0.0000000000000000000, 0.0000000000000000000, -1.000000000000000000 ) ) ;
#151 = CYLINDRICAL_SURFACE ( 'NONE', #297, 2.524999999999999900 ) ;
#152 = DIRECTION ( 'NONE',  ( -0.0000000000000000000, -1.000000000000000000, -0.0000000000000000000 ) ) ;
#153 = VERTEX_POINT ( 'NONE', #108 ) ;
#154 = SPHERICAL_SURFACE ( 'NONE', #275, 2.414999999999999600 ) ;
#155 = EDGE_CURVE ( 'NONE', #132, #133, #262, .T. ) ;
#156 = ORIENTED_EDGE ( 'NONE', *, *, #211, .F. ) ;
#157 = EDGE_CURVE ( 'NONE', #149, #133, #168, .T. ) ;
#158 = ORIENTED_EDGE ( 'NONE', *, *, #243, .T. ) ;
#159 = CARTESIAN_POINT ( 'NONE',  ( 0.0000000000000000000, 11.90000000000000000, 0.0000000000000000000 ) ) ;
#160 = CIRCLE ( 'NONE', #300, 1.815331160274324700 ) ;
#161 = DIRECTION ( 'NONE',  ( -1.000000000000000000, 0.0000000000000000000, 0.0000000000000000000 ) ) ;
#162 = FACE_OUTER_BOUND ( 'NONE', #171, .T. ) ;
#163 = CARTESIAN_POINT ( 'NONE',  ( 0.0000000000000000000, 3.257168881056379000, 0.0000000000000000000 ) ) ;
#164 = AXIS2_PLACEMENT_3D ( 'NONE', #204, #68, #272 ) ;
#165 = EDGE_LOOP ( 'NONE', ( #281, #207 ) ) ;
#166 = CARTESIAN_POINT ( 'NONE',  ( 0.0000000000000000000, 0.8222671980093240200, 0.0000000000000000000 ) ) ;
#167 = AXIS2_PLACEMENT_3D ( 'NONE', #339, #47, #31 ) ;
#168 = CIRCLE ( 'NONE', #306, 1.991052631578946300 ) ;
#169 = DIRECTION ( 'NONE',  ( -0.0000000000000000000, -1.000000000000000000, -0.0000000000000000000 ) ) ;
#170 = FACE_OUTER_BOUND ( 'NONE', #325, .T. ) ;
#171 = EDGE_LOOP ( 'NONE', ( #125, #114, #233, #299 ) ) ;
#172 = PRODUCT ( '01641-00621MING_06_40mm', '01641-00621MING_06_40mm', '', ( #112 ) ) ;
#173 = DIRECTION ( 'NONE',  ( 0.0000000000000000000, 0.0000000000000000000, -1.000000000000000000 ) ) ;
#174 = AXIS2_PLACEMENT_3D ( 'NONE', #83, #5, #318 ) ;
#175 = EDGE_CURVE ( 'NONE', #102, #153, #251, .T. ) ;
#176 = TOROIDAL_SURFACE ( 'NONE', #369, 4.924999999999999800, 3.379460093896714300 ) ;
#177 = ORIENTED_EDGE ( 'NONE', *, *, #118, .T. ) ;
#178 = CARTESIAN_POINT ( 'NONE',  ( 0.0000000000000000000, 0.0000000000000000000, -2.524999999999999900 ) ) ;
#179 = DIRECTION ( 'NONE',  ( 0.0000000000000000000, 0.0000000000000000000, -1.000000000000000000 ) ) ;
#180 = DIRECTION ( 'NONE',  ( 0.0000000000000000000, 0.0000000000000000000, -1.000000000000000000 ) ) ;
#181 = CYLINDRICAL_SURFACE ( 'NONE', #334, 2.524999999999999900 ) ;
#182 = ORIENTED_EDGE ( 'NONE', *, *, #44, .T. ) ;
#183 = SURFACE_STYLE_USAGE ( .BOTH. , #188 ) ;
#184 =( GEOMETRIC_REPRESENTATION_CONTEXT ( 3 ) GLOBAL_UNCERTAINTY_ASSIGNED_CONTEXT ( ( #228 ) ) GLOBAL_UNIT_ASSIGNED_CONTEXT ( ( #290, #38, #215 ) ) REPRESENTATION_CONTEXT ( 'NONE', 'WORKASPACE' ) );
#185 = ORIENTED_EDGE ( 'NONE', *, *, #294, .T. ) ;
#186 = DIRECTION ( 'NONE',  ( -0.0000000000000000000, -1.000000000000000000, -0.0000000000000000000 ) ) ;
#187 = EDGE_CURVE ( 'NONE', #90, #119, #2, .T. ) ;
#188 = SURFACE_SIDE_STYLE ('',( #244 ) ) ;
#189 = ORIENTED_EDGE ( 'NONE', *, *, #359, .T. ) ;
#190 = PRODUCT_DEFINITION_SHAPE ( 'NONE', 'NONE',  #130 ) ;
#191 = FACE_OUTER_BOUND ( 'NONE', #138, .T. ) ;
#192 = VERTEX_POINT ( 'NONE', #353 ) ;
#193 = ORIENTED_EDGE ( 'NONE', *, *, #359, .F. ) ;
#194 = MECHANICAL_DESIGN_GEOMETRIC_PRESENTATION_REPRESENTATION (  '', ( #210 ), #242 ) ;
#195 = CARTESIAN_POINT ( 'NONE',  ( 0.0000000000000000000, 5.500000000000000000, 0.0000000000000000000 ) ) ;
#196 = EDGE_CURVE ( 'NONE', #149, #361, #54, .T. ) ;
#197 = MECHANICAL_DESIGN_GEOMETRIC_PRESENTATION_REPRESENTATION (  '', ( #218 ), #184 ) ;
#198 = DIRECTION ( 'NONE',  ( 0.0000000000000000000, 0.0000000000000000000, -1.000000000000000000 ) ) ;
#199 = DIRECTION ( 'NONE',  ( -0.0000000000000000000, -1.000000000000000000, -0.0000000000000000000 ) ) ;
#200 = FACE_OUTER_BOUND ( 'NONE', #320, .T. ) ;
#201 = EDGE_LOOP ( 'NONE', ( #70, #317 ) ) ;
#202 = ORIENTED_EDGE ( 'NONE', *, *, #283, .T. ) ;
#203 = UNCERTAINTY_MEASURE_WITH_UNIT (LENGTH_MEASURE( 1.000000000000000100E-005 ), #143, 'distance_accuracy_value', 'NONE');
#204 = CARTESIAN_POINT ( 'NONE',  ( 0.0000000000000000000, 0.0000000000000000000, 0.0000000000000000000 ) ) ;
#205 = TOROIDAL_SURFACE ( 'NONE', #117, 1.658947368421053600, 1.991052631578946300 ) ;
#206 = PRESENTATION_LAYER_ASSIGNMENT (  '', '', ( #218 ) ) ;
#207 = ORIENTED_EDGE ( 'NONE', *, *, #118, .F. ) ;
#208 = CARTESIAN_POINT ( 'NONE',  ( 9.876776435123404100E-016, 11.90000000000000200, 8.064999999999999500 ) ) ;
#209 = AXIS2_PLACEMENT_3D ( 'NONE', #66, #169, #198 ) ;
#210 = STYLED_ITEM ( 'NONE', ( #344 ), #37 ) ;
#211 = EDGE_CURVE ( 'NONE', #20, #90, #239, .T. ) ;
#212 = FILL_AREA_STYLE_COLOUR ( '', #225 ) ;
#213 = ORIENTED_EDGE ( 'NONE', *, *, #155, .T. ) ;
#214 = CARTESIAN_POINT ( 'NONE',  ( 0.0000000000000000000, 10.65053990610328700, 0.0000000000000000000 ) ) ;
#215 =( NAMED_UNIT ( * ) SI_UNIT ( $, .STERADIAN. ) SOLID_ANGLE_UNIT ( ) );
#216 = CIRCLE ( 'NONE', #343, 3.379460093896714300 ) ;
#217 = EDGE_CURVE ( 'NONE', #52, #20, #160, .T. ) ;
#218 = STYLED_ITEM ( 'NONE', ( #141 ), #140 ) ;
#219 = CIRCLE ( 'NONE', #302, 1.991052631578945400 ) ;
#220 = ADVANCED_FACE ( 'NONE', ( #336 ), #176, .T. ) ;
#221 = ORIENTED_EDGE ( 'NONE', *, *, #187, .T. ) ;
#222 = AXIS2_PLACEMENT_3D ( 'NONE', #166, #21, #134 ) ;
#223 = ADVANCED_FACE ( 'NONE', ( #144 ), #307, .T. ) ;
#224 = CIRCLE ( 'NONE', #232, 2.524999999999999900 ) ;
#225 = COLOUR_RGB ( '',0.7921568627450980000, 0.8196078431372548800, 0.9333333333333333500 ) ;
#226 = ADVANCED_FACE ( 'NONE', ( #7 ), #205, .T. ) ;
#227 = CARTESIAN_POINT ( 'NONE',  ( 0.0000000000000000000, 11.90000000000000200, -8.064999999999999500 ) ) ;
#228 = UNCERTAINTY_MEASURE_WITH_UNIT (LENGTH_MEASURE( 1.000000000000000100E-005 ), #290, 'distance_accuracy_value', 'NONE');
#229 = ADVANCED_FACE ( 'NONE', ( #191 ), #154, .T. ) ;
#230 = CARTESIAN_POINT ( 'NONE',  ( 0.0000000000000000000, 5.500000000000000000, -2.524999999999999900 ) ) ;
#231 = LINE ( 'NONE', #178, #298 ) ;
#232 = AXIS2_PLACEMENT_3D ( 'NONE', #159, #43, #354 ) ;
#233 = ORIENTED_EDGE ( 'NONE', *, *, #146, .T. ) ;
#234 = EDGE_CURVE ( 'NONE', #132, #90, #219, .T. ) ;
#235 = EDGE_LOOP ( 'NONE', ( #45, #202 ) ) ;
#236 = PRODUCT_DEFINITION_CONTEXT ( 'detailed design', #349, 'design' ) ;
#237 = CARTESIAN_POINT ( 'NONE',  ( 0.0000000000000000000, 2.415000000000000000, 0.0000000000000000000 ) ) ;
#238 = ADVANCED_FACE ( 'NONE', ( #200 ), #328, .T. ) ;
#239 = CIRCLE ( 'NONE', #222, 1.815331160274324700 ) ;
#240 = VERTEX_POINT ( 'NONE', #25 ) ;
#241 = CARTESIAN_POINT ( 'NONE',  ( 0.0000000000000000000, 3.257168881056379000, -3.598480967438468300 ) ) ;
#242 =( GEOMETRIC_REPRESENTATION_CONTEXT ( 3 ) GLOBAL_UNCERTAINTY_ASSIGNED_CONTEXT ( ( #340 ) ) GLOBAL_UNIT_ASSIGNED_CONTEXT ( ( #129, #142, #367 ) ) REPRESENTATION_CONTEXT ( 'NONE', 'WORKASPACE' ) );
#243 = EDGE_CURVE ( 'NONE', #133, #132, #372, .T. ) ;
#244 = SURFACE_STYLE_FILL_AREA ( #35 ) ;
#245 =( GEOMETRIC_REPRESENTATION_CONTEXT ( 3 ) GLOBAL_UNCERTAINTY_ASSIGNED_CONTEXT ( ( #203 ) ) GLOBAL_UNIT_ASSIGNED_CONTEXT ( ( #143, #23, #121 ) ) REPRESENTATION_CONTEXT ( 'NONE', 'WORKASPACE' ) );
#246 = ORIENTED_EDGE ( 'NONE', *, *, #93, .T. ) ;
#247 = ORIENTED_EDGE ( 'NONE', *, *, #187, .F. ) ;
#248 = CARTESIAN_POINT ( 'NONE',  ( 0.0000000000000000000, 11.90000000000000200, 0.0000000000000000000 ) ) ;
#249 = CARTESIAN_POINT ( 'NONE',  ( 0.0000000000000000000, 2.415000000000000000, 0.0000000000000000000 ) ) ;
#250 = AXIS2_PLACEMENT_3D ( 'NONE', #67, #161, #62 ) ;
#251 = CIRCLE ( 'NONE', #209, 4.924999999999999800 ) ;
#252 = TOROIDAL_SURFACE ( 'NONE', #365, 1.658947368421053600, 1.991052631578946300 ) ;
#253 = ORIENTED_EDGE ( 'NONE', *, *, #234, .T. ) ;
#254 = APPLICATION_PROTOCOL_DEFINITION ( 'draft international standard', 'automotive_design', 1998, #349 ) ;
#255 = DIRECTION ( 'NONE',  ( -0.0000000000000000000, -1.000000000000000000, -0.0000000000000000000 ) ) ;
#256 = AXIS2_PLACEMENT_3D ( 'NONE', #237, #33, #61 ) ;
#257 = CIRCLE ( 'NONE', #256, 2.414999999999999600 ) ;
#258 = DIRECTION ( 'NONE',  ( -0.0000000000000000000, -1.000000000000000000, -0.0000000000000000000 ) ) ;
#259 = AXIS2_PLACEMENT_3D ( 'NONE', #342, #324, #287 ) ;
#260 = DIRECTION ( 'NONE',  ( -0.0000000000000000000, -1.000000000000000000, -0.0000000000000000000 ) ) ;
#261 = ADVANCED_FACE ( 'NONE', ( #316 ), #181, .T. ) ;
#262 = CIRCLE ( 'NONE', #360, 3.598480967438468300 ) ;
#263 = EDGE_CURVE ( 'NONE', #102, #36, #216, .T. ) ;
#264 = ORIENTED_EDGE ( 'NONE', *, *, #331, .T. ) ;
#265 = CARTESIAN_POINT ( 'NONE',  ( 0.0000000000000000000, 0.0000000000000000000, 0.0000000000000000000 ) ) ;
#266 = EDGE_LOOP ( 'NONE', ( #288, #127, #305, #120 ) ) ;
#267 = AXIS2_PLACEMENT_3D ( 'NONE', #59, #258, #51 ) ;
#268 = ADVANCED_FACE ( 'NONE', ( #78 ), #351, .T. ) ;
#269 = CARTESIAN_POINT ( 'NONE',  ( 0.0000000000000000000, 10.65053990610328700, 0.0000000000000000000 ) ) ;
#270 = ADVANCED_FACE ( 'NONE', ( #170 ), #151, .T. ) ;
#271 = EDGE_LOOP ( 'NONE', ( #105, #246, #75, #15 ) ) ;
#272 = DIRECTION ( 'NONE',  ( 1.000000000000000000, 0.0000000000000000000, 0.0000000000000000000 ) ) ;
#273 = EDGE_LOOP ( 'NONE', ( #3, #221, #107, #193 ) ) ;
#274 = CARTESIAN_POINT ( 'NONE',  ( 1.815331160274325000, 0.8222671980093240200, -2.223139494822402500E-016 ) ) ;
#275 = AXIS2_PLACEMENT_3D ( 'NONE', #9, #115, #42 ) ;
#276 = CARTESIAN_POINT ( 'NONE',  ( 2.524999999999999900, 11.90000000000000000, 0.0000000000000000000 ) ) ;
#277 = DIRECTION ( 'NONE',  ( 0.0000000000000000000, 0.0000000000000000000, -1.000000000000000000 ) ) ;
#278 = DIRECTION ( 'NONE',  ( 0.0000000000000000000, 0.0000000000000000000, -1.000000000000000000 ) ) ;
#279 = AXIS2_PLACEMENT_3D ( 'NONE', #22, #8, #24 ) ;
#280 = CIRCLE ( 'NONE', #279, 2.414999999999999600 ) ;
#281 = ORIENTED_EDGE ( 'NONE', *, *, #106, .F. ) ;
#282 = ORIENTED_EDGE ( 'NONE', *, *, #146, .F. ) ;
#283 = EDGE_CURVE ( 'NONE', #148, #36, #41, .T. ) ;
#284 = CARTESIAN_POINT ( 'NONE',  ( 2.031624584690768300E-016, 3.707168881056380500, 1.658947368421053600 ) ) ;
#285 = SURFACE_STYLE_USAGE ( .BOTH. , #72 ) ;
#286 = DIRECTION ( 'NONE',  ( 0.0000000000000000000, 0.0000000000000000000, -1.000000000000000000 ) ) ;
#287 = DIRECTION ( 'NONE',  ( 0.0000000000000000000, 0.0000000000000000000, -1.000000000000000000 ) ) ;
#288 = ORIENTED_EDGE ( 'NONE', *, *, #44, .F. ) ;
#289 = ORIENTED_EDGE ( 'NONE', *, *, #136, .F. ) ;
#290 =( LENGTH_UNIT ( ) NAMED_UNIT ( * ) SI_UNIT ( .MILLI., .METRE. ) );
#291 = DIRECTION ( 'NONE',  ( 0.0000000000000000000, 0.0000000000000000000, -1.000000000000000000 ) ) ;
#292 = DIRECTION ( 'NONE',  ( -1.000000000000000000, 0.0000000000000000000, 0.0000000000000000000 ) ) ;
#293 = EDGE_LOOP ( 'NONE', ( #103, #158, #253, #156, #123 ) ) ;
#294 = EDGE_CURVE ( 'NONE', #133, #52, #131, .T. ) ;
#295 = DIRECTION ( 'NONE',  ( -0.0000000000000000000, -1.000000000000000000, -0.0000000000000000000 ) ) ;
#296 = CARTESIAN_POINT ( 'NONE',  ( 0.0000000000000000000, 0.8222671980093240200, -1.815331160274324700 ) ) ;
#297 = AXIS2_PLACEMENT_3D ( 'NONE', #345, #255, #30 ) ;
#298 = VECTOR ( 'NONE', #362, 1000.000000000000000 ) ;
#299 = ORIENTED_EDGE ( 'NONE', *, *, #243, .F. ) ;
#300 = AXIS2_PLACEMENT_3D ( 'NONE', #94, #100, #179 ) ;
#301 = DIRECTION ( 'NONE',  ( 0.0000000000000000000, 0.0000000000000000000, -1.000000000000000000 ) ) ;
#302 = AXIS2_PLACEMENT_3D ( 'NONE', #109, #292, #91 ) ;
#303 = CIRCLE ( 'NONE', #309, 1.815331160274324700 ) ;
#304 = AXIS2_PLACEMENT_3D ( 'NONE', #248, #341, #310 ) ;
#305 = ORIENTED_EDGE ( 'NONE', *, *, #263, .T. ) ;
#306 = AXIS2_PLACEMENT_3D ( 'NONE', #284, #86, #85 ) ;
#307 = TOROIDAL_SURFACE ( 'NONE', #12, 1.658947368421053600, 1.991052631578945400 ) ;
#308 = CARTESIAN_POINT ( 'NONE',  ( 3.092233167847066500E-016, 0.0000000000000000000, 2.524999999999999900 ) ) ;
#309 = AXIS2_PLACEMENT_3D ( 'NONE', #76, #323, #356 ) ;
#310 = DIRECTION ( 'NONE',  ( 0.0000000000000000000, 0.0000000000000000000, -1.000000000000000000 ) ) ;
#311 = ORIENTED_EDGE ( 'NONE', *, *, #263, .F. ) ;
#312 = DIRECTION ( 'NONE',  ( -0.0000000000000000000, -1.000000000000000000, -0.0000000000000000000 ) ) ;
#313 = SPHERICAL_SURFACE ( 'NONE', #347, 2.414999999999999600 ) ;
#314 = CARTESIAN_POINT ( 'NONE',  ( 0.0000000000000000000, 14.03000000000000100, -4.924999999999999800 ) ) ;
#315 = AXIS2_PLACEMENT_3D ( 'NONE', #81, #355, #332 ) ;
#316 = FACE_OUTER_BOUND ( 'NONE', #271, .T. ) ;
#317 = ORIENTED_EDGE ( 'NONE', *, *, #124, .F. ) ;
#318 = DIRECTION ( 'NONE',  ( -1.224646799147353000E-016, 0.0000000000000000000, -1.000000000000000000 ) ) ;
#319 = CIRCLE ( 'NONE', #267, 2.524999999999999900 ) ;
#320 = EDGE_LOOP ( 'NONE', ( #321, #182, #289, #311 ) ) ;
#321 = ORIENTED_EDGE ( 'NONE', *, *, #175, .T. ) ;
#322 = AXIS2_PLACEMENT_3D ( 'NONE', #18, #58, #364 ) ;
#323 = DIRECTION ( 'NONE',  ( -0.0000000000000000000, -1.000000000000000000, -0.0000000000000000000 ) ) ;
#324 = DIRECTION ( 'NONE',  ( -0.0000000000000000000, -1.000000000000000000, -0.0000000000000000000 ) ) ;
#325 = EDGE_LOOP ( 'NONE', ( #95, #177, #333, #97 ) ) ;
#326 = EDGE_CURVE ( 'NONE', #119, #192, #280, .T. ) ;
#327 = CARTESIAN_POINT ( 'NONE',  ( 4.406868198566191100E-016, 3.257168881056379000, 3.598480967438468300 ) ) ;
#328 = TOROIDAL_SURFACE ( 'NONE', #13, 4.924999999999999800, 3.379460093896714300 ) ;
#329 = EDGE_LOOP ( 'NONE', ( #264, #69, #145, #282 ) ) ;
#330 = DIRECTION ( 'NONE',  ( 0.0000000000000000000, 0.0000000000000000000, -1.000000000000000000 ) ) ;
#331 = EDGE_CURVE ( 'NONE', #361, #149, #319, .T. ) ;
#332 = DIRECTION ( 'NONE',  ( 0.0000000000000000000, -0.0000000000000000000, 1.000000000000000000 ) ) ;
#333 = ORIENTED_EDGE ( 'NONE', *, *, #80, .T. ) ;
#334 = AXIS2_PLACEMENT_3D ( 'NONE', #265, #64, #291 ) ;
#335 = CARTESIAN_POINT ( 'NONE',  ( 0.0000000000000000000, 3.707168881056380500, 0.0000000000000000000 ) ) ;
#336 = FACE_OUTER_BOUND ( 'NONE', #266, .T. ) ;
#337 = DIRECTION ( 'NONE',  ( -0.0000000000000000000, -1.000000000000000000, -0.0000000000000000000 ) ) ;
#338 = DIRECTION ( 'NONE',  ( -0.0000000000000000000, -1.000000000000000000, -0.0000000000000000000 ) ) ;
#339 = CARTESIAN_POINT ( 'NONE',  ( 0.0000000000000000000, 11.90000000000000200, 0.0000000000000000000 ) ) ;
#340 = UNCERTAINTY_MEASURE_WITH_UNIT (LENGTH_MEASURE( 1.000000000000000100E-005 ), #129, 'distance_accuracy_value', 'NONE');
#341 = DIRECTION ( 'NONE',  ( -0.0000000000000000000, -1.000000000000000000, -0.0000000000000000000 ) ) ;
#342 = CARTESIAN_POINT ( 'NONE',  ( 0.0000000000000000000, 14.03000000000000100, 0.0000000000000000000 ) ) ;
#343 = AXIS2_PLACEMENT_3D ( 'NONE', #29, #4, #370 ) ;
#344 = PRESENTATION_STYLE_ASSIGNMENT (( #183 ) ) ;
#345 = CARTESIAN_POINT ( 'NONE',  ( 0.0000000000000000000, 0.0000000000000000000, 0.0000000000000000000 ) ) ;
#346 = CARTESIAN_POINT ( 'NONE',  ( 0.0000000000000000000, 2.807168881056380200, 0.0000000000000000000 ) ) ;
#347 = AXIS2_PLACEMENT_3D ( 'NONE', #249, #368, #104 ) ;
#348 = CARTESIAN_POINT ( 'NONE',  ( 3.749550683206629800E-016, 5.500000000000000000, 2.524999999999999900 ) ) ;
#349 = APPLICATION_CONTEXT ( 'automotive_design' ) ;
#350 = CARTESIAN_POINT ( 'NONE',  ( 0.0000000000000000000, 3.257168881056379000, 0.0000000000000000000 ) ) ;
#351 = PLANE ( 'NONE',  #315 ) ;
#352 = DIRECTION ( 'NONE',  ( -0.0000000000000000000, -1.000000000000000000, -0.0000000000000000000 ) ) ;
#353 = CARTESIAN_POINT ( 'NONE',  ( -1.478761009970428900E-016, 4.336808689942017700E-016, 0.0000000000000000000 ) ) ;
#354 = DIRECTION ( 'NONE',  ( 0.0000000000000000000, 0.0000000000000000000, -1.000000000000000000 ) ) ;
#355 = DIRECTION ( 'NONE',  ( 0.0000000000000000000, 1.000000000000000000, 0.0000000000000000000 ) ) ;
#356 = DIRECTION ( 'NONE',  ( 0.0000000000000000000, 0.0000000000000000000, -1.000000000000000000 ) ) ;
#357 = FILL_AREA_STYLE ('',( #48 ) ) ;
#358 = FACE_OUTER_BOUND ( 'NONE', #113, .T. ) ;
#359 = EDGE_CURVE ( 'NONE', #20, #192, #257, .T. ) ;
#360 = AXIS2_PLACEMENT_3D ( 'NONE', #350, #260, #277 ) ;
#361 = VERTEX_POINT ( 'NONE', #230 ) ;
#362 = DIRECTION ( 'NONE',  ( -0.0000000000000000000, -1.000000000000000000, -0.0000000000000000000 ) ) ;
#363 = CIRCLE ( 'NONE', #167, 8.064999999999999500 ) ;
#364 = DIRECTION ( 'NONE',  ( -1.224646799147353200E-016, 0.0000000000000000000, -1.000000000000000000 ) ) ;
#365 = AXIS2_PLACEMENT_3D ( 'NONE', #1, #338, #301 ) ;
#366 = ORIENTED_EDGE ( 'NONE', *, *, #217, .T. ) ;
#367 =( NAMED_UNIT ( * ) SI_UNIT ( $, .STERADIAN. ) SOLID_ANGLE_UNIT ( ) );
#368 = DIRECTION ( 'NONE',  ( -0.0000000000000000000, -0.0000000000000000000, -1.000000000000000000 ) ) ;
#369 = AXIS2_PLACEMENT_3D ( 'NONE', #214, #312, #286 ) ;
#370 = DIRECTION ( 'NONE',  ( 0.0000000000000000000, 0.0000000000000000000, 1.000000000000000000 ) ) ;
#371 = DIRECTION ( 'NONE',  ( -0.0000000000000000000, -1.000000000000000000, -0.0000000000000000000 ) ) ;
#372 = CIRCLE ( 'NONE', #40, 3.598480967438468300 ) ;
ENDSEC;
END-ISO-10303-21;
