ISO-10303-21;
HEADER;
FILE_DESCRIPTION (( 'STEP AP214' ),
    '1' );
FILE_NAME ('01641-00621MIDG_09_55mm.STEP',
    '2016-04-28T13:02:53',
    ( '' ),
    ( '' ),
    'SwSTEP 2.0',
    'SolidWorks 2015',
    '' );
FILE_SCHEMA (( 'AUTOMOTIVE_DESIGN' ));
ENDSEC;

DATA;
#1 = DIRECTION ( 'NONE',  ( -1.000000000000000000, 0.0000000000000000000, 1.224646799147353200E-016 ) ) ;
#2 = VERTEX_POINT ( 'NONE', #138 ) ;
#3 = DIRECTION ( 'NONE',  ( 0.0000000000000000000, 0.0000000000000000000, -1.000000000000000000 ) ) ;
#4 = LINE ( 'NONE', #261, #21 ) ;
#5 = CARTESIAN_POINT ( 'NONE',  ( 3.092233167847066500E-016, 15.05000000000000100, 2.524999999999999900 ) ) ;
#6 = CARTESIAN_POINT ( 'NONE',  ( 0.0000000000000000000, 13.80053990610328700, 0.0000000000000000000 ) ) ;
#7 = ORIENTED_EDGE ( 'NONE', *, *, #95, .T. ) ;
#8 = EDGE_CURVE ( 'NONE', #219, #70, #71, .T. ) ;
#9 = CARTESIAN_POINT ( 'NONE',  ( 6.031385485800714100E-016, 13.80053990610328700, 4.924999999999999800 ) ) ;
#10 = CARTESIAN_POINT ( 'NONE',  ( 2.031624584690768300E-016, 3.707168881056380500, 1.658947368421053600 ) ) ;
#11 = DIRECTION ( 'NONE',  ( 1.000000000000000000, 0.0000000000000000000, 0.0000000000000000000 ) ) ;
#12 = DIRECTION ( 'NONE',  ( 0.0000000000000000000, -1.000000000000000000, -0.0000000000000000000 ) ) ;
#13 = CIRCLE ( 'NONE', #282, 4.924999999999999800 ) ;
#14 = ORIENTED_EDGE ( 'NONE', *, *, #260, .F. ) ;
#15 = FACE_OUTER_BOUND ( 'NONE', #24, .T. ) ;
#16 = CARTESIAN_POINT ( 'NONE',  ( 0.0000000000000000000, 0.0000000000000000000, 0.0000000000000000000 ) ) ;
#17 = ADVANCED_FACE ( 'NONE', ( #47 ), #20, .T. ) ;
#18 = CARTESIAN_POINT ( 'NONE',  ( 0.0000000000000000000, 15.05000000000000100, 0.0000000000000000000 ) ) ;
#19 = APPLICATION_CONTEXT ( 'automotive_design' ) ;
#20 = TOROIDAL_SURFACE ( 'NONE', #330, 1.658947368421053600, 1.991052631578946300 ) ;
#21 = VECTOR ( 'NONE', #372, 1000.000000000000000 ) ;
#22 = DIRECTION ( 'NONE',  ( 0.0000000000000000000, 0.0000000000000000000, 1.000000000000000000 ) ) ;
#23 = APPLICATION_PROTOCOL_DEFINITION ( 'draft international standard', 'automotive_design', 1998, #314 ) ;
#24 = EDGE_LOOP ( 'NONE', ( #273, #99, #198, #171 ) ) ;
#25 = EDGE_LOOP ( 'NONE', ( #334, #133, #361, #299 ) ) ;
#26 = CARTESIAN_POINT ( 'NONE',  ( 0.0000000000000000000, 0.8222671980093240200, 0.0000000000000000000 ) ) ;
#27 = VERTEX_POINT ( 'NONE', #255 ) ;
#28 = DIRECTION ( 'NONE',  ( 1.000000000000000000, 0.0000000000000000000, -1.224646799147353200E-016 ) ) ;
#29 = EDGE_LOOP ( 'NONE', ( #234, #316, #184, #97 ) ) ;
#30 = DIRECTION ( 'NONE',  ( 0.0000000000000000000, 0.0000000000000000000, -1.000000000000000000 ) ) ;
#31 = DIRECTION ( 'NONE',  ( -1.224646799147353200E-016, 0.0000000000000000000, -1.000000000000000000 ) ) ;
#32 = ORIENTED_EDGE ( 'NONE', *, *, #354, .F. ) ;
#33 = ORIENTED_EDGE ( 'NONE', *, *, #275, .T. ) ;
#34 = UNCERTAINTY_MEASURE_WITH_UNIT (LENGTH_MEASURE( 1.000000000000000100E-005 ), #96, 'distance_accuracy_value', 'NONE');
#35 = DIRECTION ( 'NONE',  ( -1.224646799147353200E-016, 0.0000000000000000000, -1.000000000000000000 ) ) ;
#36 = DIRECTION ( 'NONE',  ( -0.0000000000000000000, -1.000000000000000000, -0.0000000000000000000 ) ) ;
#37 = CARTESIAN_POINT ( 'NONE',  ( 7.954080960462058600E-016, 17.18000000000000000, 4.924999999999999800 ) ) ;
#38 = AXIS2_PLACEMENT_3D ( 'NONE', #257, #36, #269 ) ;
#39 = CARTESIAN_POINT ( 'NONE',  ( 0.0000000000000000000, 2.415000000000000000, 0.0000000000000000000 ) ) ;
#40 = DIRECTION ( 'NONE',  ( -0.0000000000000000000, -1.000000000000000000, -0.0000000000000000000 ) ) ;
#41 = PRODUCT_DEFINITION_CONTEXT ( 'detailed design', #19, 'design' ) ;
#42 = FACE_OUTER_BOUND ( 'NONE', #212, .T. ) ;
#43 = VERTEX_POINT ( 'NONE', #5 ) ;
#44 = TOROIDAL_SURFACE ( 'NONE', #344, 1.658947368421053600, 1.991052631578946300 ) ;
#45 = EDGE_CURVE ( 'NONE', #162, #100, #217, .T. ) ;
#46 = SPHERICAL_SURFACE ( 'NONE', #262, 2.414999999999999600 ) ;
#47 = FACE_OUTER_BOUND ( 'NONE', #123, .T. ) ;
#48 = ORIENTED_EDGE ( 'NONE', *, *, #194, .T. ) ;
#49 = DIRECTION ( 'NONE',  ( 0.0000000000000000000, 0.0000000000000000000, -1.000000000000000000 ) ) ;
#50 = CARTESIAN_POINT ( 'NONE',  ( 0.0000000000000000000, 3.257168881056379000, 0.0000000000000000000 ) ) ;
#51 = DIRECTION ( 'NONE',  ( -0.0000000000000000000, -1.000000000000000000, -0.0000000000000000000 ) ) ;
#52 = EDGE_CURVE ( 'NONE', #181, #300, #284, .T. ) ;
#53 = ORIENTED_EDGE ( 'NONE', *, *, #122, .T. ) ;
#54 = CARTESIAN_POINT ( 'NONE',  ( 0.0000000000000000000, 15.05000000000000200, 0.0000000000000000000 ) ) ;
#55 = EDGE_LOOP ( 'NONE', ( #312, #85 ) ) ;
#56 = CIRCLE ( 'NONE', #87, 8.064999999999999500 ) ;
#57 = DIRECTION ( 'NONE',  ( 0.0000000000000000000, 0.0000000000000000000, -1.000000000000000000 ) ) ;
#58 =( NAMED_UNIT ( * ) SI_UNIT ( $, .STERADIAN. ) SOLID_ANGLE_UNIT ( ) );
#59 = CARTESIAN_POINT ( 'NONE',  ( 3.749550683206629800E-016, 5.500000000000000000, 2.524999999999999900 ) ) ;
#60 = CARTESIAN_POINT ( 'NONE',  ( 9.876776435123404100E-016, 15.05000000000000200, 8.064999999999999500 ) ) ;
#61 = SURFACE_STYLE_USAGE ( .BOTH. , #235 ) ;
#62 = DIRECTION ( 'NONE',  ( -0.0000000000000000000, -1.000000000000000000, -0.0000000000000000000 ) ) ;
#63 = DIRECTION ( 'NONE',  ( 0.0000000000000000000, 0.0000000000000000000, -1.000000000000000000 ) ) ;
#64 = DIRECTION ( 'NONE',  ( -0.0000000000000000000, -1.000000000000000000, -0.0000000000000000000 ) ) ;
#65 = DIRECTION ( 'NONE',  ( 0.0000000000000000000, 0.0000000000000000000, 1.000000000000000000 ) ) ;
#66 = AXIS2_PLACEMENT_3D ( 'NONE', #119, #22, #11 ) ;
#67 = CIRCLE ( 'NONE', #213, 2.414999999999999600 ) ;
#68 = CIRCLE ( 'NONE', #161, 3.598480967438468300 ) ;
#69 =( NAMED_UNIT ( * ) PLANE_ANGLE_UNIT ( ) SI_UNIT ( $, .RADIAN. ) );
#70 = VERTEX_POINT ( 'NONE', #228 ) ;
#71 = CIRCLE ( 'NONE', #75, 1.991052631578945400 ) ;
#72 = EDGE_LOOP ( 'NONE', ( #53, #335, #243, #172 ) ) ;
#73 = EDGE_LOOP ( 'NONE', ( #105, #298, #182, #14, #223 ) ) ;
#74 = FACE_OUTER_BOUND ( 'NONE', #25, .T. ) ;
#75 = AXIS2_PLACEMENT_3D ( 'NONE', #290, #195, #141 ) ;
#76 = DIRECTION ( 'NONE',  ( 0.0000000000000000000, 0.0000000000000000000, -1.000000000000000000 ) ) ;
#77 = CARTESIAN_POINT ( 'NONE',  ( 0.0000000000000000000, 5.500000000000000000, 0.0000000000000000000 ) ) ;
#78 = CIRCLE ( 'NONE', #244, 2.524999999999999900 ) ;
#79 = DIRECTION ( 'NONE',  ( -0.0000000000000000000, -1.000000000000000000, -0.0000000000000000000 ) ) ;
#80 = DIRECTION ( 'NONE',  ( 0.0000000000000000000, 0.0000000000000000000, -1.000000000000000000 ) ) ;
#81 =( GEOMETRIC_REPRESENTATION_CONTEXT ( 3 ) GLOBAL_UNCERTAINTY_ASSIGNED_CONTEXT ( ( #34 ) ) GLOBAL_UNIT_ASSIGNED_CONTEXT ( ( #96, #118, #272 ) ) REPRESENTATION_CONTEXT ( 'NONE', 'WORKASPACE' ) );
#82 = DIRECTION ( 'NONE',  ( -0.0000000000000000000, 0.0000000000000000000, 1.000000000000000000 ) ) ;
#83 = DIRECTION ( 'NONE',  ( 0.0000000000000000000, -0.0000000000000000000, 1.000000000000000000 ) ) ;
#84 = CARTESIAN_POINT ( 'NONE',  ( 0.0000000000000000000, 2.807168881056380200, 0.0000000000000000000 ) ) ;
#85 = ORIENTED_EDGE ( 'NONE', *, *, #121, .F. ) ;
#86 = CIRCLE ( 'NONE', #196, 2.524999999999999900 ) ;
#87 = AXIS2_PLACEMENT_3D ( 'NONE', #225, #206, #139 ) ;
#88 = ORIENTED_EDGE ( 'NONE', *, *, #294, .T. ) ;
#89 = FILL_AREA_STYLE_COLOUR ( '', #174 ) ;
#90 = CARTESIAN_POINT ( 'NONE',  ( 0.0000000000000000000, 0.8222671980093240200, 0.0000000000000000000 ) ) ;
#91 = DIRECTION ( 'NONE',  ( 1.000000000000000000, 0.0000000000000000000, -1.224646799147353200E-016 ) ) ;
#92 = ADVANCED_BREP_SHAPE_REPRESENTATION ( '01641-00621MIDG_09_55mm', ( #350, #66 ), #155 ) ;
#93 = DIRECTION ( 'NONE',  ( -0.0000000000000000000, -1.000000000000000000, -0.0000000000000000000 ) ) ;
#94 = VERTEX_POINT ( 'NONE', #328 ) ;
#95 = EDGE_CURVE ( 'NONE', #300, #181, #56, .T. ) ;
#96 =( LENGTH_UNIT ( ) NAMED_UNIT ( * ) SI_UNIT ( .MILLI., .METRE. ) );
#97 = ORIENTED_EDGE ( 'NONE', *, *, #45, .F. ) ;
#98 = DIRECTION ( 'NONE',  ( 0.0000000000000000000, 0.0000000000000000000, -1.000000000000000000 ) ) ;
#99 = ORIENTED_EDGE ( 'NONE', *, *, #121, .T. ) ;
#100 = VERTEX_POINT ( 'NONE', #258 ) ;
#101 = AXIS2_PLACEMENT_3D ( 'NONE', #39, #82, #265 ) ;
#102 = MECHANICAL_DESIGN_GEOMETRIC_PRESENTATION_REPRESENTATION (  '', ( #128 ), #81 ) ;
#103 = VERTEX_POINT ( 'NONE', #325 ) ;
#104 = CARTESIAN_POINT ( 'NONE',  ( 0.0000000000000000000, 3.257168881056379000, -3.598480967438468300 ) ) ;
#105 = ORIENTED_EDGE ( 'NONE', *, *, #148, .F. ) ;
#106 = DIRECTION ( 'NONE',  ( 0.0000000000000000000, 0.0000000000000000000, -1.000000000000000000 ) ) ;
#107 = DIRECTION ( 'NONE',  ( 0.0000000000000000000, 1.000000000000000000, 0.0000000000000000000 ) ) ;
#108 = CARTESIAN_POINT ( 'NONE',  ( 0.0000000000000000000, 15.05000000000000100, -2.524999999999999900 ) ) ;
#109 = PRESENTATION_LAYER_ASSIGNMENT (  '', '', ( #128 ) ) ;
#110 = CARTESIAN_POINT ( 'NONE',  ( 0.0000000000000000000, 3.707168881056380500, 0.0000000000000000000 ) ) ;
#111 = FACE_OUTER_BOUND ( 'NONE', #224, .T. ) ;
#112 = CARTESIAN_POINT ( 'NONE',  ( 0.0000000000000000000, 2.807168881056380200, 0.0000000000000000000 ) ) ;
#113 = CIRCLE ( 'NONE', #227, 2.524999999999999900 ) ;
#114 = DIRECTION ( 'NONE',  ( -0.0000000000000000000, -1.000000000000000000, -0.0000000000000000000 ) ) ;
#115 = EDGE_CURVE ( 'NONE', #103, #191, #78, .T. ) ;
#116 = DIRECTION ( 'NONE',  ( -0.0000000000000000000, -1.000000000000000000, -0.0000000000000000000 ) ) ;
#117 = CARTESIAN_POINT ( 'NONE',  ( 0.0000000000000000000, 3.257168881056379000, 0.0000000000000000000 ) ) ;
#118 =( NAMED_UNIT ( * ) PLANE_ANGLE_UNIT ( ) SI_UNIT ( $, .RADIAN. ) );
#119 = CARTESIAN_POINT ( 'NONE',  ( 0.0000000000000000000, 0.0000000000000000000, 0.0000000000000000000 ) ) ;
#120 = ORIENTED_EDGE ( 'NONE', *, *, #275, .F. ) ;
#121 = EDGE_CURVE ( 'NONE', #43, #250, #86, .T. ) ;
#122 = EDGE_CURVE ( 'NONE', #2, #241, #13, .T. ) ;
#123 = EDGE_LOOP ( 'NONE', ( #125, #307, #142, #180 ) ) ;
#124 = CYLINDRICAL_SURFACE ( 'NONE', #209, 2.524999999999999900 ) ;
#125 = ORIENTED_EDGE ( 'NONE', *, *, #194, .F. ) ;
#126 = EDGE_LOOP ( 'NONE', ( #143, #88, #324, #192 ) ) ;
#127 = CARTESIAN_POINT ( 'NONE',  ( 0.0000000000000000000, 15.05000000000000200, -8.064999999999999500 ) ) ;
#128 = STYLED_ITEM ( 'NONE', ( #348 ), #92 ) ;
#129 = SURFACE_STYLE_USAGE ( .BOTH. , #371 ) ;
#130 = AXIS2_PLACEMENT_3D ( 'NONE', #230, #107, #83 ) ;
#131 = CIRCLE ( 'NONE', #360, 1.991052631578945400 ) ;
#132 = AXIS2_PLACEMENT_3D ( 'NONE', #365, #12, #57 ) ;
#133 = ORIENTED_EDGE ( 'NONE', *, *, #216, .T. ) ;
#134 = PLANE ( 'NONE',  #132 ) ;
#135 = ADVANCED_FACE ( 'NONE', ( #151 ), #44, .T. ) ;
#136 = EDGE_CURVE ( 'NONE', #250, #103, #4, .T. ) ;
#137 = ADVANCED_FACE ( 'NONE', ( #311 ), #176, .T. ) ;
#138 = CARTESIAN_POINT ( 'NONE',  ( 0.0000000000000000000, 17.18000000000000000, -4.924999999999999800 ) ) ;
#139 = DIRECTION ( 'NONE',  ( 0.0000000000000000000, 0.0000000000000000000, -1.000000000000000000 ) ) ;
#140 = ADVANCED_FACE ( 'NONE', ( #329 ), #229, .T. ) ;
#141 = DIRECTION ( 'NONE',  ( 0.0000000000000000000, 0.0000000000000000000, 1.000000000000000000 ) ) ;
#142 = ORIENTED_EDGE ( 'NONE', *, *, #354, .T. ) ;
#143 = ORIENTED_EDGE ( 'NONE', *, *, #186, .F. ) ;
#144 = DIRECTION ( 'NONE',  ( 0.0000000000000000000, 0.0000000000000000000, -1.000000000000000000 ) ) ;
#145 = DIRECTION ( 'NONE',  ( 0.0000000000000000000, 0.0000000000000000000, -1.000000000000000000 ) ) ;
#146 = CARTESIAN_POINT ( 'NONE',  ( 0.0000000000000000000, 2.415000000000000000, 0.0000000000000000000 ) ) ;
#147 = ADVANCED_FACE ( 'NONE', ( #74 ), #247, .T. ) ;
#148 = EDGE_CURVE ( 'NONE', #286, #27, #131, .T. ) ;
#149 = SHAPE_DEFINITION_REPRESENTATION ( #343, #92 ) ;
#150 = ORIENTED_EDGE ( 'NONE', *, *, #294, .F. ) ;
#151 = FACE_OUTER_BOUND ( 'NONE', #214, .T. ) ;
#152 = DIRECTION ( 'NONE',  ( 0.0000000000000000000, 0.0000000000000000000, 1.000000000000000000 ) ) ;
#153 = DIRECTION ( 'NONE',  ( 0.0000000000000000000, 0.0000000000000000000, -1.000000000000000000 ) ) ;
#154 = FACE_OUTER_BOUND ( 'NONE', #72, .T. ) ;
#155 =( GEOMETRIC_REPRESENTATION_CONTEXT ( 3 ) GLOBAL_UNCERTAINTY_ASSIGNED_CONTEXT ( ( #233 ) ) GLOBAL_UNIT_ASSIGNED_CONTEXT ( ( #369, #342, #346 ) ) REPRESENTATION_CONTEXT ( 'NONE', 'WORKASPACE' ) );
#156 = DIRECTION ( 'NONE',  ( 0.0000000000000000000, 0.0000000000000000000, -1.000000000000000000 ) ) ;
#157 = DIRECTION ( 'NONE',  ( -0.0000000000000000000, -1.000000000000000000, -0.0000000000000000000 ) ) ;
#158 = ADVANCED_FACE ( 'NONE', ( #15 ), #124, .T. ) ;
#159 = DIRECTION ( 'NONE',  ( -0.0000000000000000000, -1.000000000000000000, -0.0000000000000000000 ) ) ;
#160 = ADVANCED_FACE ( 'NONE', ( #111 ), #253, .T. ) ;
#161 = AXIS2_PLACEMENT_3D ( 'NONE', #117, #336, #63 ) ;
#162 = VERTEX_POINT ( 'NONE', #338 ) ;
#163 = ORIENTED_EDGE ( 'NONE', *, *, #148, .T. ) ;
#164 = DIRECTION ( 'NONE',  ( -1.000000000000000000, 0.0000000000000000000, 0.0000000000000000000 ) ) ;
#165 = ADVANCED_FACE ( 'NONE', ( #154 ), #323, .T. ) ;
#166 = DIRECTION ( 'NONE',  ( 0.0000000000000000000, 0.0000000000000000000, -1.000000000000000000 ) ) ;
#167 = EDGE_CURVE ( 'NONE', #241, #181, #254, .T. ) ;
#168 = DIRECTION ( 'NONE',  ( 0.0000000000000000000, 0.0000000000000000000, -1.000000000000000000 ) ) ;
#169 = ORIENTED_EDGE ( 'NONE', *, *, #52, .F. ) ;
#170 = CARTESIAN_POINT ( 'NONE',  ( 3.092233167847066500E-016, 0.0000000000000000000, 2.524999999999999900 ) ) ;
#171 = ORIENTED_EDGE ( 'NONE', *, *, #268, .F. ) ;
#172 = ORIENTED_EDGE ( 'NONE', *, *, #306, .F. ) ;
#173 = ADVANCED_FACE ( 'NONE', ( #42, #276 ), #134, .T. ) ;
#174 = COLOUR_RGB ( '',0.7921568627450980000, 0.8196078431372548800, 0.9333333333333333500 ) ;
#175 = APPLICATION_PROTOCOL_DEFINITION ( 'draft international standard', 'automotive_design', 1998, #19 ) ;
#176 = TOROIDAL_SURFACE ( 'NONE', #221, 4.924999999999999800, 3.379460093896714300 ) ;
#177 = EDGE_LOOP ( 'NONE', ( #278, #33, #339, #169 ) ) ;
#178 = DIRECTION ( 'NONE',  ( -0.0000000000000000000, -1.000000000000000000, -0.0000000000000000000 ) ) ;
#179 = AXIS2_PLACEMENT_3D ( 'NONE', #239, #274, #152 ) ;
#180 = ORIENTED_EDGE ( 'NONE', *, *, #368, .F. ) ;
#181 = VERTEX_POINT ( 'NONE', #60 ) ;
#182 = ORIENTED_EDGE ( 'NONE', *, *, #8, .T. ) ;
#183 = CARTESIAN_POINT ( 'NONE',  ( 0.0000000000000000000, 13.80053990610328700, -4.924999999999999800 ) ) ;
#184 = ORIENTED_EDGE ( 'NONE', *, *, #186, .T. ) ;
#185 =( GEOMETRIC_REPRESENTATION_CONTEXT ( 3 ) GLOBAL_UNCERTAINTY_ASSIGNED_CONTEXT ( ( #305 ) ) GLOBAL_UNIT_ASSIGNED_CONTEXT ( ( #264, #69, #58 ) ) REPRESENTATION_CONTEXT ( 'NONE', 'WORKASPACE' ) );
#186 = EDGE_CURVE ( 'NONE', #94, #100, #67, .T. ) ;
#187 = DIRECTION ( 'NONE',  ( 1.000000000000000000, 0.0000000000000000000, -1.224646799147353200E-016 ) ) ;
#188 = ADVANCED_FACE ( 'NONE', ( #349 ), #200, .T. ) ;
#189 = ADVANCED_FACE ( 'NONE', ( #327 ), #292, .T. ) ;
#190 = CARTESIAN_POINT ( 'NONE',  ( 0.0000000000000000000, 0.8222671980093240200, 0.0000000000000000000 ) ) ;
#191 = VERTEX_POINT ( 'NONE', #59 ) ;
#192 = ORIENTED_EDGE ( 'NONE', *, *, #45, .T. ) ;
#193 = CARTESIAN_POINT ( 'NONE',  ( 0.0000000000000000000, 3.707168881056380500, 0.0000000000000000000 ) ) ;
#194 = EDGE_CURVE ( 'NONE', #191, #286, #367, .T. ) ;
#195 = DIRECTION ( 'NONE',  ( -1.000000000000000000, 0.0000000000000000000, 0.0000000000000000000 ) ) ;
#196 = AXIS2_PLACEMENT_3D ( 'NONE', #18, #267, #80 ) ;
#197 = MECHANICAL_DESIGN_GEOMETRIC_PRESENTATION_REPRESENTATION (  '', ( #220 ), #185 ) ;
#198 = ORIENTED_EDGE ( 'NONE', *, *, #136, .T. ) ;
#199 = ORIENTED_EDGE ( 'NONE', *, *, #122, .F. ) ;
#200 = TOROIDAL_SURFACE ( 'NONE', #356, 1.658947368421053600, 1.991052631578945400 ) ;
#201 = DIRECTION ( 'NONE',  ( -1.000000000000000000, 0.0000000000000000000, 0.0000000000000000000 ) ) ;
#202 = CIRCLE ( 'NONE', #245, 1.815331160274324700 ) ;
#203 = DIRECTION ( 'NONE',  ( 0.0000000000000000000, 0.0000000000000000000, -1.000000000000000000 ) ) ;
#204 = DIRECTION ( 'NONE',  ( -1.224646799147353200E-016, 0.0000000000000000000, -1.000000000000000000 ) ) ;
#205 = ORIENTED_EDGE ( 'NONE', *, *, #115, .T. ) ;
#206 = DIRECTION ( 'NONE',  ( -0.0000000000000000000, -1.000000000000000000, -0.0000000000000000000 ) ) ;
#207 = PRESENTATION_LAYER_ASSIGNMENT (  '', '', ( #220 ) ) ;
#208 = PRODUCT ( '01641-00621MIDG_09_55mm', '01641-00621MIDG_09_55mm', '', ( #301 ) ) ;
#209 = AXIS2_PLACEMENT_3D ( 'NONE', #332, #79, #49 ) ;
#210 = EDGE_CURVE ( 'NONE', #219, #286, #355, .T. ) ;
#211 = FILL_AREA_STYLE ('',( #89 ) ) ;
#212 = EDGE_LOOP ( 'NONE', ( #7, #308 ) ) ;
#213 = AXIS2_PLACEMENT_3D ( 'NONE', #146, #204, #1 ) ;
#214 = EDGE_LOOP ( 'NONE', ( #205, #48, #345, #32 ) ) ;
#215 = DIRECTION ( 'NONE',  ( -1.000000000000000000, 0.0000000000000000000, 0.0000000000000000000 ) ) ;
#216 = EDGE_CURVE ( 'NONE', #43, #191, #319, .T. ) ;
#217 = CIRCLE ( 'NONE', #101, 2.414999999999999600 ) ;
#218 = ORIENTED_EDGE ( 'NONE', *, *, #8, .F. ) ;
#219 = VERTEX_POINT ( 'NONE', #104 ) ;
#220 = STYLED_ITEM ( 'NONE', ( #238 ), #350 ) ;
#221 = AXIS2_PLACEMENT_3D ( 'NONE', #6, #114, #304 ) ;
#222 = DIRECTION ( 'NONE',  ( -0.0000000000000000000, -0.0000000000000000000, -1.000000000000000000 ) ) ;
#223 = ORIENTED_EDGE ( 'NONE', *, *, #318, .F. ) ;
#224 = EDGE_LOOP ( 'NONE', ( #199, #120 ) ) ;
#225 = CARTESIAN_POINT ( 'NONE',  ( 0.0000000000000000000, 15.05000000000000200, 0.0000000000000000000 ) ) ;
#226 = DIRECTION ( 'NONE',  ( -0.0000000000000000000, -1.000000000000000000, -0.0000000000000000000 ) ) ;
#227 = AXIS2_PLACEMENT_3D ( 'NONE', #266, #40, #98 ) ;
#228 = CARTESIAN_POINT ( 'NONE',  ( 0.0000000000000000000, 0.8222671980093240200, -1.815331160274324700 ) ) ;
#229 = SPHERICAL_SURFACE ( 'NONE', #293, 2.414999999999999600 ) ;
#230 = CARTESIAN_POINT ( 'NONE',  ( 4.924999999999999800, 17.18000000000000000, 0.0000000000000000000 ) ) ;
#231 = AXIS2_PLACEMENT_3D ( 'NONE', #16, #321, #106 ) ;
#232 = DIRECTION ( 'NONE',  ( 0.0000000000000000000, 0.0000000000000000000, -1.000000000000000000 ) ) ;
#233 = UNCERTAINTY_MEASURE_WITH_UNIT (LENGTH_MEASURE( 1.000000000000000100E-005 ), #369, 'distance_accuracy_value', 'NONE');
#234 = ORIENTED_EDGE ( 'NONE', *, *, #260, .T. ) ;
#235 = SURFACE_SIDE_STYLE ('',( #288 ) ) ;
#236 = SURFACE_STYLE_FILL_AREA ( #211 ) ;
#237 = DIRECTION ( 'NONE',  ( -0.0000000000000000000, -1.000000000000000000, -0.0000000000000000000 ) ) ;
#238 = PRESENTATION_STYLE_ASSIGNMENT (( #129 ) ) ;
#239 = CARTESIAN_POINT ( 'NONE',  ( 0.0000000000000000000, 3.707168881056380500, -1.658947368421053600 ) ) ;
#240 = CARTESIAN_POINT ( 'NONE',  ( 0.0000000000000000000, 2.415000000000000000, 0.0000000000000000000 ) ) ;
#241 = VERTEX_POINT ( 'NONE', #37 ) ;
#242 = EDGE_CURVE ( 'NONE', #70, #94, #341, .T. ) ;
#243 = ORIENTED_EDGE ( 'NONE', *, *, #95, .F. ) ;
#244 = AXIS2_PLACEMENT_3D ( 'NONE', #77, #237, #30 ) ;
#245 = AXIS2_PLACEMENT_3D ( 'NONE', #26, #93, #145 ) ;
#246 = CIRCLE ( 'NONE', #270, 1.815331160274324700 ) ;
#247 = CYLINDRICAL_SURFACE ( 'NONE', #231, 2.524999999999999900 ) ;
#248 = CIRCLE ( 'NONE', #249, 3.379460093896714300 ) ;
#249 = AXIS2_PLACEMENT_3D ( 'NONE', #183, #215, #65 ) ;
#250 = VERTEX_POINT ( 'NONE', #108 ) ;
#251 = AXIS2_PLACEMENT_3D ( 'NONE', #9, #187, #363 ) ;
#252 = CARTESIAN_POINT ( 'NONE',  ( 0.0000000000000000000, 2.415000000000000000, 0.0000000000000000000 ) ) ;
#253 = PLANE ( 'NONE',  #130 ) ;
#254 = CIRCLE ( 'NONE', #251, 3.379460093896714300 ) ;
#255 = CARTESIAN_POINT ( 'NONE',  ( 3.315003846694297000E-016, 0.8222671980093240200, 1.815331160274324700 ) ) ;
#256 = CIRCLE ( 'NONE', #309, 1.815331160274324700 ) ;
#257 = CARTESIAN_POINT ( 'NONE',  ( 0.0000000000000000000, 13.80053990610328700, 0.0000000000000000000 ) ) ;
#258 = CARTESIAN_POINT ( 'NONE',  ( -1.478761009970428900E-016, 4.336808689942017700E-016, 0.0000000000000000000 ) ) ;
#259 = CIRCLE ( 'NONE', #289, 2.524999999999999900 ) ;
#260 = EDGE_CURVE ( 'NONE', #162, #70, #256, .T. ) ;
#261 = CARTESIAN_POINT ( 'NONE',  ( 0.0000000000000000000, 0.0000000000000000000, -2.524999999999999900 ) ) ;
#262 = AXIS2_PLACEMENT_3D ( 'NONE', #240, #358, #201 ) ;
#263 = CARTESIAN_POINT ( 'NONE',  ( 0.0000000000000000000, 0.8222671980093240200, 0.0000000000000000000 ) ) ;
#264 =( LENGTH_UNIT ( ) NAMED_UNIT ( * ) SI_UNIT ( .MILLI., .METRE. ) );
#265 = DIRECTION ( 'NONE',  ( 1.000000000000000000, 0.0000000000000000000, 0.0000000000000000000 ) ) ;
#266 = CARTESIAN_POINT ( 'NONE',  ( 0.0000000000000000000, 15.05000000000000100, 0.0000000000000000000 ) ) ;
#267 = DIRECTION ( 'NONE',  ( -0.0000000000000000000, -1.000000000000000000, -0.0000000000000000000 ) ) ;
#268 = EDGE_CURVE ( 'NONE', #191, #103, #259, .T. ) ;
#269 = DIRECTION ( 'NONE',  ( 0.0000000000000000000, 0.0000000000000000000, -1.000000000000000000 ) ) ;
#270 = AXIS2_PLACEMENT_3D ( 'NONE', #90, #362, #153 ) ;
#271 = AXIS2_PLACEMENT_3D ( 'NONE', #10, #28, #31 ) ;
#272 =( NAMED_UNIT ( * ) SI_UNIT ( $, .STERADIAN. ) SOLID_ANGLE_UNIT ( ) );
#273 = ORIENTED_EDGE ( 'NONE', *, *, #216, .F. ) ;
#274 = DIRECTION ( 'NONE',  ( -1.000000000000000000, 0.0000000000000000000, 0.0000000000000000000 ) ) ;
#275 = EDGE_CURVE ( 'NONE', #241, #2, #370, .T. ) ;
#276 = FACE_BOUND ( 'NONE', #55, .T. ) ;
#277 = AXIS2_PLACEMENT_3D ( 'NONE', #351, #297, #337 ) ;
#278 = ORIENTED_EDGE ( 'NONE', *, *, #167, .F. ) ;
#279 = DIRECTION ( 'NONE',  ( -0.0000000000000000000, -1.000000000000000000, -0.0000000000000000000 ) ) ;
#280 = VECTOR ( 'NONE', #159, 1000.000000000000000 ) ;
#281 = ADVANCED_FACE ( 'NONE', ( #310 ), #46, .T. ) ;
#282 = AXIS2_PLACEMENT_3D ( 'NONE', #353, #178, #203 ) ;
#283 = EDGE_LOOP ( 'NONE', ( #359, #163, #150, #317, #218 ) ) ;
#284 = CIRCLE ( 'NONE', #326, 8.064999999999999500 ) ;
#285 = DIRECTION ( 'NONE',  ( 0.0000000000000000000, 0.0000000000000000000, -1.000000000000000000 ) ) ;
#286 = VERTEX_POINT ( 'NONE', #352 ) ;
#287 = CARTESIAN_POINT ( 'NONE',  ( 2.031624584690768300E-016, 2.807168881056380200, 1.658947368421053600 ) ) ;
#288 = SURFACE_STYLE_FILL_AREA ( #303 ) ;
#289 = AXIS2_PLACEMENT_3D ( 'NONE', #295, #116, #3 ) ;
#290 = CARTESIAN_POINT ( 'NONE',  ( 0.0000000000000000000, 2.807168881056380200, -1.658947368421053600 ) ) ;
#291 = CLOSED_SHELL ( 'NONE', ( #165, #147, #135, #188, #281, #140, #189, #17, #158, #173, #137, #160 ) ) ;
#292 = TOROIDAL_SURFACE ( 'NONE', #340, 1.658947368421053600, 1.991052631578945400 ) ;
#293 = AXIS2_PLACEMENT_3D ( 'NONE', #252, #222, #164 ) ;
#294 = EDGE_CURVE ( 'NONE', #94, #27, #246, .T. ) ;
#295 = CARTESIAN_POINT ( 'NONE',  ( 0.0000000000000000000, 5.500000000000000000, 0.0000000000000000000 ) ) ;
#296 = COLOUR_RGB ( '',0.7921568627450980000, 0.8196078431372548800, 0.9333333333333333500 ) ;
#297 = DIRECTION ( 'NONE',  ( -0.0000000000000000000, -1.000000000000000000, -0.0000000000000000000 ) ) ;
#298 = ORIENTED_EDGE ( 'NONE', *, *, #368, .T. ) ;
#299 = ORIENTED_EDGE ( 'NONE', *, *, #136, .F. ) ;
#300 = VERTEX_POINT ( 'NONE', #127 ) ;
#301 = PRODUCT_CONTEXT ( 'NONE', #314, 'mechanical' ) ;
#302 = DIRECTION ( 'NONE',  ( 0.0000000000000000000, 0.0000000000000000000, -1.000000000000000000 ) ) ;
#303 = FILL_AREA_STYLE ('',( #366 ) ) ;
#304 = DIRECTION ( 'NONE',  ( 0.0000000000000000000, 0.0000000000000000000, -1.000000000000000000 ) ) ;
#305 = UNCERTAINTY_MEASURE_WITH_UNIT (LENGTH_MEASURE( 1.000000000000000100E-005 ), #264, 'distance_accuracy_value', 'NONE');
#306 = EDGE_CURVE ( 'NONE', #2, #300, #248, .T. ) ;
#307 = ORIENTED_EDGE ( 'NONE', *, *, #268, .T. ) ;
#308 = ORIENTED_EDGE ( 'NONE', *, *, #52, .T. ) ;
#309 = AXIS2_PLACEMENT_3D ( 'NONE', #263, #279, #285 ) ;
#310 = FACE_OUTER_BOUND ( 'NONE', #29, .T. ) ;
#311 = FACE_OUTER_BOUND ( 'NONE', #177, .T. ) ;
#312 = ORIENTED_EDGE ( 'NONE', *, *, #320, .F. ) ;
#313 = CIRCLE ( 'NONE', #179, 1.991052631578946300 ) ;
#314 = APPLICATION_CONTEXT ( 'automotive_design' ) ;
#315 = AXIS2_PLACEMENT_3D ( 'NONE', #190, #157, #168 ) ;
#316 = ORIENTED_EDGE ( 'NONE', *, *, #242, .T. ) ;
#317 = ORIENTED_EDGE ( 'NONE', *, *, #242, .F. ) ;
#318 = EDGE_CURVE ( 'NONE', #27, #162, #202, .T. ) ;
#319 = LINE ( 'NONE', #170, #280 ) ;
#320 = EDGE_CURVE ( 'NONE', #250, #43, #113, .T. ) ;
#321 = DIRECTION ( 'NONE',  ( -0.0000000000000000000, -1.000000000000000000, -0.0000000000000000000 ) ) ;
#322 = PRODUCT_RELATED_PRODUCT_CATEGORY ( 'part', '', ( #208 ) ) ;
#323 = TOROIDAL_SURFACE ( 'NONE', #38, 4.924999999999999800, 3.379460093896714300 ) ;
#324 = ORIENTED_EDGE ( 'NONE', *, *, #318, .T. ) ;
#325 = CARTESIAN_POINT ( 'NONE',  ( 0.0000000000000000000, 5.500000000000000000, -2.524999999999999900 ) ) ;
#326 = AXIS2_PLACEMENT_3D ( 'NONE', #54, #333, #232 ) ;
#327 = FACE_OUTER_BOUND ( 'NONE', #73, .T. ) ;
#328 = CARTESIAN_POINT ( 'NONE',  ( 1.815331160274325000, 0.8222671980093240200, -2.223139494822402500E-016 ) ) ;
#329 = FACE_OUTER_BOUND ( 'NONE', #126, .T. ) ;
#330 = AXIS2_PLACEMENT_3D ( 'NONE', #193, #226, #302 ) ;
#331 = AXIS2_PLACEMENT_3D ( 'NONE', #50, #64, #76 ) ;
#332 = CARTESIAN_POINT ( 'NONE',  ( 0.0000000000000000000, 0.0000000000000000000, 0.0000000000000000000 ) ) ;
#333 = DIRECTION ( 'NONE',  ( -0.0000000000000000000, -1.000000000000000000, -0.0000000000000000000 ) ) ;
#334 = ORIENTED_EDGE ( 'NONE', *, *, #320, .T. ) ;
#335 = ORIENTED_EDGE ( 'NONE', *, *, #167, .T. ) ;
#336 = DIRECTION ( 'NONE',  ( -0.0000000000000000000, -1.000000000000000000, -0.0000000000000000000 ) ) ;
#337 = DIRECTION ( 'NONE',  ( 0.0000000000000000000, 0.0000000000000000000, -1.000000000000000000 ) ) ;
#338 = CARTESIAN_POINT ( 'NONE',  ( -1.815331160274325000, 0.8222671980093240200, 0.0000000000000000000 ) ) ;
#339 = ORIENTED_EDGE ( 'NONE', *, *, #306, .T. ) ;
#340 = AXIS2_PLACEMENT_3D ( 'NONE', #84, #51, #166 ) ;
#341 = CIRCLE ( 'NONE', #315, 1.815331160274324700 ) ;
#342 =( NAMED_UNIT ( * ) PLANE_ANGLE_UNIT ( ) SI_UNIT ( $, .RADIAN. ) );
#343 = PRODUCT_DEFINITION_SHAPE ( 'NONE', 'NONE',  #364 ) ;
#344 = AXIS2_PLACEMENT_3D ( 'NONE', #110, #357, #156 ) ;
#345 = ORIENTED_EDGE ( 'NONE', *, *, #210, .F. ) ;
#346 =( NAMED_UNIT ( * ) SI_UNIT ( $, .STERADIAN. ) SOLID_ANGLE_UNIT ( ) );
#347 = PRODUCT_DEFINITION_FORMATION_WITH_SPECIFIED_SOURCE ( 'ANY', '', #208, .NOT_KNOWN. ) ;
#348 = PRESENTATION_STYLE_ASSIGNMENT (( #61 ) ) ;
#349 = FACE_OUTER_BOUND ( 'NONE', #283, .T. ) ;
#350 = MANIFOLD_SOLID_BREP ( 'Revolve1', #291 ) ;
#351 = CARTESIAN_POINT ( 'NONE',  ( 0.0000000000000000000, 17.18000000000000000, 0.0000000000000000000 ) ) ;
#352 = CARTESIAN_POINT ( 'NONE',  ( 4.406868198566191100E-016, 3.257168881056379000, 3.598480967438468300 ) ) ;
#353 = CARTESIAN_POINT ( 'NONE',  ( 0.0000000000000000000, 17.18000000000000000, 0.0000000000000000000 ) ) ;
#354 = EDGE_CURVE ( 'NONE', #103, #219, #313, .T. ) ;
#355 = CIRCLE ( 'NONE', #331, 3.598480967438468300 ) ;
#356 = AXIS2_PLACEMENT_3D ( 'NONE', #112, #62, #144 ) ;
#357 = DIRECTION ( 'NONE',  ( -0.0000000000000000000, -1.000000000000000000, -0.0000000000000000000 ) ) ;
#358 = DIRECTION ( 'NONE',  ( -0.0000000000000000000, -0.0000000000000000000, -1.000000000000000000 ) ) ;
#359 = ORIENTED_EDGE ( 'NONE', *, *, #210, .T. ) ;
#360 = AXIS2_PLACEMENT_3D ( 'NONE', #287, #91, #35 ) ;
#361 = ORIENTED_EDGE ( 'NONE', *, *, #115, .F. ) ;
#362 = DIRECTION ( 'NONE',  ( -0.0000000000000000000, -1.000000000000000000, -0.0000000000000000000 ) ) ;
#363 = DIRECTION ( 'NONE',  ( -1.224646799147353000E-016, 0.0000000000000000000, -1.000000000000000000 ) ) ;
#364 = PRODUCT_DEFINITION ( 'UNKNOWN', '', #347, #41 ) ;
#365 = CARTESIAN_POINT ( 'NONE',  ( 2.524999999999999900, 15.05000000000000100, 0.0000000000000000000 ) ) ;
#366 = FILL_AREA_STYLE_COLOUR ( '', #296 ) ;
#367 = CIRCLE ( 'NONE', #271, 1.991052631578946300 ) ;
#368 = EDGE_CURVE ( 'NONE', #286, #219, #68, .T. ) ;
#369 =( LENGTH_UNIT ( ) NAMED_UNIT ( * ) SI_UNIT ( .MILLI., .METRE. ) );
#370 = CIRCLE ( 'NONE', #277, 4.924999999999999800 ) ;
#371 = SURFACE_SIDE_STYLE ('',( #236 ) ) ;
#372 = DIRECTION ( 'NONE',  ( -0.0000000000000000000, -1.000000000000000000, -0.0000000000000000000 ) ) ;
ENDSEC;
END-ISO-10303-21;
