ISO-10303-21;
HEADER;
FILE_DESCRIPTION (( 'STEP AP214' ),
    '1' );
FILE_NAME ('01641-00621MAXG_12_70mm.STEP',
    '2016-04-28T13:02:06',
    ( '' ),
    ( '' ),
    'SwSTEP 2.0',
    'SolidWorks 2015',
    '' );
FILE_SCHEMA (( 'AUTOMOTIVE_DESIGN' ));
ENDSEC;

DATA;
#1 = CARTESIAN_POINT ( 'NONE',  ( 1.815331160274325000, 0.8222671980093240200, -2.223139494822402500E-016 ) ) ;
#2 = CARTESIAN_POINT ( 'NONE',  ( 0.0000000000000000000, 0.8222671980093240200, -1.815331160274324700 ) ) ;
#3 = DIRECTION ( 'NONE',  ( 0.0000000000000000000, 0.0000000000000000000, -1.000000000000000000 ) ) ;
#4 = VERTEX_POINT ( 'NONE', #97 ) ;
#5 = DIRECTION ( 'NONE',  ( 0.0000000000000000000, 0.0000000000000000000, 1.000000000000000000 ) ) ;
#6 = CIRCLE ( 'NONE', #314, 2.524999999999999900 ) ;
#7 = DIRECTION ( 'NONE',  ( -0.0000000000000000000, -1.000000000000000000, -0.0000000000000000000 ) ) ;
#8 = CARTESIAN_POINT ( 'NONE',  ( 0.0000000000000000000, 2.415000000000000000, 0.0000000000000000000 ) ) ;
#9 = EDGE_CURVE ( 'NONE', #143, #116, #362, .T. ) ;
#10 = COLOUR_RGB ( '',0.7921568627450980000, 0.8196078431372548800, 0.9333333333333333500 ) ;
#11 = CARTESIAN_POINT ( 'NONE',  ( 0.0000000000000000000, 5.500000000000000000, 0.0000000000000000000 ) ) ;
#12 = CARTESIAN_POINT ( 'NONE',  ( 0.0000000000000000000, 0.0000000000000000000, 0.0000000000000000000 ) ) ;
#13 = CIRCLE ( 'NONE', #221, 1.815331160274324700 ) ;
#14 = DIRECTION ( 'NONE',  ( -0.0000000000000000000, -1.000000000000000000, -0.0000000000000000000 ) ) ;
#15 = PRESENTATION_LAYER_ASSIGNMENT (  '', '', ( #60 ) ) ;
#16 = AXIS2_PLACEMENT_3D ( 'NONE', #207, #50, #323 ) ;
#17 = ORIENTED_EDGE ( 'NONE', *, *, #45, .F. ) ;
#18 = EDGE_LOOP ( 'NONE', ( #198, #199 ) ) ;
#19 = CIRCLE ( 'NONE', #332, 3.598480967438468300 ) ;
#20 = CIRCLE ( 'NONE', #217, 3.379460093896711600 ) ;
#21 = CIRCLE ( 'NONE', #354, 3.379460093896711600 ) ;
#22 = DIRECTION ( 'NONE',  ( -0.0000000000000000000, -1.000000000000000000, -0.0000000000000000000 ) ) ;
#23 = CARTESIAN_POINT ( 'NONE',  ( 0.0000000000000000000, 18.19999999999999900, -8.064999999999999500 ) ) ;
#24 = DIRECTION ( 'NONE',  ( -0.0000000000000000000, -1.000000000000000000, -0.0000000000000000000 ) ) ;
#25 = DIRECTION ( 'NONE',  ( -0.0000000000000000000, -0.0000000000000000000, -1.000000000000000000 ) ) ;
#26 = DIRECTION ( 'NONE',  ( -1.000000000000000000, 0.0000000000000000000, 0.0000000000000000000 ) ) ;
#27 = ORIENTED_EDGE ( 'NONE', *, *, #147, .F. ) ;
#28 = CARTESIAN_POINT ( 'NONE',  ( 4.924999999999999800, 20.33000000000000200, 0.0000000000000000000 ) ) ;
#29 = VERTEX_POINT ( 'NONE', #181 ) ;
#30 = CARTESIAN_POINT ( 'NONE',  ( 0.0000000000000000000, 20.33000000000000200, 0.0000000000000000000 ) ) ;
#31 = ORIENTED_EDGE ( 'NONE', *, *, #307, .F. ) ;
#32 = PLANE ( 'NONE',  #302 ) ;
#33 = CARTESIAN_POINT ( 'NONE',  ( 0.0000000000000000000, 0.0000000000000000000, 0.0000000000000000000 ) ) ;
#34 = DIRECTION ( 'NONE',  ( -1.000000000000000000, 0.0000000000000000000, 0.0000000000000000000 ) ) ;
#35 = DIRECTION ( 'NONE',  ( 0.0000000000000000000, 0.0000000000000000000, -1.000000000000000000 ) ) ;
#36 = DIRECTION ( 'NONE',  ( 0.0000000000000000000, -1.000000000000000000, -0.0000000000000000000 ) ) ;
#37 = DIRECTION ( 'NONE',  ( -0.0000000000000000000, -1.000000000000000000, -0.0000000000000000000 ) ) ;
#38 = TOROIDAL_SURFACE ( 'NONE', #121, 1.658947368421053600, 1.991052631578945400 ) ;
#39 = VERTEX_POINT ( 'NONE', #308 ) ;
#40 = ORIENTED_EDGE ( 'NONE', *, *, #202, .F. ) ;
#41 = APPLICATION_CONTEXT ( 'automotive_design' ) ;
#42 = ORIENTED_EDGE ( 'NONE', *, *, #350, .F. ) ;
#43 = ORIENTED_EDGE ( 'NONE', *, *, #243, .T. ) ;
#44 = DIRECTION ( 'NONE',  ( -0.0000000000000000000, -1.000000000000000000, -0.0000000000000000000 ) ) ;
#45 = EDGE_CURVE ( 'NONE', #200, #39, #320, .T. ) ;
#46 = CARTESIAN_POINT ( 'NONE',  ( 0.0000000000000000000, 20.33000000000000200, -4.924999999999999800 ) ) ;
#47 = CARTESIAN_POINT ( 'NONE',  ( 0.0000000000000000000, 0.8222671980093240200, 0.0000000000000000000 ) ) ;
#48 = ORIENTED_EDGE ( 'NONE', *, *, #242, .T. ) ;
#49 = VERTEX_POINT ( 'NONE', #225 ) ;
#50 = DIRECTION ( 'NONE',  ( -0.0000000000000000000, -1.000000000000000000, -0.0000000000000000000 ) ) ;
#51 = ORIENTED_EDGE ( 'NONE', *, *, #263, .T. ) ;
#52 = ORIENTED_EDGE ( 'NONE', *, *, #45, .T. ) ;
#53 = CIRCLE ( 'NONE', #343, 2.524999999999999900 ) ;
#54 = ORIENTED_EDGE ( 'NONE', *, *, #256, .F. ) ;
#55 = PRODUCT_RELATED_PRODUCT_CATEGORY ( 'part', '', ( #218 ) ) ;
#56 = ADVANCED_BREP_SHAPE_REPRESENTATION ( '01641-00621MAXG_12_70mm', ( #355, #235 ), #103 ) ;
#57 = ORIENTED_EDGE ( 'NONE', *, *, #160, .T. ) ;
#58 = ORIENTED_EDGE ( 'NONE', *, *, #371, .F. ) ;
#59 = VERTEX_POINT ( 'NONE', #309 ) ;
#60 = STYLED_ITEM ( 'NONE', ( #301 ), #56 ) ;
#61 = ORIENTED_EDGE ( 'NONE', *, *, #350, .T. ) ;
#62 = ORIENTED_EDGE ( 'NONE', *, *, #160, .F. ) ;
#63 = PRODUCT_DEFINITION_FORMATION_WITH_SPECIFIED_SOURCE ( 'ANY', '', #218, .NOT_KNOWN. ) ;
#64 = EDGE_LOOP ( 'NONE', ( #146, #100, #40, #194 ) ) ;
#65 = CARTESIAN_POINT ( 'NONE',  ( 0.0000000000000000000, 18.19999999999999900, 0.0000000000000000000 ) ) ;
#66 = TOROIDAL_SURFACE ( 'NONE', #125, 1.658947368421053600, 1.991052631578945400 ) ;
#67 = EDGE_LOOP ( 'NONE', ( #75, #184, #61, #177 ) ) ;
#68 = CARTESIAN_POINT ( 'NONE',  ( 0.0000000000000000000, 2.415000000000000000, 0.0000000000000000000 ) ) ;
#69 = SURFACE_SIDE_STYLE ('',( #204 ) ) ;
#70 = CARTESIAN_POINT ( 'NONE',  ( 0.0000000000000000000, 3.257168881056379000, 0.0000000000000000000 ) ) ;
#71 = CIRCLE ( 'NONE', #289, 1.991052631578945400 ) ;
#72 = DIRECTION ( 'NONE',  ( 0.0000000000000000000, 0.0000000000000000000, -1.000000000000000000 ) ) ;
#73 = EDGE_LOOP ( 'NONE', ( #86, #43, #297, #17 ) ) ;
#74 =( LENGTH_UNIT ( ) NAMED_UNIT ( * ) SI_UNIT ( .MILLI., .METRE. ) );
#75 = ORIENTED_EDGE ( 'NONE', *, *, #170, .F. ) ;
#76 = EDGE_LOOP ( 'NONE', ( #162, #167 ) ) ;
#77 = CARTESIAN_POINT ( 'NONE',  ( 7.954080960462058600E-016, 20.33000000000000200, 4.924999999999999800 ) ) ;
#78 = EDGE_LOOP ( 'NONE', ( #54, #48, #139, #287 ) ) ;
#79 = EDGE_CURVE ( 'NONE', #39, #49, #330, .T. ) ;
#80 = CARTESIAN_POINT ( 'NONE',  ( -1.815331160274325000, 0.8222671980093240200, 0.0000000000000000000 ) ) ;
#81 = ORIENTED_EDGE ( 'NONE', *, *, #307, .T. ) ;
#82 = ORIENTED_EDGE ( 'NONE', *, *, #179, .T. ) ;
#83 = DIRECTION ( 'NONE',  ( -1.224646799147353200E-016, 0.0000000000000000000, -1.000000000000000000 ) ) ;
#84 =( NAMED_UNIT ( * ) SI_UNIT ( $, .STERADIAN. ) SOLID_ANGLE_UNIT ( ) );
#85 = ORIENTED_EDGE ( 'NONE', *, *, #232, .T. ) ;
#86 = ORIENTED_EDGE ( 'NONE', *, *, #93, .T. ) ;
#87 = EDGE_LOOP ( 'NONE', ( #107, #85, #57, #31, #58 ) ) ;
#88 = FACE_OUTER_BOUND ( 'NONE', #176, .T. ) ;
#89 = FACE_OUTER_BOUND ( 'NONE', #67, .T. ) ;
#90 = CIRCLE ( 'NONE', #240, 2.414999999999999600 ) ;
#91 = ADVANCED_FACE ( 'NONE', ( #299 ), #226, .T. ) ;
#92 = ADVANCED_FACE ( 'NONE', ( #305 ), #247, .T. ) ;
#93 = EDGE_CURVE ( 'NONE', #200, #213, #296, .T. ) ;
#94 = FILL_AREA_STYLE ('',( #203 ) ) ;
#95 = CARTESIAN_POINT ( 'NONE',  ( 0.0000000000000000000, 3.707168881056380500, -1.658947368421053600 ) ) ;
#96 = EDGE_LOOP ( 'NONE', ( #288, #197, #154, #115 ) ) ;
#97 = CARTESIAN_POINT ( 'NONE',  ( -1.478761009970428900E-016, 4.336808689942017700E-016, 0.0000000000000000000 ) ) ;
#98 = CARTESIAN_POINT ( 'NONE',  ( 0.0000000000000000000, 18.19999999999999900, 0.0000000000000000000 ) ) ;
#99 = DIRECTION ( 'NONE',  ( 0.0000000000000000000, 0.0000000000000000000, -1.000000000000000000 ) ) ;
#100 = ORIENTED_EDGE ( 'NONE', *, *, #256, .T. ) ;
#101 = CARTESIAN_POINT ( 'NONE',  ( 0.0000000000000000000, 0.0000000000000000000, -2.524999999999999900 ) ) ;
#102 = CARTESIAN_POINT ( 'NONE',  ( 0.0000000000000000000, 2.807168881056380200, -1.658947368421053600 ) ) ;
#103 =( GEOMETRIC_REPRESENTATION_CONTEXT ( 3 ) GLOBAL_UNCERTAINTY_ASSIGNED_CONTEXT ( ( #281 ) ) GLOBAL_UNIT_ASSIGNED_CONTEXT ( ( #131, #339, #230 ) ) REPRESENTATION_CONTEXT ( 'NONE', 'WORKASPACE' ) );
#104 = CARTESIAN_POINT ( 'NONE',  ( 2.031624584690768300E-016, 2.807168881056380200, 1.658947368421053600 ) ) ;
#105 = CIRCLE ( 'NONE', #271, 2.414999999999999600 ) ;
#106 = CARTESIAN_POINT ( 'NONE',  ( 0.0000000000000000000, 16.95053990610329100, -4.924999999999999800 ) ) ;
#107 = ORIENTED_EDGE ( 'NONE', *, *, #263, .F. ) ;
#108 = ORIENTED_EDGE ( 'NONE', *, *, #242, .F. ) ;
#109 = ORIENTED_EDGE ( 'NONE', *, *, #114, .F. ) ;
#110 = CARTESIAN_POINT ( 'NONE',  ( 6.031385485800714100E-016, 16.95053990610329100, 4.924999999999999800 ) ) ;
#111 = FACE_OUTER_BOUND ( 'NONE', #87, .T. ) ;
#112 = DIRECTION ( 'NONE',  ( 0.0000000000000000000, 0.0000000000000000000, 1.000000000000000000 ) ) ;
#113 = CARTESIAN_POINT ( 'NONE',  ( 0.0000000000000000000, 0.8222671980093240200, 0.0000000000000000000 ) ) ;
#114 = EDGE_CURVE ( 'NONE', #220, #29, #254, .T. ) ;
#115 = ORIENTED_EDGE ( 'NONE', *, *, #317, .T. ) ;
#116 = VERTEX_POINT ( 'NONE', #77 ) ;
#117 = ADVANCED_FACE ( 'NONE', ( #325 ), #241, .T. ) ;
#118 = ADVANCED_FACE ( 'NONE', ( #266 ), #239, .T. ) ;
#119 = ADVANCED_FACE ( 'NONE', ( #272, #130 ), #206, .T. ) ;
#120 = EDGE_CURVE ( 'NONE', #116, #143, #334, .T. ) ;
#121 = AXIS2_PLACEMENT_3D ( 'NONE', #156, #316, #215 ) ;
#122 = ADVANCED_FACE ( 'NONE', ( #231 ), #372, .T. ) ;
#123 = MECHANICAL_DESIGN_GEOMETRIC_PRESENTATION_REPRESENTATION (  '', ( #60 ), #366 ) ;
#124 = CARTESIAN_POINT ( 'NONE',  ( 0.0000000000000000000, 16.95053990610329100, 0.0000000000000000000 ) ) ;
#125 = AXIS2_PLACEMENT_3D ( 'NONE', #140, #37, #136 ) ;
#126 = FILL_AREA_STYLE_COLOUR ( '', #351 ) ;
#127 = CARTESIAN_POINT ( 'NONE',  ( 2.524999999999999900, 18.19999999999999900, 0.0000000000000000000 ) ) ;
#128 = DIRECTION ( 'NONE',  ( -1.224646799147353200E-016, 0.0000000000000000000, -1.000000000000000000 ) ) ;
#129 = DIRECTION ( 'NONE',  ( 0.0000000000000000000, 0.0000000000000000000, -1.000000000000000000 ) ) ;
#130 = FACE_BOUND ( 'NONE', #18, .T. ) ;
#131 =( LENGTH_UNIT ( ) NAMED_UNIT ( * ) SI_UNIT ( .MILLI., .METRE. ) );
#132 = DIRECTION ( 'NONE',  ( -0.0000000000000000000, -1.000000000000000000, -0.0000000000000000000 ) ) ;
#133 = CLOSED_SHELL ( 'NONE', ( #92, #91, #161, #163, #118, #195, #367, #117, #122, #119, #298, #165 ) ) ;
#134 = DIRECTION ( 'NONE',  ( 0.0000000000000000000, 0.0000000000000000000, 1.000000000000000000 ) ) ;
#135 = ORIENTED_EDGE ( 'NONE', *, *, #202, .T. ) ;
#136 = DIRECTION ( 'NONE',  ( 0.0000000000000000000, 0.0000000000000000000, -1.000000000000000000 ) ) ;
#137 = AXIS2_PLACEMENT_3D ( 'NONE', #368, #223, #356 ) ;
#138 = DIRECTION ( 'NONE',  ( 0.0000000000000000000, 0.0000000000000000000, -1.000000000000000000 ) ) ;
#139 = ORIENTED_EDGE ( 'NONE', *, *, #79, .T. ) ;
#140 = CARTESIAN_POINT ( 'NONE',  ( 0.0000000000000000000, 2.807168881056380200, 0.0000000000000000000 ) ) ;
#141 = LINE ( 'NONE', #150, #349 ) ;
#142 = DIRECTION ( 'NONE',  ( 0.0000000000000000000, 0.0000000000000000000, -1.000000000000000000 ) ) ;
#143 = VERTEX_POINT ( 'NONE', #46 ) ;
#144 = DIRECTION ( 'NONE',  ( -1.224646799147353200E-016, 0.0000000000000000000, -1.000000000000000000 ) ) ;
#145 = ORIENTED_EDGE ( 'NONE', *, *, #120, .F. ) ;
#146 = ORIENTED_EDGE ( 'NONE', *, *, #327, .T. ) ;
#147 = EDGE_CURVE ( 'NONE', #168, #352, #244, .T. ) ;
#148 = ORIENTED_EDGE ( 'NONE', *, *, #342, .F. ) ;
#149 = CARTESIAN_POINT ( 'NONE',  ( 0.0000000000000000000, 0.8222671980093240200, 0.0000000000000000000 ) ) ;
#150 = CARTESIAN_POINT ( 'NONE',  ( 3.092233167847066500E-016, 0.0000000000000000000, 2.524999999999999900 ) ) ;
#151 = PRODUCT_DEFINITION ( 'UNKNOWN', '', #63, #186 ) ;
#152 = EDGE_LOOP ( 'NONE', ( #155, #357, #109, #42 ) ) ;
#153 = SURFACE_STYLE_USAGE ( .BOTH. , #69 ) ;
#154 = ORIENTED_EDGE ( 'NONE', *, *, #371, .T. ) ;
#155 = ORIENTED_EDGE ( 'NONE', *, *, #9, .T. ) ;
#156 = CARTESIAN_POINT ( 'NONE',  ( 0.0000000000000000000, 2.807168881056380200, 0.0000000000000000000 ) ) ;
#157 = CARTESIAN_POINT ( 'NONE',  ( 0.0000000000000000000, 2.415000000000000000, 0.0000000000000000000 ) ) ;
#158 = DIRECTION ( 'NONE',  ( -0.0000000000000000000, -1.000000000000000000, -0.0000000000000000000 ) ) ;
#159 = VERTEX_POINT ( 'NONE', #80 ) ;
#160 = EDGE_CURVE ( 'NONE', #49, #190, #364, .T. ) ;
#161 = ADVANCED_FACE ( 'NONE', ( #284 ), #236, .T. ) ;
#162 = ORIENTED_EDGE ( 'NONE', *, *, #114, .T. ) ;
#163 = ADVANCED_FACE ( 'NONE', ( #248 ), #66, .T. ) ;
#164 =( GEOMETRIC_REPRESENTATION_CONTEXT ( 3 ) GLOBAL_UNCERTAINTY_ASSIGNED_CONTEXT ( ( #237 ) ) GLOBAL_UNIT_ASSIGNED_CONTEXT ( ( #74, #260, #337 ) ) REPRESENTATION_CONTEXT ( 'NONE', 'WORKASPACE' ) );
#165 = ADVANCED_FACE ( 'NONE', ( #88 ), #32, .T. ) ;
#166 = ORIENTED_EDGE ( 'NONE', *, *, #317, .F. ) ;
#167 = ORIENTED_EDGE ( 'NONE', *, *, #273, .T. ) ;
#168 = VERTEX_POINT ( 'NONE', #1 ) ;
#169 = EDGE_LOOP ( 'NONE', ( #81, #185, #82, #166 ) ) ;
#170 = EDGE_CURVE ( 'NONE', #116, #29, #21, .T. ) ;
#171 = DIRECTION ( 'NONE',  ( -0.0000000000000000000, -1.000000000000000000, -0.0000000000000000000 ) ) ;
#172 = ORIENTED_EDGE ( 'NONE', *, *, #9, .F. ) ;
#173 = AXIS2_PLACEMENT_3D ( 'NONE', #262, #14, #214 ) ;
#174 = CARTESIAN_POINT ( 'NONE',  ( 3.315003846694297000E-016, 0.8222671980093240200, 1.815331160274324700 ) ) ;
#175 = CARTESIAN_POINT ( 'NONE',  ( 0.0000000000000000000, 2.415000000000000000, 0.0000000000000000000 ) ) ;
#176 = EDGE_LOOP ( 'NONE', ( #172, #145 ) ) ;
#177 = ORIENTED_EDGE ( 'NONE', *, *, #273, .F. ) ;
#178 = DIRECTION ( 'NONE',  ( -0.0000000000000000000, -1.000000000000000000, -0.0000000000000000000 ) ) ;
#179 = EDGE_CURVE ( 'NONE', #168, #4, #105, .T. ) ;
#180 = CARTESIAN_POINT ( 'NONE',  ( 0.0000000000000000000, 0.0000000000000000000, 0.0000000000000000000 ) ) ;
#181 = CARTESIAN_POINT ( 'NONE',  ( 9.876776435123404100E-016, 18.19999999999999900, 8.064999999999999500 ) ) ;
#182 = DIRECTION ( 'NONE',  ( 1.000000000000000000, 0.0000000000000000000, -1.224646799147353200E-016 ) ) ;
#183 = SPHERICAL_SURFACE ( 'NONE', #328, 2.414999999999999600 ) ;
#184 = ORIENTED_EDGE ( 'NONE', *, *, #120, .T. ) ;
#185 = ORIENTED_EDGE ( 'NONE', *, *, #342, .T. ) ;
#186 = PRODUCT_DEFINITION_CONTEXT ( 'detailed design', #41, 'design' ) ;
#187 = CIRCLE ( 'NONE', #261, 1.815331160274324700 ) ;
#188 = DIRECTION ( 'NONE',  ( -0.0000000000000000000, -1.000000000000000000, -0.0000000000000000000 ) ) ;
#189 = MECHANICAL_DESIGN_GEOMETRIC_PRESENTATION_REPRESENTATION (  '', ( #208 ), #164 ) ;
#190 = VERTEX_POINT ( 'NONE', #2 ) ;
#191 = DIRECTION ( 'NONE',  ( -1.000000000000000000, 0.0000000000000000000, 0.0000000000000000000 ) ) ;
#192 = PRESENTATION_STYLE_ASSIGNMENT (( #153 ) ) ;
#193 = AXIS2_PLACEMENT_3D ( 'NONE', #358, #178, #72 ) ;
#194 = ORIENTED_EDGE ( 'NONE', *, *, #79, .F. ) ;
#195 = ADVANCED_FACE ( 'NONE', ( #279 ), #183, .T. ) ;
#196 = VECTOR ( 'NONE', #7, 1000.000000000000000 ) ;
#197 = ORIENTED_EDGE ( 'NONE', *, *, #147, .T. ) ;
#198 = ORIENTED_EDGE ( 'NONE', *, *, #93, .F. ) ;
#199 = ORIENTED_EDGE ( 'NONE', *, *, #211, .F. ) ;
#200 = VERTEX_POINT ( 'NONE', #306 ) ;
#201 = PRESENTATION_LAYER_ASSIGNMENT (  '', '', ( #208 ) ) ;
#202 = EDGE_CURVE ( 'NONE', #49, #257, #329, .T. ) ;
#203 = FILL_AREA_STYLE_COLOUR ( '', #10 ) ;
#204 = SURFACE_STYLE_FILL_AREA ( #359 ) ;
#205 = CARTESIAN_POINT ( 'NONE',  ( 0.0000000000000000000, 3.257168881056379000, 0.0000000000000000000 ) ) ;
#206 = PLANE ( 'NONE',  #245 ) ;
#207 = CARTESIAN_POINT ( 'NONE',  ( 0.0000000000000000000, 3.707168881056380500, 0.0000000000000000000 ) ) ;
#208 = STYLED_ITEM ( 'NONE', ( #192 ), #355 ) ;
#209 = DIRECTION ( 'NONE',  ( 1.000000000000000000, 0.0000000000000000000, -1.224646799147353200E-016 ) ) ;
#210 = DIRECTION ( 'NONE',  ( 0.0000000000000000000, 0.0000000000000000000, 1.000000000000000000 ) ) ;
#211 = EDGE_CURVE ( 'NONE', #213, #200, #53, .T. ) ;
#212 = PRODUCT_CONTEXT ( 'NONE', #268, 'mechanical' ) ;
#213 = VERTEX_POINT ( 'NONE', #347 ) ;
#214 = DIRECTION ( 'NONE',  ( 0.0000000000000000000, 0.0000000000000000000, -1.000000000000000000 ) ) ;
#215 = DIRECTION ( 'NONE',  ( 0.0000000000000000000, 0.0000000000000000000, -1.000000000000000000 ) ) ;
#216 = DIRECTION ( 'NONE',  ( -0.0000000000000000000, -1.000000000000000000, -0.0000000000000000000 ) ) ;
#217 = AXIS2_PLACEMENT_3D ( 'NONE', #106, #34, #112 ) ;
#218 = PRODUCT ( '01641-00621MAXG_12_70mm', '01641-00621MAXG_12_70mm', '', ( #212 ) ) ;
#219 = SURFACE_STYLE_FILL_AREA ( #94 ) ;
#220 = VERTEX_POINT ( 'NONE', #23 ) ;
#221 = AXIS2_PLACEMENT_3D ( 'NONE', #149, #44, #344 ) ;
#222 = AXIS2_PLACEMENT_3D ( 'NONE', #227, #341, #3 ) ;
#223 = DIRECTION ( 'NONE',  ( -0.0000000000000000000, -1.000000000000000000, -0.0000000000000000000 ) ) ;
#224 = CARTESIAN_POINT ( 'NONE',  ( 2.031624584690768300E-016, 3.707168881056380500, 1.658947368421053600 ) ) ;
#225 = CARTESIAN_POINT ( 'NONE',  ( 0.0000000000000000000, 3.257168881056379000, -3.598480967438468300 ) ) ;
#226 = CYLINDRICAL_SURFACE ( 'NONE', #269, 2.524999999999999900 ) ;
#227 = CARTESIAN_POINT ( 'NONE',  ( 0.0000000000000000000, 18.19999999999999900, 0.0000000000000000000 ) ) ;
#228 = APPLICATION_PROTOCOL_DEFINITION ( 'draft international standard', 'automotive_design', 1998, #268 ) ;
#229 = DIRECTION ( 'NONE',  ( 0.0000000000000000000, -0.0000000000000000000, 1.000000000000000000 ) ) ;
#230 =( NAMED_UNIT ( * ) SI_UNIT ( $, .STERADIAN. ) SOLID_ANGLE_UNIT ( ) );
#231 = FACE_OUTER_BOUND ( 'NONE', #370, .T. ) ;
#232 = EDGE_CURVE ( 'NONE', #257, #49, #19, .T. ) ;
#233 = AXIS2_PLACEMENT_3D ( 'NONE', #304, #360, #255 ) ;
#234 = AXIS2_PLACEMENT_3D ( 'NONE', #11, #280, #282 ) ;
#235 = AXIS2_PLACEMENT_3D ( 'NONE', #180, #134, #277 ) ;
#236 = TOROIDAL_SURFACE ( 'NONE', #16, 1.658947368421053600, 1.991052631578946300 ) ;
#237 = UNCERTAINTY_MEASURE_WITH_UNIT (LENGTH_MEASURE( 1.000000000000000100E-005 ), #74, 'distance_accuracy_value', 'NONE');
#238 = DIRECTION ( 'NONE',  ( 0.0000000000000000000, 0.0000000000000000000, -1.000000000000000000 ) ) ;
#239 = SPHERICAL_SURFACE ( 'NONE', #270, 2.414999999999999600 ) ;
#240 = AXIS2_PLACEMENT_3D ( 'NONE', #68, #258, #315 ) ;
#241 = TOROIDAL_SURFACE ( 'NONE', #233, 1.658947368421053600, 1.991052631578946300 ) ;
#242 = EDGE_CURVE ( 'NONE', #59, #39, #6, .T. ) ;
#243 = EDGE_CURVE ( 'NONE', #213, #59, #141, .T. ) ;
#244 = CIRCLE ( 'NONE', #333, 1.815331160274324700 ) ;
#245 = AXIS2_PLACEMENT_3D ( 'NONE', #127, #36, #129 ) ;
#246 = UNCERTAINTY_MEASURE_WITH_UNIT (LENGTH_MEASURE( 1.000000000000000100E-005 ), #321, 'distance_accuracy_value', 'NONE');
#247 = TOROIDAL_SURFACE ( 'NONE', #335, 4.924999999999999800, 3.379460093896711600 ) ;
#248 = FACE_OUTER_BOUND ( 'NONE', #318, .T. ) ;
#249 = PRODUCT_DEFINITION_SHAPE ( 'NONE', 'NONE',  #151 ) ;
#250 = AXIS2_PLACEMENT_3D ( 'NONE', #95, #26, #210 ) ;
#251 = SHAPE_DEFINITION_REPRESENTATION ( #249, #56 ) ;
#252 = AXIS2_PLACEMENT_3D ( 'NONE', #322, #158, #138 ) ;
#253 = DIRECTION ( 'NONE',  ( -1.000000000000000000, 0.0000000000000000000, 0.0000000000000000000 ) ) ;
#254 = CIRCLE ( 'NONE', #222, 8.064999999999999500 ) ;
#255 = DIRECTION ( 'NONE',  ( 0.0000000000000000000, 0.0000000000000000000, -1.000000000000000000 ) ) ;
#256 = EDGE_CURVE ( 'NONE', #59, #257, #312, .T. ) ;
#257 = VERTEX_POINT ( 'NONE', #326 ) ;
#258 = DIRECTION ( 'NONE',  ( -0.0000000000000000000, 0.0000000000000000000, 1.000000000000000000 ) ) ;
#259 = DIRECTION ( 'NONE',  ( 0.0000000000000000000, 0.0000000000000000000, -1.000000000000000000 ) ) ;
#260 =( NAMED_UNIT ( * ) PLANE_ANGLE_UNIT ( ) SI_UNIT ( $, .RADIAN. ) );
#261 = AXIS2_PLACEMENT_3D ( 'NONE', #47, #188, #35 ) ;
#262 = CARTESIAN_POINT ( 'NONE',  ( 0.0000000000000000000, 20.33000000000000200, 0.0000000000000000000 ) ) ;
#263 = EDGE_CURVE ( 'NONE', #257, #352, #71, .T. ) ;
#264 = DIRECTION ( 'NONE',  ( -1.000000000000000000, 0.0000000000000000000, 1.224646799147353200E-016 ) ) ;
#265 = DIRECTION ( 'NONE',  ( -0.0000000000000000000, -1.000000000000000000, -0.0000000000000000000 ) ) ;
#266 = FACE_OUTER_BOUND ( 'NONE', #169, .T. ) ;
#267 = CIRCLE ( 'NONE', #234, 2.524999999999999900 ) ;
#268 = APPLICATION_CONTEXT ( 'automotive_design' ) ;
#269 = AXIS2_PLACEMENT_3D ( 'NONE', #33, #24, #353 ) ;
#270 = AXIS2_PLACEMENT_3D ( 'NONE', #175, #336, #313 ) ;
#271 = AXIS2_PLACEMENT_3D ( 'NONE', #8, #83, #264 ) ;
#272 = FACE_OUTER_BOUND ( 'NONE', #76, .T. ) ;
#273 = EDGE_CURVE ( 'NONE', #29, #220, #300, .T. ) ;
#274 = ORIENTED_EDGE ( 'NONE', *, *, #243, .F. ) ;
#275 = AXIS2_PLACEMENT_3D ( 'NONE', #65, #132, #346 ) ;
#276 = DIRECTION ( 'NONE',  ( 0.0000000000000000000, 1.000000000000000000, 0.0000000000000000000 ) ) ;
#277 = DIRECTION ( 'NONE',  ( 1.000000000000000000, 0.0000000000000000000, 0.0000000000000000000 ) ) ;
#278 = CARTESIAN_POINT ( 'NONE',  ( 0.0000000000000000000, 5.500000000000000000, 0.0000000000000000000 ) ) ;
#279 = FACE_OUTER_BOUND ( 'NONE', #96, .T. ) ;
#280 = DIRECTION ( 'NONE',  ( -0.0000000000000000000, -1.000000000000000000, -0.0000000000000000000 ) ) ;
#281 = UNCERTAINTY_MEASURE_WITH_UNIT (LENGTH_MEASURE( 1.000000000000000100E-005 ), #131, 'distance_accuracy_value', 'NONE');
#282 = DIRECTION ( 'NONE',  ( 0.0000000000000000000, 0.0000000000000000000, -1.000000000000000000 ) ) ;
#283 = DIRECTION ( 'NONE',  ( 0.0000000000000000000, 0.0000000000000000000, -1.000000000000000000 ) ) ;
#284 = FACE_OUTER_BOUND ( 'NONE', #64, .T. ) ;
#285 = AXIS2_PLACEMENT_3D ( 'NONE', #30, #171, #259 ) ;
#286 = TOROIDAL_SURFACE ( 'NONE', #252, 4.924999999999999800, 3.379460093896711600 ) ;
#287 = ORIENTED_EDGE ( 'NONE', *, *, #232, .F. ) ;
#288 = ORIENTED_EDGE ( 'NONE', *, *, #179, .F. ) ;
#289 = AXIS2_PLACEMENT_3D ( 'NONE', #104, #311, #128 ) ;
#290 = SURFACE_STYLE_USAGE ( .BOTH. , #303 ) ;
#291 = DIRECTION ( 'NONE',  ( -0.0000000000000000000, -1.000000000000000000, -0.0000000000000000000 ) ) ;
#292 = ORIENTED_EDGE ( 'NONE', *, *, #211, .T. ) ;
#293 = DIRECTION ( 'NONE',  ( 0.0000000000000000000, 0.0000000000000000000, -1.000000000000000000 ) ) ;
#294 = DIRECTION ( 'NONE',  ( 0.0000000000000000000, 0.0000000000000000000, -1.000000000000000000 ) ) ;
#295 = AXIS2_PLACEMENT_3D ( 'NONE', #224, #209, #144 ) ;
#296 = CIRCLE ( 'NONE', #193, 2.524999999999999900 ) ;
#297 = ORIENTED_EDGE ( 'NONE', *, *, #327, .F. ) ;
#298 = ADVANCED_FACE ( 'NONE', ( #89 ), #286, .T. ) ;
#299 = FACE_OUTER_BOUND ( 'NONE', #73, .T. ) ;
#300 = CIRCLE ( 'NONE', #275, 8.064999999999999500 ) ;
#301 = PRESENTATION_STYLE_ASSIGNMENT (( #290 ) ) ;
#302 = AXIS2_PLACEMENT_3D ( 'NONE', #28, #276, #229 ) ;
#303 = SURFACE_SIDE_STYLE ('',( #219 ) ) ;
#304 = CARTESIAN_POINT ( 'NONE',  ( 0.0000000000000000000, 3.707168881056380500, 0.0000000000000000000 ) ) ;
#305 = FACE_OUTER_BOUND ( 'NONE', #152, .T. ) ;
#306 = CARTESIAN_POINT ( 'NONE',  ( 0.0000000000000000000, 18.19999999999999900, -2.524999999999999900 ) ) ;
#307 = EDGE_CURVE ( 'NONE', #159, #190, #187, .T. ) ;
#308 = CARTESIAN_POINT ( 'NONE',  ( 0.0000000000000000000, 5.500000000000000000, -2.524999999999999900 ) ) ;
#309 = CARTESIAN_POINT ( 'NONE',  ( 3.749550683206629800E-016, 5.500000000000000000, 2.524999999999999900 ) ) ;
#310 =( NAMED_UNIT ( * ) PLANE_ANGLE_UNIT ( ) SI_UNIT ( $, .RADIAN. ) );
#311 = DIRECTION ( 'NONE',  ( 1.000000000000000000, 0.0000000000000000000, -1.224646799147353200E-016 ) ) ;
#312 = CIRCLE ( 'NONE', #295, 1.991052631578946300 ) ;
#313 = DIRECTION ( 'NONE',  ( -1.000000000000000000, 0.0000000000000000000, 0.0000000000000000000 ) ) ;
#314 = AXIS2_PLACEMENT_3D ( 'NONE', #278, #324, #238 ) ;
#315 = DIRECTION ( 'NONE',  ( 1.000000000000000000, 0.0000000000000000000, 0.0000000000000000000 ) ) ;
#316 = DIRECTION ( 'NONE',  ( -0.0000000000000000000, -1.000000000000000000, -0.0000000000000000000 ) ) ;
#317 = EDGE_CURVE ( 'NONE', #159, #4, #90, .T. ) ;
#318 = EDGE_LOOP ( 'NONE', ( #135, #51, #27, #148, #62 ) ) ;
#319 = APPLICATION_PROTOCOL_DEFINITION ( 'draft international standard', 'automotive_design', 1998, #41 ) ;
#320 = LINE ( 'NONE', #101, #196 ) ;
#321 =( LENGTH_UNIT ( ) NAMED_UNIT ( * ) SI_UNIT ( .MILLI., .METRE. ) );
#322 = CARTESIAN_POINT ( 'NONE',  ( 0.0000000000000000000, 16.95053990610329100, 0.0000000000000000000 ) ) ;
#323 = DIRECTION ( 'NONE',  ( 0.0000000000000000000, 0.0000000000000000000, -1.000000000000000000 ) ) ;
#324 = DIRECTION ( 'NONE',  ( -0.0000000000000000000, -1.000000000000000000, -0.0000000000000000000 ) ) ;
#325 = FACE_OUTER_BOUND ( 'NONE', #78, .T. ) ;
#326 = CARTESIAN_POINT ( 'NONE',  ( 4.406868198566191100E-016, 3.257168881056379000, 3.598480967438468300 ) ) ;
#327 = EDGE_CURVE ( 'NONE', #39, #59, #267, .T. ) ;
#328 = AXIS2_PLACEMENT_3D ( 'NONE', #157, #25, #191 ) ;
#329 = CIRCLE ( 'NONE', #348, 3.598480967438468300 ) ;
#330 = CIRCLE ( 'NONE', #250, 1.991052631578946300 ) ;
#331 = CIRCLE ( 'NONE', #137, 1.815331160274324700 ) ;
#332 = AXIS2_PLACEMENT_3D ( 'NONE', #205, #338, #293 ) ;
#333 = AXIS2_PLACEMENT_3D ( 'NONE', #113, #345, #294 ) ;
#334 = CIRCLE ( 'NONE', #173, 4.924999999999999800 ) ;
#335 = AXIS2_PLACEMENT_3D ( 'NONE', #124, #22, #142 ) ;
#336 = DIRECTION ( 'NONE',  ( -0.0000000000000000000, -0.0000000000000000000, -1.000000000000000000 ) ) ;
#337 =( NAMED_UNIT ( * ) SI_UNIT ( $, .STERADIAN. ) SOLID_ANGLE_UNIT ( ) );
#338 = DIRECTION ( 'NONE',  ( -0.0000000000000000000, -1.000000000000000000, -0.0000000000000000000 ) ) ;
#339 =( NAMED_UNIT ( * ) PLANE_ANGLE_UNIT ( ) SI_UNIT ( $, .RADIAN. ) );
#340 = DIRECTION ( 'NONE',  ( 0.0000000000000000000, 0.0000000000000000000, -1.000000000000000000 ) ) ;
#341 = DIRECTION ( 'NONE',  ( -0.0000000000000000000, -1.000000000000000000, -0.0000000000000000000 ) ) ;
#342 = EDGE_CURVE ( 'NONE', #190, #168, #13, .T. ) ;
#343 = AXIS2_PLACEMENT_3D ( 'NONE', #98, #216, #340 ) ;
#344 = DIRECTION ( 'NONE',  ( 0.0000000000000000000, 0.0000000000000000000, -1.000000000000000000 ) ) ;
#345 = DIRECTION ( 'NONE',  ( -0.0000000000000000000, -1.000000000000000000, -0.0000000000000000000 ) ) ;
#346 = DIRECTION ( 'NONE',  ( 0.0000000000000000000, 0.0000000000000000000, -1.000000000000000000 ) ) ;
#347 = CARTESIAN_POINT ( 'NONE',  ( 3.092233167847066500E-016, 18.19999999999999900, 2.524999999999999900 ) ) ;
#348 = AXIS2_PLACEMENT_3D ( 'NONE', #70, #265, #283 ) ;
#349 = VECTOR ( 'NONE', #291, 1000.000000000000000 ) ;
#350 = EDGE_CURVE ( 'NONE', #143, #220, #20, .T. ) ;
#351 = COLOUR_RGB ( '',0.7921568627450980000, 0.8196078431372548800, 0.9333333333333333500 ) ;
#352 = VERTEX_POINT ( 'NONE', #174 ) ;
#353 = DIRECTION ( 'NONE',  ( 0.0000000000000000000, 0.0000000000000000000, -1.000000000000000000 ) ) ;
#354 = AXIS2_PLACEMENT_3D ( 'NONE', #110, #182, #363 ) ;
#355 = MANIFOLD_SOLID_BREP ( 'Revolve1', #133 ) ;
#356 = DIRECTION ( 'NONE',  ( 0.0000000000000000000, 0.0000000000000000000, -1.000000000000000000 ) ) ;
#357 = ORIENTED_EDGE ( 'NONE', *, *, #170, .T. ) ;
#358 = CARTESIAN_POINT ( 'NONE',  ( 0.0000000000000000000, 18.19999999999999900, 0.0000000000000000000 ) ) ;
#359 = FILL_AREA_STYLE ('',( #126 ) ) ;
#360 = DIRECTION ( 'NONE',  ( -0.0000000000000000000, -1.000000000000000000, -0.0000000000000000000 ) ) ;
#361 = AXIS2_PLACEMENT_3D ( 'NONE', #102, #253, #5 ) ;
#362 = CIRCLE ( 'NONE', #285, 4.924999999999999800 ) ;
#363 = DIRECTION ( 'NONE',  ( -1.224646799147353000E-016, 0.0000000000000000000, -1.000000000000000000 ) ) ;
#364 = CIRCLE ( 'NONE', #361, 1.991052631578945400 ) ;
#365 = AXIS2_PLACEMENT_3D ( 'NONE', #12, #369, #99 ) ;
#366 =( GEOMETRIC_REPRESENTATION_CONTEXT ( 3 ) GLOBAL_UNCERTAINTY_ASSIGNED_CONTEXT ( ( #246 ) ) GLOBAL_UNIT_ASSIGNED_CONTEXT ( ( #321, #310, #84 ) ) REPRESENTATION_CONTEXT ( 'NONE', 'WORKASPACE' ) );
#367 = ADVANCED_FACE ( 'NONE', ( #111 ), #38, .T. ) ;
#368 = CARTESIAN_POINT ( 'NONE',  ( 0.0000000000000000000, 0.8222671980093240200, 0.0000000000000000000 ) ) ;
#369 = DIRECTION ( 'NONE',  ( -0.0000000000000000000, -1.000000000000000000, -0.0000000000000000000 ) ) ;
#370 = EDGE_LOOP ( 'NONE', ( #274, #292, #52, #108 ) ) ;
#371 = EDGE_CURVE ( 'NONE', #352, #159, #331, .T. ) ;
#372 = CYLINDRICAL_SURFACE ( 'NONE', #365, 2.524999999999999900 ) ;
ENDSEC;
END-ISO-10303-21;
