ISO-10303-21;
HEADER;
FILE_DESCRIPTION (( 'STEP AP214' ),
    '1' );
FILE_NAME ('01641-00621.STEP',
    '2016-04-05T09:59:08',
    ( '' ),
    ( '' ),
    'SwSTEP 2.0',
    'SolidWorks 2015',
    '' );
FILE_SCHEMA (( 'AUTOMOTIVE_DESIGN' ));
ENDSEC;

DATA;
#1 = EDGE_CURVE ( 'NONE', #114, #149, #392, .T. ) ;
#2 = ORIENTED_EDGE ( 'NONE', *, *, #321, .F. ) ;
#3 = PRODUCT_RELATED_PRODUCT_CATEGORY ( 'part', '', ( #271 ) ) ;
#4 = ADVANCED_FACE ( 'NONE', ( #25 ), #150, .T. ) ;
#5 = ORIENTED_EDGE ( 'NONE', *, *, #1, .T. ) ;
#6 = EDGE_CURVE ( 'NONE', #328, #216, #144, .T. ) ;
#7 = ORIENTED_EDGE ( 'NONE', *, *, #312, .T. ) ;
#8 = PRODUCT_DEFINITION_FORMATION_WITH_SPECIFIED_SOURCE ( 'ANY', '', #271, .NOT_KNOWN. ) ;
#9 = DIRECTION ( 'NONE',  ( 0.0000000000000000000, 0.0000000000000000000, -1.000000000000000000 ) ) ;
#10 = ADVANCED_FACE ( 'NONE', ( #342 ), #240, .T. ) ;
#11 = ADVANCED_FACE ( 'NONE', ( #217 ), #199, .T. ) ;
#12 = PRODUCT_DEFINITION ( 'UNKNOWN', '', #8, #175 ) ;
#13 = AXIS2_PLACEMENT_3D ( 'NONE', #382, #125, #124 ) ;
#14 = DIRECTION ( 'NONE',  ( -0.0000000000000000000, -1.000000000000000000, -0.0000000000000000000 ) ) ;
#15 = DIRECTION ( 'NONE',  ( -0.0000000000000000000, -0.0000000000000000000, -1.000000000000000000 ) ) ;
#16 = CARTESIAN_POINT ( 'NONE',  ( 2.957522019940858200E-016, 0.0000000000000000000, 2.415000000000000000 ) ) ;
#17 =( GEOMETRIC_REPRESENTATION_CONTEXT ( 3 ) GLOBAL_UNCERTAINTY_ASSIGNED_CONTEXT ( ( #110 ) ) GLOBAL_UNIT_ASSIGNED_CONTEXT ( ( #139, #138, #136 ) ) REPRESENTATION_CONTEXT ( 'NONE', 'WORKASPACE' ) );
#18 = ADVANCED_FACE ( 'NONE', ( #94 ), #121, .T. ) ;
#19 = PRODUCT_DEFINITION_SHAPE ( 'NONE', 'NONE',  #12 ) ;
#20 = MECHANICAL_DESIGN_GEOMETRIC_PRESENTATION_REPRESENTATION (  '', ( #29 ), #17 ) ;
#21 = CARTESIAN_POINT ( 'NONE',  ( 0.0000000000000000000, 22.32999999999999800, -5.707183213224569200 ) ) ;
#22 = DIRECTION ( 'NONE',  ( -0.0000000000000000000, -1.000000000000000000, -0.0000000000000000000 ) ) ;
#23 = CARTESIAN_POINT ( 'NONE',  ( 0.0000000000000000000, 2.415000000000000000, 0.0000000000000000000 ) ) ;
#24 = CARTESIAN_POINT ( 'NONE',  ( 0.0000000000000000000, 2.415000000000000000, 0.0000000000000000000 ) ) ;
#25 = FACE_OUTER_BOUND ( 'NONE', #388, .T. ) ;
#26 = DIRECTION ( 'NONE',  ( 0.0000000000000000000, -1.000000000000000000, -0.0000000000000000000 ) ) ;
#27 = PRESENTATION_LAYER_ASSIGNMENT (  '', '', ( #29 ) ) ;
#28 = CARTESIAN_POINT ( 'NONE',  ( 0.0000000000000000000, 50.53000000000000100, -0.8499999999999999800 ) ) ;
#29 = STYLED_ITEM ( 'NONE', ( #204 ), #158 ) ;
#30 = EDGE_CURVE ( 'NONE', #243, #114, #235, .T. ) ;
#31 = CARTESIAN_POINT ( 'NONE',  ( 2.415000000000000000, 20.19999999999999900, 0.0000000000000000000 ) ) ;
#32 = CARTESIAN_POINT ( 'NONE',  ( 0.0000000000000000000, 20.19999999999999900, 0.0000000000000000000 ) ) ;
#33 =( GEOMETRIC_REPRESENTATION_CONTEXT ( 3 ) GLOBAL_UNCERTAINTY_ASSIGNED_CONTEXT ( ( #249 ) ) GLOBAL_UNIT_ASSIGNED_CONTEXT ( ( #173, #172, #171 ) ) REPRESENTATION_CONTEXT ( 'NONE', 'WORKASPACE' ) );
#34 = CARTESIAN_POINT ( 'NONE',  ( 0.0000000000000000000, 2.415000000000000000, 0.0000000000000000000 ) ) ;
#35 = ADVANCED_FACE ( 'NONE', ( #210 ), #244, .T. ) ;
#36 = DIRECTION ( 'NONE',  ( 0.0000000000000000000, 0.0000000000000000000, -1.000000000000000000 ) ) ;
#37 = EDGE_CURVE ( 'NONE', #245, #246, #261, .T. ) ;
#38 = EDGE_CURVE ( 'NONE', #226, #224, #396, .T. ) ;
#39 = DIRECTION ( 'NONE',  ( -0.0000000000000000000, -1.000000000000000000, -0.0000000000000000000 ) ) ;
#40 = EDGE_CURVE ( 'NONE', #303, #117, #256, .T. ) ;
#41 = ORIENTED_EDGE ( 'NONE', *, *, #334, .T. ) ;
#42 = VERTEX_POINT ( 'NONE', #324 ) ;
#43 = AXIS2_PLACEMENT_3D ( 'NONE', #193, #222, #220 ) ;
#44 = AXIS2_PLACEMENT_3D ( 'NONE', #190, #194, #189 ) ;
#45 = AXIS2_PLACEMENT_3D ( 'NONE', #213, #212, #209 ) ;
#46 = ORIENTED_EDGE ( 'NONE', *, *, #334, .F. ) ;
#47 = DIRECTION ( 'NONE',  ( 0.0000000000000000000, -0.9238795325112892900, -0.3826834323650834500 ) ) ;
#48 = ORIENTED_EDGE ( 'NONE', *, *, #254, .F. ) ;
#49 = ORIENTED_EDGE ( 'NONE', *, *, #30, .T. ) ;
#50 =( GEOMETRIC_REPRESENTATION_CONTEXT ( 3 ) GLOBAL_UNCERTAINTY_ASSIGNED_CONTEXT ( ( #297 ) ) GLOBAL_UNIT_ASSIGNED_CONTEXT ( ( #266, #253, #247 ) ) REPRESENTATION_CONTEXT ( 'NONE', 'WORKASPACE' ) );
#51 = ORIENTED_EDGE ( 'NONE', *, *, #262, .F. ) ;
#52 = MECHANICAL_DESIGN_GEOMETRIC_PRESENTATION_REPRESENTATION (  '', ( #64 ), #50 ) ;
#53 = CARTESIAN_POINT ( 'NONE',  ( 0.0000000000000000000, 50.53000000000000100, 0.0000000000000000000 ) ) ;
#54 = ORIENTED_EDGE ( 'NONE', *, *, #335, .F. ) ;
#55 = ORIENTED_EDGE ( 'NONE', *, *, #183, .T. ) ;
#56 = PRESENTATION_LAYER_ASSIGNMENT (  '', '', ( #64 ) ) ;
#57 = DIRECTION ( 'NONE',  ( -0.0000000000000000000, -1.000000000000000000, -0.0000000000000000000 ) ) ;
#58 = EDGE_CURVE ( 'NONE', #243, #316, #259, .T. ) ;
#59 = CARTESIAN_POINT ( 'NONE',  ( 2.415000000000000000, 2.415000000000000000, -2.957522019940858200E-016 ) ) ;
#60 = EDGE_LOOP ( 'NONE', ( #90, #86, #331, #54, #98 ) ) ;
#61 = ORIENTED_EDGE ( 'NONE', *, *, #30, .F. ) ;
#62 = CARTESIAN_POINT ( 'NONE',  ( 1.734099867592652000E-016, 0.0000000000000000000, 1.415999999999999900 ) ) ;
#63 = ORIENTED_EDGE ( 'NONE', *, *, #6, .T. ) ;
#64 = STYLED_ITEM ( 'NONE', ( #307 ), #348 ) ;
#65 = DIRECTION ( 'NONE',  ( -0.0000000000000000000, -1.000000000000000000, -0.0000000000000000000 ) ) ;
#66 = AXIS2_PLACEMENT_3D ( 'NONE', #323, #337, #355 ) ;
#67 = CARTESIAN_POINT ( 'NONE',  ( 0.0000000000000000000, 0.0000000000000000000, 0.0000000000000000000 ) ) ;
#68 = FACE_OUTER_BOUND ( 'NONE', #201, .T. ) ;
#69 = DIRECTION ( 'NONE',  ( -0.0000000000000000000, -1.000000000000000000, -0.0000000000000000000 ) ) ;
#70 = ORIENTED_EDGE ( 'NONE', *, *, #374, .T. ) ;
#71 = AXIS2_PLACEMENT_3D ( 'NONE', #352, #97, #100 ) ;
#72 = DIRECTION ( 'NONE',  ( 0.0000000000000000000, 0.0000000000000000000, -1.000000000000000000 ) ) ;
#73 = PLANE ( 'NONE',  #113 ) ;
#74 = DIRECTION ( 'NONE',  ( -0.0000000000000000000, -0.0000000000000000000, -1.000000000000000000 ) ) ;
#75 = ORIENTED_EDGE ( 'NONE', *, *, #321, .T. ) ;
#76 = AXIS2_PLACEMENT_3D ( 'NONE', #141, #358, #378 ) ;
#77 = DIRECTION ( 'NONE',  ( 0.0000000000000000000, 0.0000000000000000000, -1.000000000000000000 ) ) ;
#78 = AXIS2_PLACEMENT_3D ( 'NONE', #299, #296, #294 ) ;
#79 = CARTESIAN_POINT ( 'NONE',  ( 0.0000000000000000000, 49.16355512369680300, -1.415999999999999900 ) ) ;
#80 = CARTESIAN_POINT ( 'NONE',  ( 9.876776435123404100E-016, 20.19999999999999900, 8.064999999999999500 ) ) ;
#81 = AXIS2_PLACEMENT_3D ( 'NONE', #332, #330, #326 ) ;
#82 = CARTESIAN_POINT ( 'NONE',  ( 2.957522019940858200E-016, 20.19999999999999900, 2.415000000000000000 ) ) ;
#83 = ORIENTED_EDGE ( 'NONE', *, *, #381, .F. ) ;
#84 = AXIS2_PLACEMENT_3D ( 'NONE', #345, #344, #340 ) ;
#85 = AXIS2_PLACEMENT_3D ( 'NONE', #371, #370, #366 ) ;
#86 = ORIENTED_EDGE ( 'NONE', *, *, #104, .T. ) ;
#87 = AXIS2_PLACEMENT_3D ( 'NONE', #31, #26, #397 ) ;
#88 = ADVANCED_FACE ( 'NONE', ( #267 ), #359, .T. ) ;
#89 = ORIENTED_EDGE ( 'NONE', *, *, #104, .F. ) ;
#90 = ORIENTED_EDGE ( 'NONE', *, *, #241, .F. ) ;
#91 = ORIENTED_EDGE ( 'NONE', *, *, #312, .F. ) ;
#92 = AXIS2_PLACEMENT_3D ( 'NONE', #258, #288, #317 ) ;
#93 = CARTESIAN_POINT ( 'NONE',  ( 0.0000000000000000000, 19.95999999999999400, 0.0000000000000000000 ) ) ;
#94 = FACE_OUTER_BOUND ( 'NONE', #180, .T. ) ;
#95 = AXIS2_PLACEMENT_3D ( 'NONE', #168, #314, #134 ) ;
#96 = DIRECTION ( 'NONE',  ( -0.0000000000000000000, -1.000000000000000000, -0.0000000000000000000 ) ) ;
#97 = DIRECTION ( 'NONE',  ( -0.0000000000000000000, -1.000000000000000000, -0.0000000000000000000 ) ) ;
#98 = ORIENTED_EDGE ( 'NONE', *, *, #38, .F. ) ;
#99 = AXIS2_PLACEMENT_3D ( 'NONE', #23, #107, #206 ) ;
#100 = DIRECTION ( 'NONE',  ( 0.0000000000000000000, 0.0000000000000000000, -1.000000000000000000 ) ) ;
#101 = ORIENTED_EDGE ( 'NONE', *, *, #381, .T. ) ;
#102 = EDGE_LOOP ( 'NONE', ( #233, #49, #177, #263 ) ) ;
#103 = VERTEX_POINT ( 'NONE', #333 ) ;
#104 = EDGE_CURVE ( 'NONE', #117, #303, #265, .T. ) ;
#105 = ORIENTED_EDGE ( 'NONE', *, *, #183, .F. ) ;
#106 = AXIS2_PLACEMENT_3D ( 'NONE', #179, #219, #211 ) ;
#107 = DIRECTION ( 'NONE',  ( -0.0000000000000000000, -1.000000000000000000, -0.0000000000000000000 ) ) ;
#108 = AXIS2_PLACEMENT_3D ( 'NONE', #159, #65, #268 ) ;
#109 = AXIS2_PLACEMENT_3D ( 'NONE', #24, #135, #203 ) ;
#110 = UNCERTAINTY_MEASURE_WITH_UNIT (LENGTH_MEASURE( 1.000000000000000100E-005 ), #139, 'distance_accuracy_value', 'NONE');
#111 = ADVANCED_FACE ( 'NONE', ( #375 ), #276, .T. ) ;
#112 = COLOUR_RGB ( '',0.7921568627450980000, 0.8196078431372548800, 0.9333333333333333500 ) ;
#113 = AXIS2_PLACEMENT_3D ( 'NONE', #363, #336, #391 ) ;
#114 = VERTEX_POINT ( 'NONE', #185 ) ;
#115 = AXIS2_PLACEMENT_3D ( 'NONE', #248, #255, #264 ) ;
#116 = EDGE_LOOP ( 'NONE', ( #41, #55, #131, #225 ) ) ;
#117 = VERTEX_POINT ( 'NONE', #82 ) ;
#118 = CARTESIAN_POINT ( 'NONE',  ( 0.0000000000000000000, 2.415000000000000000, 0.0000000000000000000 ) ) ;
#119 = APPLICATION_PROTOCOL_DEFINITION ( 'draft international standard', 'automotive_design', 1998, #122 ) ;
#120 = CIRCLE ( 'NONE', #81, 5.707183213224569200 ) ;
#121 = TOROIDAL_SURFACE ( 'NONE', #191, 5.707183213224569200, 2.370000000000003700 ) ;
#122 = APPLICATION_CONTEXT ( 'automotive_design' ) ;
#123 = PRODUCT_CONTEXT ( 'NONE', #160, 'mechanical' ) ;
#124 = DIRECTION ( 'NONE',  ( 1.000000000000000000, 0.0000000000000000000, 0.0000000000000000000 ) ) ;
#125 = DIRECTION ( 'NONE',  ( 0.0000000000000000000, 0.0000000000000000000, 1.000000000000000000 ) ) ;
#126 = AXIS2_PLACEMENT_3D ( 'NONE', #67, #237, #353 ) ;
#127 = CIRCLE ( 'NONE', #45, 2.415000000000000000 ) ;
#128 = AXIS2_PLACEMENT_3D ( 'NONE', #200, #197, #196 ) ;
#129 = CARTESIAN_POINT ( 'NONE',  ( 1.387524823433950900E-016, 50.53000000000000100, 0.8499999999999999800 ) ) ;
#130 = AXIS2_PLACEMENT_3D ( 'NONE', #380, #202, #285 ) ;
#131 = ORIENTED_EDGE ( 'NONE', *, *, #357, .F. ) ;
#132 = ADVANCED_FACE ( 'NONE', ( #154 ), #73, .T. ) ;
#133 = CARTESIAN_POINT ( 'NONE',  ( -2.415000000000000000, 2.415000000000000000, 0.0000000000000000000 ) ) ;
#134 = DIRECTION ( 'NONE',  ( 0.0000000000000000000, -0.0000000000000000000, 1.000000000000000000 ) ) ;
#135 = DIRECTION ( 'NONE',  ( -1.224646799147353200E-016, 0.0000000000000000000, -1.000000000000000000 ) ) ;
#136 =( NAMED_UNIT ( * ) SI_UNIT ( $, .STERADIAN. ) SOLID_ANGLE_UNIT ( ) );
#137 = VECTOR ( 'NONE', #47, 1000.000000000000100 ) ;
#138 =( NAMED_UNIT ( * ) PLANE_ANGLE_UNIT ( ) SI_UNIT ( $, .RADIAN. ) );
#139 =( LENGTH_UNIT ( ) NAMED_UNIT ( * ) SI_UNIT ( .MILLI., .METRE. ) );
#140 = DIRECTION ( 'NONE',  ( -0.0000000000000000000, -1.000000000000000000, -0.0000000000000000000 ) ) ;
#141 = CARTESIAN_POINT ( 'NONE',  ( 0.0000000000000000000, 22.32999999999999800, 0.0000000000000000000 ) ) ;
#142 = AXIS2_PLACEMENT_3D ( 'NONE', #53, #157, #218 ) ;
#143 = SURFACE_STYLE_USAGE ( .BOTH. , #147 ) ;
#144 = CIRCLE ( 'NONE', #386, 2.370000000000003700 ) ;
#145 = AXIS2_PLACEMENT_3D ( 'NONE', #32, #277, #36 ) ;
#146 = CARTESIAN_POINT ( 'NONE',  ( 0.0000000000000000000, 19.95999999999999400, -5.707183213224569200 ) ) ;
#147 = SURFACE_SIDE_STYLE ('',( #170 ) ) ;
#148 = FILL_AREA_STYLE ('',( #151 ) ) ;
#149 = VERTEX_POINT ( 'NONE', #79 ) ;
#150 = SPHERICAL_SURFACE ( 'NONE', #205, 2.415000000000000000 ) ;
#151 = FILL_AREA_STYLE_COLOUR ( '', #162 ) ;
#152 = CARTESIAN_POINT ( 'NONE',  ( 2.957522019940858200E-016, 2.415000000000000000, 2.415000000000000000 ) ) ;
#153 = AXIS2_PLACEMENT_3D ( 'NONE', #34, #14, #9 ) ;
#154 = FACE_OUTER_BOUND ( 'NONE', #260, .T. ) ;
#155 = PLANE ( 'NONE',  #95 ) ;
#156 = DIRECTION ( 'NONE',  ( -1.000000000000000000, 0.0000000000000000000, 0.0000000000000000000 ) ) ;
#157 = DIRECTION ( 'NONE',  ( -0.0000000000000000000, -1.000000000000000000, -0.0000000000000000000 ) ) ;
#158 = ADVANCED_BREP_SHAPE_REPRESENTATION ( '01641-00621', ( #348, #13 ), #33 ) ;
#159 = CARTESIAN_POINT ( 'NONE',  ( 0.0000000000000000000, 19.95999999999999400, 0.0000000000000000000 ) ) ;
#160 = APPLICATION_CONTEXT ( 'automotive_design' ) ;
#161 = CARTESIAN_POINT ( 'NONE',  ( 0.0000000000000000000, 0.0000000000000000000, -2.415000000000000000 ) ) ;
#162 = COLOUR_RGB ( '',0.7921568627450980000, 0.8196078431372548800, 0.9333333333333333500 ) ;
#163 = APPLICATION_PROTOCOL_DEFINITION ( 'draft international standard', 'automotive_design', 1998, #160 ) ;
#164 = EDGE_CURVE ( 'NONE', #316, #149, #257, .T. ) ;
#165 = SHAPE_DEFINITION_REPRESENTATION ( #19, #158 ) ;
#166 = PLANE ( 'NONE',  #87 ) ;
#167 = AXIS2_PLACEMENT_3D ( 'NONE', #118, #15, #156 ) ;
#168 = CARTESIAN_POINT ( 'NONE',  ( 1.415999999999999900, 22.32999999999999800, 0.0000000000000000000 ) ) ;
#169 = CARTESIAN_POINT ( 'NONE',  ( 0.0000000000000000000, 22.32999999999999800, -1.415999999999999900 ) ) ;
#170 = SURFACE_STYLE_FILL_AREA ( #148 ) ;
#171 =( NAMED_UNIT ( * ) SI_UNIT ( $, .STERADIAN. ) SOLID_ANGLE_UNIT ( ) );
#172 =( NAMED_UNIT ( * ) PLANE_ANGLE_UNIT ( ) SI_UNIT ( $, .RADIAN. ) );
#173 =( LENGTH_UNIT ( ) NAMED_UNIT ( * ) SI_UNIT ( .MILLI., .METRE. ) );
#174 = CONICAL_SURFACE ( 'NONE', #43, 1.415999999999999900, 0.3926990816987173700 ) ;
#175 = PRODUCT_DEFINITION_CONTEXT ( 'detailed design', #122, 'design' ) ;
#176 = ORIENTED_EDGE ( 'NONE', *, *, #262, .T. ) ;
#177 = ORIENTED_EDGE ( 'NONE', *, *, #234, .F. ) ;
#178 = CARTESIAN_POINT ( 'NONE',  ( 8.433030044673189800E-016, 22.32999999999999800, 5.707183213224569200 ) ) ;
#179 = CARTESIAN_POINT ( 'NONE',  ( 0.0000000000000000000, 49.16355512369680300, 0.0000000000000000000 ) ) ;
#180 = EDGE_LOOP ( 'NONE', ( #105, #75, #63, #83 ) ) ;
#181 = FACE_OUTER_BOUND ( 'NONE', #361, .T. ) ;
#182 = ORIENTED_EDGE ( 'NONE', *, *, #357, .T. ) ;
#183 = EDGE_CURVE ( 'NONE', #238, #215, #280, .T. ) ;
#184 = ORIENTED_EDGE ( 'NONE', *, *, #367, .F. ) ;
#185 = CARTESIAN_POINT ( 'NONE',  ( 1.734099867592652000E-016, 49.16355512369680300, 1.415999999999999900 ) ) ;
#186 = AXIS2_PLACEMENT_3D ( 'NONE', #292, #69, #364 ) ;
#187 = CIRCLE ( 'NONE', #44, 8.064999999999999500 ) ;
#188 = AXIS2_PLACEMENT_3D ( 'NONE', #305, #57, #72 ) ;
#189 = DIRECTION ( 'NONE',  ( 0.0000000000000000000, 0.0000000000000000000, -1.000000000000000000 ) ) ;
#190 = CARTESIAN_POINT ( 'NONE',  ( 0.0000000000000000000, 20.19999999999999900, 0.0000000000000000000 ) ) ;
#191 = AXIS2_PLACEMENT_3D ( 'NONE', #93, #39, #77 ) ;
#192 = CARTESIAN_POINT ( 'NONE',  ( 0.0000000000000000000, 49.16355512369680300, -1.415999999999999900 ) ) ;
#193 = CARTESIAN_POINT ( 'NONE',  ( 0.0000000000000000000, 49.16355512369680300, 0.0000000000000000000 ) ) ;
#194 = DIRECTION ( 'NONE',  ( -0.0000000000000000000, -1.000000000000000000, -0.0000000000000000000 ) ) ;
#195 = AXIS2_PLACEMENT_3D ( 'NONE', #387, #339, #379 ) ;
#196 = DIRECTION ( 'NONE',  ( 0.0000000000000000000, 0.0000000000000000000, -1.000000000000000000 ) ) ;
#197 = DIRECTION ( 'NONE',  ( -0.0000000000000000000, -1.000000000000000000, -0.0000000000000000000 ) ) ;
#198 = ADVANCED_FACE ( 'NONE', ( #273 ), #385, .T. ) ;
#199 = CYLINDRICAL_SURFACE ( 'NONE', #186, 2.415000000000000000 ) ;
#200 = CARTESIAN_POINT ( 'NONE',  ( 0.0000000000000000000, 20.19999999999999900, 0.0000000000000000000 ) ) ;
#201 = EDGE_LOOP ( 'NONE', ( #46, #2 ) ) ;
#202 = DIRECTION ( 'NONE',  ( -0.0000000000000000000, -1.000000000000000000, -0.0000000000000000000 ) ) ;
#203 = DIRECTION ( 'NONE',  ( -1.000000000000000000, 0.0000000000000000000, 1.224646799147353200E-016 ) ) ;
#204 = PRESENTATION_STYLE_ASSIGNMENT (( #143 ) ) ;
#205 = AXIS2_PLACEMENT_3D ( 'NONE', #393, #74, #362 ) ;
#206 = DIRECTION ( 'NONE',  ( 0.0000000000000000000, 0.0000000000000000000, -1.000000000000000000 ) ) ;
#207 = EDGE_LOOP ( 'NONE', ( #51, #5, #310, #91 ) ) ;
#208 = ORIENTED_EDGE ( 'NONE', *, *, #58, .T. ) ;
#209 = DIRECTION ( 'NONE',  ( 1.000000000000000000, 0.0000000000000000000, 0.0000000000000000000 ) ) ;
#210 = FACE_OUTER_BOUND ( 'NONE', #274, .T. ) ;
#211 = DIRECTION ( 'NONE',  ( 0.0000000000000000000, 0.0000000000000000000, -1.000000000000000000 ) ) ;
#212 = DIRECTION ( 'NONE',  ( -0.0000000000000000000, 0.0000000000000000000, 1.000000000000000000 ) ) ;
#213 = CARTESIAN_POINT ( 'NONE',  ( 0.0000000000000000000, 2.415000000000000000, 0.0000000000000000000 ) ) ;
#214 = EDGE_CURVE ( 'NONE', #246, #42, #283, .T. ) ;
#215 = VERTEX_POINT ( 'NONE', #80 ) ;
#216 = VERTEX_POINT ( 'NONE', #360 ) ;
#217 = FACE_OUTER_BOUND ( 'NONE', #269, .T. ) ;
#218 = DIRECTION ( 'NONE',  ( 0.0000000000000000000, 0.0000000000000000000, -1.000000000000000000 ) ) ;
#219 = DIRECTION ( 'NONE',  ( -0.0000000000000000000, -1.000000000000000000, -0.0000000000000000000 ) ) ;
#220 = DIRECTION ( 'NONE',  ( 0.0000000000000000000, 0.0000000000000000000, -1.000000000000000000 ) ) ;
#221 = EDGE_CURVE ( 'NONE', #303, #245, #318, .T. ) ;
#222 = DIRECTION ( 'NONE',  ( -0.0000000000000000000, -1.000000000000000000, -0.0000000000000000000 ) ) ;
#223 = CLOSED_SHELL ( 'NONE', ( #111, #10, #198, #11, #35, #4, #338, #250, #18, #236, #88, #390, #132 ) ) ;
#224 = VERTEX_POINT ( 'NONE', #133 ) ;
#225 = ORIENTED_EDGE ( 'NONE', *, *, #6, .F. ) ;
#226 = VERTEX_POINT ( 'NONE', #152 ) ;
#227 = ORIENTED_EDGE ( 'NONE', *, *, #1, .F. ) ;
#228 = EDGE_LOOP ( 'NONE', ( #230, #89 ) ) ;
#229 = CARTESIAN_POINT ( 'NONE',  ( 1.734099867592652000E-016, 49.16355512369680300, 1.415999999999999900 ) ) ;
#230 = ORIENTED_EDGE ( 'NONE', *, *, #40, .F. ) ;
#231 = ORIENTED_EDGE ( 'NONE', *, *, #293, .F. ) ;
#232 = VERTEX_POINT ( 'NONE', #169 ) ;
#233 = ORIENTED_EDGE ( 'NONE', *, *, #254, .T. ) ;
#234 = EDGE_CURVE ( 'NONE', #149, #114, #325, .T. ) ;
#235 = LINE ( 'NONE', #229, #251 ) ;
#236 = ADVANCED_FACE ( 'NONE', ( #304, #68 ), #155, .T. ) ;
#237 = DIRECTION ( 'NONE',  ( -0.0000000000000000000, -1.000000000000000000, -0.0000000000000000000 ) ) ;
#238 = VERTEX_POINT ( 'NONE', #178 ) ;
#239 = EDGE_CURVE ( 'NONE', #246, #226, #313, .T. ) ;
#240 = CYLINDRICAL_SURFACE ( 'NONE', #188, 1.415999999999999900 ) ;
#241 = EDGE_CURVE ( 'NONE', #117, #226, #347, .T. ) ;
#242 = FACE_OUTER_BOUND ( 'NONE', #60, .T. ) ;
#243 = VERTEX_POINT ( 'NONE', #129 ) ;
#244 = SPHERICAL_SURFACE ( 'NONE', #167, 2.415000000000000000 ) ;
#245 = VERTEX_POINT ( 'NONE', #395 ) ;
#246 = VERTEX_POINT ( 'NONE', #59 ) ;
#247 =( NAMED_UNIT ( * ) SI_UNIT ( $, .STERADIAN. ) SOLID_ANGLE_UNIT ( ) );
#248 = CARTESIAN_POINT ( 'NONE',  ( 6.989283654222975500E-016, 19.95999999999999400, 5.707183213224569200 ) ) ;
#249 = UNCERTAINTY_MEASURE_WITH_UNIT (LENGTH_MEASURE( 1.000000000000000100E-005 ), #173, 'distance_accuracy_value', 'NONE');
#250 = ADVANCED_FACE ( 'NONE', ( #398, #350 ), #166, .T. ) ;
#251 = VECTOR ( 'NONE', #383, 1000.000000000000100 ) ;
#252 = EDGE_LOOP ( 'NONE', ( #320, #176, #184, #231 ) ) ;
#253 =( NAMED_UNIT ( * ) PLANE_ANGLE_UNIT ( ) SI_UNIT ( $, .RADIAN. ) );
#254 = EDGE_CURVE ( 'NONE', #316, #243, #354, .T. ) ;
#255 = DIRECTION ( 'NONE',  ( 1.000000000000000000, 0.0000000000000000000, -1.224646799147353200E-016 ) ) ;
#256 = CIRCLE ( 'NONE', #145, 2.415000000000000000 ) ;
#257 = LINE ( 'NONE', #192, #137 ) ;
#258 = CARTESIAN_POINT ( 'NONE',  ( 0.0000000000000000000, 50.53000000000000100, 0.0000000000000000000 ) ) ;
#259 = CIRCLE ( 'NONE', #142, 0.8499999999999999800 ) ;
#260 = EDGE_LOOP ( 'NONE', ( #48, #322 ) ) ;
#261 = CIRCLE ( 'NONE', #195, 2.415000000000000000 ) ;
#262 = EDGE_CURVE ( 'NONE', #114, #103, #346, .T. ) ;
#263 = ORIENTED_EDGE ( 'NONE', *, *, #164, .F. ) ;
#264 = DIRECTION ( 'NONE',  ( -1.224646799147353200E-016, 0.0000000000000000000, -1.000000000000000000 ) ) ;
#265 = CIRCLE ( 'NONE', #128, 2.415000000000000000 ) ;
#266 =( LENGTH_UNIT ( ) NAMED_UNIT ( * ) SI_UNIT ( .MILLI., .METRE. ) );
#267 = FACE_OUTER_BOUND ( 'NONE', #207, .T. ) ;
#268 = DIRECTION ( 'NONE',  ( 0.0000000000000000000, 0.0000000000000000000, -1.000000000000000000 ) ) ;
#269 = EDGE_LOOP ( 'NONE', ( #309, #287, #295, #308, #275 ) ) ;
#270 = SURFACE_STYLE_USAGE ( .BOTH. , #282 ) ;
#271 = PRODUCT ( '01641-00621', '01641-00621', '', ( #123 ) ) ;
#272 = LINE ( 'NONE', #389, #300 ) ;
#273 = FACE_OUTER_BOUND ( 'NONE', #116, .T. ) ;
#274 = EDGE_LOOP ( 'NONE', ( #298, #301, #319, #327 ) ) ;
#275 = ORIENTED_EDGE ( 'NONE', *, *, #221, .F. ) ;
#276 = CONICAL_SURFACE ( 'NONE', #130, 1.415999999999999900, 0.3926990816987173700 ) ;
#277 = DIRECTION ( 'NONE',  ( -0.0000000000000000000, -1.000000000000000000, -0.0000000000000000000 ) ) ;
#278 = CIRCLE ( 'NONE', #76, 1.415999999999999900 ) ;
#279 = ORIENTED_EDGE ( 'NONE', *, *, #164, .T. ) ;
#280 = CIRCLE ( 'NONE', #115, 2.370000000000003700 ) ;
#281 = EDGE_LOOP ( 'NONE', ( #376, #7 ) ) ;
#282 = SURFACE_SIDE_STYLE ('',( #284 ) ) ;
#283 = CIRCLE ( 'NONE', #109, 2.415000000000000000 ) ;
#284 = SURFACE_STYLE_FILL_AREA ( #289 ) ;
#285 = DIRECTION ( 'NONE',  ( 0.0000000000000000000, 0.0000000000000000000, -1.000000000000000000 ) ) ;
#286 = CYLINDRICAL_SURFACE ( 'NONE', #66, 2.415000000000000000 ) ;
#287 = ORIENTED_EDGE ( 'NONE', *, *, #241, .T. ) ;
#288 = DIRECTION ( 'NONE',  ( -0.0000000000000000000, -1.000000000000000000, -0.0000000000000000000 ) ) ;
#289 = FILL_AREA_STYLE ('',( #290 ) ) ;
#290 = FILL_AREA_STYLE_COLOUR ( '', #112 ) ;
#291 = CIRCLE ( 'NONE', #71, 8.064999999999999500 ) ;
#292 = CARTESIAN_POINT ( 'NONE',  ( 0.0000000000000000000, 0.0000000000000000000, 0.0000000000000000000 ) ) ;
#293 = EDGE_CURVE ( 'NONE', #149, #232, #272, .T. ) ;
#294 = DIRECTION ( 'NONE',  ( 0.0000000000000000000, 0.0000000000000000000, -1.000000000000000000 ) ) ;
#295 = ORIENTED_EDGE ( 'NONE', *, *, #239, .F. ) ;
#296 = DIRECTION ( 'NONE',  ( -0.0000000000000000000, -1.000000000000000000, -0.0000000000000000000 ) ) ;
#297 = UNCERTAINTY_MEASURE_WITH_UNIT (LENGTH_MEASURE( 1.000000000000000100E-005 ), #266, 'distance_accuracy_value', 'NONE');
#298 = ORIENTED_EDGE ( 'NONE', *, *, #335, .T. ) ;
#299 = CARTESIAN_POINT ( 'NONE',  ( 0.0000000000000000000, 2.415000000000000000, 0.0000000000000000000 ) ) ;
#300 = VECTOR ( 'NONE', #394, 1000.000000000000000 ) ;
#301 = ORIENTED_EDGE ( 'NONE', *, *, #37, .T. ) ;
#302 = CIRCLE ( 'NONE', #78, 2.415000000000000000 ) ;
#303 = VERTEX_POINT ( 'NONE', #343 ) ;
#304 = FACE_BOUND ( 'NONE', #281, .T. ) ;
#305 = CARTESIAN_POINT ( 'NONE',  ( 0.0000000000000000000, 0.0000000000000000000, 0.0000000000000000000 ) ) ;
#306 = EDGE_LOOP ( 'NONE', ( #182, #101 ) ) ;
#307 = PRESENTATION_STYLE_ASSIGNMENT (( #270 ) ) ;
#308 = ORIENTED_EDGE ( 'NONE', *, *, #37, .F. ) ;
#309 = ORIENTED_EDGE ( 'NONE', *, *, #40, .T. ) ;
#310 = ORIENTED_EDGE ( 'NONE', *, *, #293, .T. ) ;
#311 = CARTESIAN_POINT ( 'NONE',  ( 0.0000000000000000000, 49.16355512369680300, 0.0000000000000000000 ) ) ;
#312 = EDGE_CURVE ( 'NONE', #103, #232, #373, .T. ) ;
#313 = CIRCLE ( 'NONE', #99, 2.415000000000000000 ) ;
#314 = DIRECTION ( 'NONE',  ( 0.0000000000000000000, 1.000000000000000000, 0.0000000000000000000 ) ) ;
#315 = ORIENTED_EDGE ( 'NONE', *, *, #38, .T. ) ;
#316 = VERTEX_POINT ( 'NONE', #28 ) ;
#317 = DIRECTION ( 'NONE',  ( 0.0000000000000000000, 0.0000000000000000000, -1.000000000000000000 ) ) ;
#318 = LINE ( 'NONE', #161, #341 ) ;
#319 = ORIENTED_EDGE ( 'NONE', *, *, #214, .T. ) ;
#320 = ORIENTED_EDGE ( 'NONE', *, *, #234, .T. ) ;
#321 = EDGE_CURVE ( 'NONE', #238, #328, #365, .T. ) ;
#322 = ORIENTED_EDGE ( 'NONE', *, *, #58, .F. ) ;
#323 = CARTESIAN_POINT ( 'NONE',  ( 0.0000000000000000000, 0.0000000000000000000, 0.0000000000000000000 ) ) ;
#324 = CARTESIAN_POINT ( 'NONE',  ( -1.478761009970429100E-016, 0.0000000000000000000, 0.0000000000000000000 ) ) ;
#325 = CIRCLE ( 'NONE', #106, 1.415999999999999900 ) ;
#326 = DIRECTION ( 'NONE',  ( 0.0000000000000000000, 0.0000000000000000000, -1.000000000000000000 ) ) ;
#327 = ORIENTED_EDGE ( 'NONE', *, *, #374, .F. ) ;
#328 = VERTEX_POINT ( 'NONE', #21 ) ;
#329 = DIRECTION ( 'NONE',  ( -0.0000000000000000000, -1.000000000000000000, -0.0000000000000000000 ) ) ;
#330 = DIRECTION ( 'NONE',  ( -0.0000000000000000000, -1.000000000000000000, -0.0000000000000000000 ) ) ;
#331 = ORIENTED_EDGE ( 'NONE', *, *, #221, .T. ) ;
#332 = CARTESIAN_POINT ( 'NONE',  ( 0.0000000000000000000, 22.32999999999999800, 0.0000000000000000000 ) ) ;
#333 = CARTESIAN_POINT ( 'NONE',  ( 1.734099867592652000E-016, 22.32999999999999800, 1.415999999999999900 ) ) ;
#334 = EDGE_CURVE ( 'NONE', #328, #238, #120, .T. ) ;
#335 = EDGE_CURVE ( 'NONE', #224, #245, #302, .T. ) ;
#336 = DIRECTION ( 'NONE',  ( 0.0000000000000000000, 1.000000000000000000, 0.0000000000000000000 ) ) ;
#337 = DIRECTION ( 'NONE',  ( -0.0000000000000000000, -1.000000000000000000, -0.0000000000000000000 ) ) ;
#338 = ADVANCED_FACE ( 'NONE', ( #242 ), #286, .T. ) ;
#339 = DIRECTION ( 'NONE',  ( -0.0000000000000000000, -1.000000000000000000, -0.0000000000000000000 ) ) ;
#340 = DIRECTION ( 'NONE',  ( 0.0000000000000000000, 0.0000000000000000000, -1.000000000000000000 ) ) ;
#341 = VECTOR ( 'NONE', #329, 1000.000000000000000 ) ;
#342 = FACE_OUTER_BOUND ( 'NONE', #252, .T. ) ;
#343 = CARTESIAN_POINT ( 'NONE',  ( 0.0000000000000000000, 20.19999999999999900, -2.415000000000000000 ) ) ;
#344 = DIRECTION ( 'NONE',  ( -0.0000000000000000000, -1.000000000000000000, -0.0000000000000000000 ) ) ;
#345 = CARTESIAN_POINT ( 'NONE',  ( 0.0000000000000000000, 22.32999999999999800, 0.0000000000000000000 ) ) ;
#346 = LINE ( 'NONE', #62, #372 ) ;
#347 = LINE ( 'NONE', #16, #349 ) ;
#348 = MANIFOLD_SOLID_BREP ( 'Revolve1', #223 ) ;
#349 = VECTOR ( 'NONE', #140, 1000.000000000000000 ) ;
#350 = FACE_BOUND ( 'NONE', #228, .T. ) ;
#351 = DIRECTION ( 'NONE',  ( -1.000000000000000000, 0.0000000000000000000, 0.0000000000000000000 ) ) ;
#352 = CARTESIAN_POINT ( 'NONE',  ( 0.0000000000000000000, 20.19999999999999900, 0.0000000000000000000 ) ) ;
#353 = DIRECTION ( 'NONE',  ( 0.0000000000000000000, 0.0000000000000000000, -1.000000000000000000 ) ) ;
#354 = CIRCLE ( 'NONE', #92, 0.8499999999999999800 ) ;
#355 = DIRECTION ( 'NONE',  ( 0.0000000000000000000, 0.0000000000000000000, -1.000000000000000000 ) ) ;
#356 = ORIENTED_EDGE ( 'NONE', *, *, #239, .T. ) ;
#357 = EDGE_CURVE ( 'NONE', #216, #215, #291, .T. ) ;
#358 = DIRECTION ( 'NONE',  ( -0.0000000000000000000, -1.000000000000000000, -0.0000000000000000000 ) ) ;
#359 = CYLINDRICAL_SURFACE ( 'NONE', #126, 1.415999999999999900 ) ;
#360 = CARTESIAN_POINT ( 'NONE',  ( 0.0000000000000000000, 20.19999999999999900, -8.064999999999999500 ) ) ;
#361 = EDGE_LOOP ( 'NONE', ( #61, #208, #279, #227 ) ) ;
#362 = DIRECTION ( 'NONE',  ( -1.000000000000000000, 0.0000000000000000000, 0.0000000000000000000 ) ) ;
#363 = CARTESIAN_POINT ( 'NONE',  ( 0.8499999999999999800, 50.53000000000000100, 0.0000000000000000000 ) ) ;
#364 = DIRECTION ( 'NONE',  ( 0.0000000000000000000, 0.0000000000000000000, -1.000000000000000000 ) ) ;
#365 = CIRCLE ( 'NONE', #84, 5.707183213224569200 ) ;
#366 = DIRECTION ( 'NONE',  ( 0.0000000000000000000, 0.0000000000000000000, -1.000000000000000000 ) ) ;
#367 = EDGE_CURVE ( 'NONE', #232, #103, #278, .T. ) ;
#368 = DIRECTION ( 'NONE',  ( 0.0000000000000000000, 0.0000000000000000000, -1.000000000000000000 ) ) ;
#369 = ORIENTED_EDGE ( 'NONE', *, *, #214, .F. ) ;
#370 = DIRECTION ( 'NONE',  ( -0.0000000000000000000, -1.000000000000000000, -0.0000000000000000000 ) ) ;
#371 = CARTESIAN_POINT ( 'NONE',  ( 0.0000000000000000000, 22.32999999999999800, 0.0000000000000000000 ) ) ;
#372 = VECTOR ( 'NONE', #22, 1000.000000000000000 ) ;
#373 = CIRCLE ( 'NONE', #85, 1.415999999999999900 ) ;
#374 = EDGE_CURVE ( 'NONE', #224, #42, #127, .T. ) ;
#375 = FACE_OUTER_BOUND ( 'NONE', #102, .T. ) ;
#376 = ORIENTED_EDGE ( 'NONE', *, *, #367, .T. ) ;
#377 = AXIS2_PLACEMENT_3D ( 'NONE', #311, #96, #368 ) ;
#378 = DIRECTION ( 'NONE',  ( 0.0000000000000000000, 0.0000000000000000000, -1.000000000000000000 ) ) ;
#379 = DIRECTION ( 'NONE',  ( 0.0000000000000000000, 0.0000000000000000000, -1.000000000000000000 ) ) ;
#380 = CARTESIAN_POINT ( 'NONE',  ( 0.0000000000000000000, 49.16355512369680300, 0.0000000000000000000 ) ) ;
#381 = EDGE_CURVE ( 'NONE', #215, #216, #187, .T. ) ;
#382 = CARTESIAN_POINT ( 'NONE',  ( 0.0000000000000000000, 0.0000000000000000000, 0.0000000000000000000 ) ) ;
#383 = DIRECTION ( 'NONE',  ( 4.686520405326220900E-017, -0.9238795325112892900, 0.3826834323650834500 ) ) ;
#384 = DIRECTION ( 'NONE',  ( 0.0000000000000000000, 0.0000000000000000000, 1.000000000000000000 ) ) ;
#385 = TOROIDAL_SURFACE ( 'NONE', #108, 5.707183213224569200, 2.370000000000003700 ) ;
#386 = AXIS2_PLACEMENT_3D ( 'NONE', #146, #351, #384 ) ;
#387 = CARTESIAN_POINT ( 'NONE',  ( 0.0000000000000000000, 2.415000000000000000, 0.0000000000000000000 ) ) ;
#388 = EDGE_LOOP ( 'NONE', ( #369, #356, #315, #70 ) ) ;
#389 = CARTESIAN_POINT ( 'NONE',  ( 0.0000000000000000000, 0.0000000000000000000, -1.415999999999999900 ) ) ;
#390 = ADVANCED_FACE ( 'NONE', ( #181 ), #174, .T. ) ;
#391 = DIRECTION ( 'NONE',  ( 0.0000000000000000000, -0.0000000000000000000, 1.000000000000000000 ) ) ;
#392 = CIRCLE ( 'NONE', #377, 1.415999999999999900 ) ;
#393 = CARTESIAN_POINT ( 'NONE',  ( 0.0000000000000000000, 2.415000000000000000, 0.0000000000000000000 ) ) ;
#394 = DIRECTION ( 'NONE',  ( -0.0000000000000000000, -1.000000000000000000, -0.0000000000000000000 ) ) ;
#395 = CARTESIAN_POINT ( 'NONE',  ( 0.0000000000000000000, 2.415000000000000000, -2.415000000000000000 ) ) ;
#396 = CIRCLE ( 'NONE', #153, 2.415000000000000000 ) ;
#397 = DIRECTION ( 'NONE',  ( 0.0000000000000000000, 0.0000000000000000000, -1.000000000000000000 ) ) ;
#398 = FACE_OUTER_BOUND ( 'NONE', #306, .T. ) ;
ENDSEC;
END-ISO-10303-21;
