ISO-10303-21;
HEADER;
FILE_DESCRIPTION (( 'STEP AP214' ),
    '1' );
FILE_NAME ('01641-00613MIDG_03_95mm.STEP',
    '2016-04-28T12:57:05',
    ( '' ),
    ( '' ),
    'SwSTEP 2.0',
    'SolidWorks 2015',
    '' );
FILE_SCHEMA (( 'AUTOMOTIVE_DESIGN' ));
ENDSEC;

DATA;
#1 = UNCERTAINTY_MEASURE_WITH_UNIT (LENGTH_MEASURE( 1.000000000000000100E-005 ), #63, 'distance_accuracy_value', 'NONE');
#2 = DIRECTION ( 'NONE',  ( 1.000000000000000000, 0.0000000000000000000, -1.224646799147353200E-016 ) ) ;
#3 = DIRECTION ( 'NONE',  ( -1.224646799147353200E-016, 0.0000000000000000000, -1.000000000000000000 ) ) ;
#4 = VERTEX_POINT ( 'NONE', #64 ) ;
#5 = VERTEX_POINT ( 'NONE', #304 ) ;
#6 = CARTESIAN_POINT ( 'NONE',  ( 0.0000000000000000000, 3.257168881056379000, 0.0000000000000000000 ) ) ;
#7 = EDGE_CURVE ( 'NONE', #5, #10, #24, .T. ) ;
#8 = DIRECTION ( 'NONE',  ( -0.0000000000000000000, -1.000000000000000000, -0.0000000000000000000 ) ) ;
#9 = CARTESIAN_POINT ( 'NONE',  ( 0.0000000000000000000, 3.257168881056379000, -3.598480967438468300 ) ) ;
#10 = VERTEX_POINT ( 'NONE', #293 ) ;
#11 = ADVANCED_FACE ( 'NONE', ( #226, #74 ), #273, .T. ) ;
#12 = DIRECTION ( 'NONE',  ( 0.0000000000000000000, 0.0000000000000000000, -1.000000000000000000 ) ) ;
#13 = DIRECTION ( 'NONE',  ( 0.0000000000000000000, 0.0000000000000000000, -1.000000000000000000 ) ) ;
#14 = FACE_OUTER_BOUND ( 'NONE', #126, .T. ) ;
#15 = ORIENTED_EDGE ( 'NONE', *, *, #251, .T. ) ;
#16 = AXIS2_PLACEMENT_3D ( 'NONE', #57, #255, #337 ) ;
#17 = DIRECTION ( 'NONE',  ( -0.0000000000000000000, -1.000000000000000000, -0.0000000000000000000 ) ) ;
#18 = CARTESIAN_POINT ( 'NONE',  ( 1.815331160274325000, 0.8222671980093240200, -2.223139494822402500E-016 ) ) ;
#19 = ORIENTED_EDGE ( 'NONE', *, *, #233, .F. ) ;
#20 = DIRECTION ( 'NONE',  ( -0.0000000000000000000, -1.000000000000000000, -0.0000000000000000000 ) ) ;
#21 = DIRECTION ( 'NONE',  ( 0.0000000000000000000, 0.0000000000000000000, -1.000000000000000000 ) ) ;
#22 = DIRECTION ( 'NONE',  ( -0.0000000000000000000, -1.000000000000000000, -0.0000000000000000000 ) ) ;
#23 = VERTEX_POINT ( 'NONE', #298 ) ;
#24 = CIRCLE ( 'NONE', #204, 8.064999999999999500 ) ;
#25 = PRODUCT_DEFINITION_SHAPE ( 'NONE', 'NONE',  #300 ) ;
#26 = CARTESIAN_POINT ( 'NONE',  ( 0.0000000000000000000, 9.450000000000001100, 0.0000000000000000000 ) ) ;
#27 = DIRECTION ( 'NONE',  ( -0.0000000000000000000, -1.000000000000000000, -0.0000000000000000000 ) ) ;
#28 = DIRECTION ( 'NONE',  ( 0.0000000000000000000, 0.0000000000000000000, -1.000000000000000000 ) ) ;
#29 = CARTESIAN_POINT ( 'NONE',  ( 0.0000000000000000000, 9.450000000000001100, 0.0000000000000000000 ) ) ;
#30 = DIRECTION ( 'NONE',  ( 0.0000000000000000000, 0.0000000000000000000, -1.000000000000000000 ) ) ;
#31 = VERTEX_POINT ( 'NONE', #104 ) ;
#32 = ORIENTED_EDGE ( 'NONE', *, *, #359, .T. ) ;
#33 = ORIENTED_EDGE ( 'NONE', *, *, #311, .F. ) ;
#34 = DIRECTION ( 'NONE',  ( 0.0000000000000000000, 0.0000000000000000000, -1.000000000000000000 ) ) ;
#35 = CARTESIAN_POINT ( 'NONE',  ( 0.0000000000000000000, 3.707168881056380500, 0.0000000000000000000 ) ) ;
#36 = CARTESIAN_POINT ( 'NONE',  ( -1.815331160274325000, 0.8222671980093240200, 0.0000000000000000000 ) ) ;
#37 = ORIENTED_EDGE ( 'NONE', *, *, #272, .T. ) ;
#38 = CARTESIAN_POINT ( 'NONE',  ( 0.0000000000000000000, 0.0000000000000000000, -2.524999999999999900 ) ) ;
#39 = ORIENTED_EDGE ( 'NONE', *, *, #324, .T. ) ;
#40 = ORIENTED_EDGE ( 'NONE', *, *, #227, .T. ) ;
#41 = ORIENTED_EDGE ( 'NONE', *, *, #7, .T. ) ;
#42 = DIRECTION ( 'NONE',  ( 0.0000000000000000000, 0.0000000000000000000, -1.000000000000000000 ) ) ;
#43 = ADVANCED_FACE ( 'NONE', ( #14 ), #106, .T. ) ;
#44 =( GEOMETRIC_REPRESENTATION_CONTEXT ( 3 ) GLOBAL_UNCERTAINTY_ASSIGNED_CONTEXT ( ( #55 ) ) GLOBAL_UNIT_ASSIGNED_CONTEXT ( ( #116, #124, #125 ) ) REPRESENTATION_CONTEXT ( 'NONE', 'WORKASPACE' ) );
#45 = DIRECTION ( 'NONE',  ( -1.000000000000000000, 0.0000000000000000000, 0.0000000000000000000 ) ) ;
#46 = ORIENTED_EDGE ( 'NONE', *, *, #129, .T. ) ;
#47 = CARTESIAN_POINT ( 'NONE',  ( 0.0000000000000000000, 9.449999999999999300, 0.0000000000000000000 ) ) ;
#48 = EDGE_LOOP ( 'NONE', ( #287, #37, #15, #276 ) ) ;
#49 = DIRECTION ( 'NONE',  ( -1.224646799147353200E-016, 0.0000000000000000000, -1.000000000000000000 ) ) ;
#50 = CARTESIAN_POINT ( 'NONE',  ( 3.092233167847066500E-016, 0.0000000000000000000, 2.524999999999999900 ) ) ;
#51 = ORIENTED_EDGE ( 'NONE', *, *, #173, .T. ) ;
#52 = DIRECTION ( 'NONE',  ( -0.0000000000000000000, -1.000000000000000000, -0.0000000000000000000 ) ) ;
#53 = VERTEX_POINT ( 'NONE', #368 ) ;
#54 = DIRECTION ( 'NONE',  ( -0.0000000000000000000, -0.0000000000000000000, -1.000000000000000000 ) ) ;
#55 = UNCERTAINTY_MEASURE_WITH_UNIT (LENGTH_MEASURE( 1.000000000000000100E-005 ), #116, 'distance_accuracy_value', 'NONE');
#56 = FILL_AREA_STYLE_COLOUR ( '', #338 ) ;
#57 = CARTESIAN_POINT ( 'NONE',  ( 2.031624584690768300E-016, 3.707168881056380500, 1.658947368421053600 ) ) ;
#58 = AXIS2_PLACEMENT_3D ( 'NONE', #269, #49, #238 ) ;
#59 = FILL_AREA_STYLE_COLOUR ( '', #318 ) ;
#60 = CIRCLE ( 'NONE', #103, 1.815331160274324700 ) ;
#61 = ORIENTED_EDGE ( 'NONE', *, *, #7, .F. ) ;
#62 = CARTESIAN_POINT ( 'NONE',  ( 0.0000000000000000000, 2.807168881056380200, -1.658947368421053600 ) ) ;
#63 =( LENGTH_UNIT ( ) NAMED_UNIT ( * ) SI_UNIT ( .MILLI., .METRE. ) );
#64 = CARTESIAN_POINT ( 'NONE',  ( 0.0000000000000000000, 11.58000000000000200, -4.924999999999999800 ) ) ;
#65 = CIRCLE ( 'NONE', #283, 1.815331160274324700 ) ;
#66 = EDGE_CURVE ( 'NONE', #244, #53, #216, .T. ) ;
#67 = CARTESIAN_POINT ( 'NONE',  ( 0.0000000000000000000, 3.257168881056379000, 0.0000000000000000000 ) ) ;
#68 = DIRECTION ( 'NONE',  ( -0.0000000000000000000, -1.000000000000000000, -0.0000000000000000000 ) ) ;
#69 = DIRECTION ( 'NONE',  ( 0.0000000000000000000, 0.0000000000000000000, -1.000000000000000000 ) ) ;
#70 = FILL_AREA_STYLE ('',( #59 ) ) ;
#71 = VERTEX_POINT ( 'NONE', #330 ) ;
#72 = TOROIDAL_SURFACE ( 'NONE', #302, 1.658947368421053600, 1.991052631578946300 ) ;
#73 = CARTESIAN_POINT ( 'NONE',  ( 0.0000000000000000000, 3.707168881056380500, -1.658947368421053600 ) ) ;
#74 = FACE_BOUND ( 'NONE', #141, .T. ) ;
#75 = EDGE_CURVE ( 'NONE', #4, #10, #213, .T. ) ;
#76 = ADVANCED_FACE ( 'NONE', ( #248 ), #362, .T. ) ;
#77 = SURFACE_SIDE_STYLE ('',( #317 ) ) ;
#78 = SURFACE_STYLE_USAGE ( .BOTH. , #77 ) ;
#79 = DIRECTION ( 'NONE',  ( -0.0000000000000000000, -1.000000000000000000, -0.0000000000000000000 ) ) ;
#80 = DIRECTION ( 'NONE',  ( 0.0000000000000000000, -0.0000000000000000000, 1.000000000000000000 ) ) ;
#81 =( LENGTH_UNIT ( ) NAMED_UNIT ( * ) SI_UNIT ( .MILLI., .METRE. ) );
#82 = CIRCLE ( 'NONE', #111, 1.991052631578945400 ) ;
#83 =( NAMED_UNIT ( * ) PLANE_ANGLE_UNIT ( ) SI_UNIT ( $, .RADIAN. ) );
#84 = AXIS2_PLACEMENT_3D ( 'NONE', #344, #274, #184 ) ;
#85 = CARTESIAN_POINT ( 'NONE',  ( 7.954080960462058600E-016, 11.58000000000000200, 4.924999999999999800 ) ) ;
#86 =( NAMED_UNIT ( * ) SI_UNIT ( $, .STERADIAN. ) SOLID_ANGLE_UNIT ( ) );
#87 = DIRECTION ( 'NONE',  ( -0.0000000000000000000, 0.0000000000000000000, 1.000000000000000000 ) ) ;
#88 = ORIENTED_EDGE ( 'NONE', *, *, #266, .T. ) ;
#89 = ORIENTED_EDGE ( 'NONE', *, *, #157, .F. ) ;
#90 = VERTEX_POINT ( 'NONE', #9 ) ;
#91 = DIRECTION ( 'NONE',  ( -1.000000000000000000, 0.0000000000000000000, 0.0000000000000000000 ) ) ;
#92 = CARTESIAN_POINT ( 'NONE',  ( 0.0000000000000000000, 8.200539906103289300, -4.924999999999999800 ) ) ;
#93 = AXIS2_PLACEMENT_3D ( 'NONE', #215, #17, #352 ) ;
#94 =( NAMED_UNIT ( * ) PLANE_ANGLE_UNIT ( ) SI_UNIT ( $, .RADIAN. ) );
#95 =( NAMED_UNIT ( * ) SI_UNIT ( $, .STERADIAN. ) SOLID_ANGLE_UNIT ( ) );
#96 = DIRECTION ( 'NONE',  ( -0.0000000000000000000, -1.000000000000000000, -0.0000000000000000000 ) ) ;
#97 = APPLICATION_PROTOCOL_DEFINITION ( 'draft international standard', 'automotive_design', 1998, #101 ) ;
#98 = CIRCLE ( 'NONE', #309, 3.598480967438468300 ) ;
#99 = ADVANCED_FACE ( 'NONE', ( #342 ), #218, .T. ) ;
#100 = ORIENTED_EDGE ( 'NONE', *, *, #312, .F. ) ;
#101 = APPLICATION_CONTEXT ( 'automotive_design' ) ;
#102 = AXIS2_PLACEMENT_3D ( 'NONE', #297, #87, #236 ) ;
#103 = AXIS2_PLACEMENT_3D ( 'NONE', #340, #170, #186 ) ;
#104 = CARTESIAN_POINT ( 'NONE',  ( 4.406868198566191100E-016, 3.257168881056379000, 3.598480967438468300 ) ) ;
#105 = EDGE_LOOP ( 'NONE', ( #39, #127, #231, #33, #320 ) ) ;
#106 = PLANE ( 'NONE',  #190 ) ;
#107 = ADVANCED_BREP_SHAPE_REPRESENTATION ( '01641-00613MIDG_03_95mm', ( #364, #335 ), #232 ) ;
#108 = FILL_AREA_STYLE ('',( #56 ) ) ;
#109 = CARTESIAN_POINT ( 'NONE',  ( 6.031385485800714100E-016, 8.200539906103289300, 4.924999999999999800 ) ) ;
#110 = EDGE_LOOP ( 'NONE', ( #19, #315, #175, #61 ) ) ;
#111 = AXIS2_PLACEMENT_3D ( 'NONE', #62, #256, #261 ) ;
#112 = SURFACE_SIDE_STYLE ('',( #336 ) ) ;
#113 = CARTESIAN_POINT ( 'NONE',  ( 0.0000000000000000000, 9.449999999999999300, 0.0000000000000000000 ) ) ;
#114 = CIRCLE ( 'NONE', #159, 2.524999999999999900 ) ;
#115 = SURFACE_STYLE_USAGE ( .BOTH. , #112 ) ;
#116 =( LENGTH_UNIT ( ) NAMED_UNIT ( * ) SI_UNIT ( .MILLI., .METRE. ) );
#117 = DIRECTION ( 'NONE',  ( -1.000000000000000000, 0.0000000000000000000, 0.0000000000000000000 ) ) ;
#118 = DIRECTION ( 'NONE',  ( 0.0000000000000000000, 0.0000000000000000000, -1.000000000000000000 ) ) ;
#119 = ORIENTED_EDGE ( 'NONE', *, *, #233, .T. ) ;
#120 = DIRECTION ( 'NONE',  ( -0.0000000000000000000, -1.000000000000000000, -0.0000000000000000000 ) ) ;
#121 = AXIS2_PLACEMENT_3D ( 'NONE', #177, #198, #262 ) ;
#122 = VECTOR ( 'NONE', #20, 1000.000000000000000 ) ;
#123 = DIRECTION ( 'NONE',  ( -0.0000000000000000000, -1.000000000000000000, -0.0000000000000000000 ) ) ;
#124 =( NAMED_UNIT ( * ) PLANE_ANGLE_UNIT ( ) SI_UNIT ( $, .RADIAN. ) );
#125 =( NAMED_UNIT ( * ) SI_UNIT ( $, .STERADIAN. ) SOLID_ANGLE_UNIT ( ) );
#126 = EDGE_LOOP ( 'NONE', ( #89, #145 ) ) ;
#127 = ORIENTED_EDGE ( 'NONE', *, *, #312, .T. ) ;
#128 = ORIENTED_EDGE ( 'NONE', *, *, #281, .T. ) ;
#129 = EDGE_CURVE ( 'NONE', #214, #154, #229, .T. ) ;
#130 = AXIS2_PLACEMENT_3D ( 'NONE', #253, #54, #91 ) ;
#131 = DIRECTION ( 'NONE',  ( -0.0000000000000000000, -1.000000000000000000, -0.0000000000000000000 ) ) ;
#132 = CARTESIAN_POINT ( 'NONE',  ( 0.0000000000000000000, 8.200539906103289300, 0.0000000000000000000 ) ) ;
#133 = AXIS2_PLACEMENT_3D ( 'NONE', #136, #367, #140 ) ;
#134 = ORIENTED_EDGE ( 'NONE', *, *, #359, .F. ) ;
#135 = CARTESIAN_POINT ( 'NONE',  ( 2.031624584690768300E-016, 2.807168881056380200, 1.658947368421053600 ) ) ;
#136 = CARTESIAN_POINT ( 'NONE',  ( 0.0000000000000000000, 3.707168881056380500, 0.0000000000000000000 ) ) ;
#137 = CARTESIAN_POINT ( 'NONE',  ( 0.0000000000000000000, 5.500000000000000000, -2.524999999999999900 ) ) ;
#138 = ORIENTED_EDGE ( 'NONE', *, *, #210, .F. ) ;
#139 = AXIS2_PLACEMENT_3D ( 'NONE', #179, #120, #282 ) ;
#140 = DIRECTION ( 'NONE',  ( 0.0000000000000000000, 0.0000000000000000000, -1.000000000000000000 ) ) ;
#141 = EDGE_LOOP ( 'NONE', ( #249, #209 ) ) ;
#142 = CARTESIAN_POINT ( 'NONE',  ( 0.0000000000000000000, 0.0000000000000000000, 0.0000000000000000000 ) ) ;
#143 = DIRECTION ( 'NONE',  ( 0.0000000000000000000, 0.0000000000000000000, 1.000000000000000000 ) ) ;
#144 = MECHANICAL_DESIGN_GEOMETRIC_PRESENTATION_REPRESENTATION (  '', ( #155 ), #44 ) ;
#145 = ORIENTED_EDGE ( 'NONE', *, *, #252, .F. ) ;
#146 = AXIS2_PLACEMENT_3D ( 'NONE', #92, #322, #328 ) ;
#147 = PRODUCT_CONTEXT ( 'NONE', #101, 'mechanical' ) ;
#148 = APPLICATION_CONTEXT ( 'automotive_design' ) ;
#149 = APPLICATION_PROTOCOL_DEFINITION ( 'draft international standard', 'automotive_design', 1998, #148 ) ;
#150 = DIRECTION ( 'NONE',  ( -0.0000000000000000000, -1.000000000000000000, -0.0000000000000000000 ) ) ;
#151 = EDGE_LOOP ( 'NONE', ( #319, #128, #88, #292 ) ) ;
#152 = FACE_OUTER_BOUND ( 'NONE', #346, .T. ) ;
#153 = ORIENTED_EDGE ( 'NONE', *, *, #353, .F. ) ;
#154 = VERTEX_POINT ( 'NONE', #137 ) ;
#155 = STYLED_ITEM ( 'NONE', ( #334 ), #107 ) ;
#156 = DIRECTION ( 'NONE',  ( 1.000000000000000000, 0.0000000000000000000, -1.224646799147353200E-016 ) ) ;
#157 = EDGE_CURVE ( 'NONE', #4, #165, #254, .T. ) ;
#158 = DIRECTION ( 'NONE',  ( 0.0000000000000000000, 0.0000000000000000000, -1.000000000000000000 ) ) ;
#159 = AXIS2_PLACEMENT_3D ( 'NONE', #47, #52, #163 ) ;
#160 = AXIS2_PLACEMENT_3D ( 'NONE', #6, #8, #12 ) ;
#161 = TOROIDAL_SURFACE ( 'NONE', #133, 1.658947368421053600, 1.991052631578946300 ) ;
#162 = ORIENTED_EDGE ( 'NONE', *, *, #210, .T. ) ;
#163 = DIRECTION ( 'NONE',  ( 0.0000000000000000000, 0.0000000000000000000, -1.000000000000000000 ) ) ;
#164 = ADVANCED_FACE ( 'NONE', ( #301 ), #295, .T. ) ;
#165 = VERTEX_POINT ( 'NONE', #85 ) ;
#166 = ORIENTED_EDGE ( 'NONE', *, *, #243, .F. ) ;
#167 = EDGE_CURVE ( 'NONE', #90, #217, #82, .T. ) ;
#168 = CIRCLE ( 'NONE', #16, 1.991052631578946300 ) ;
#169 = LINE ( 'NONE', #50, #191 ) ;
#170 = DIRECTION ( 'NONE',  ( -0.0000000000000000000, -1.000000000000000000, -0.0000000000000000000 ) ) ;
#171 = FACE_OUTER_BOUND ( 'NONE', #110, .T. ) ;
#172 = ORIENTED_EDGE ( 'NONE', *, *, #220, .F. ) ;
#173 = EDGE_CURVE ( 'NONE', #355, #53, #313, .T. ) ;
#174 = CIRCLE ( 'NONE', #326, 8.064999999999999500 ) ;
#175 = ORIENTED_EDGE ( 'NONE', *, *, #75, .T. ) ;
#176 = PRODUCT ( '01641-00613MIDG_03_95mm', '01641-00613MIDG_03_95mm', '', ( #147 ) ) ;
#177 = CARTESIAN_POINT ( 'NONE',  ( 0.0000000000000000000, 11.58000000000000200, 0.0000000000000000000 ) ) ;
#178 = DIRECTION ( 'NONE',  ( -0.0000000000000000000, -1.000000000000000000, -0.0000000000000000000 ) ) ;
#179 = CARTESIAN_POINT ( 'NONE',  ( 0.0000000000000000000, 8.200539906103289300, 0.0000000000000000000 ) ) ;
#180 = DIRECTION ( 'NONE',  ( -1.224646799147353200E-016, 0.0000000000000000000, -1.000000000000000000 ) ) ;
#181 = DIRECTION ( 'NONE',  ( 0.0000000000000000000, 0.0000000000000000000, -1.000000000000000000 ) ) ;
#182 = ORIENTED_EDGE ( 'NONE', *, *, #353, .T. ) ;
#183 = CARTESIAN_POINT ( 'NONE',  ( 0.0000000000000000000, 11.58000000000000200, 0.0000000000000000000 ) ) ;
#184 = DIRECTION ( 'NONE',  ( 0.0000000000000000000, 0.0000000000000000000, -1.000000000000000000 ) ) ;
#185 = CIRCLE ( 'NONE', #348, 4.924999999999999800 ) ;
#186 = DIRECTION ( 'NONE',  ( 0.0000000000000000000, 0.0000000000000000000, -1.000000000000000000 ) ) ;
#187 = CARTESIAN_POINT ( 'NONE',  ( 4.924999999999999800, 11.58000000000000200, 0.0000000000000000000 ) ) ;
#188 = EDGE_CURVE ( 'NONE', #195, #214, #169, .T. ) ;
#189 = ADVANCED_FACE ( 'NONE', ( #197 ), #225, .T. ) ;
#190 = AXIS2_PLACEMENT_3D ( 'NONE', #187, #200, #80 ) ;
#191 = VECTOR ( 'NONE', #263, 1000.000000000000000 ) ;
#192 = ORIENTED_EDGE ( 'NONE', *, *, #266, .F. ) ;
#193 = ORIENTED_EDGE ( 'NONE', *, *, #75, .F. ) ;
#194 = TOROIDAL_SURFACE ( 'NONE', #341, 1.658947368421053600, 1.991052631578945400 ) ;
#195 = VERTEX_POINT ( 'NONE', #294 ) ;
#196 = CARTESIAN_POINT ( 'NONE',  ( 0.0000000000000000000, 2.415000000000000000, 0.0000000000000000000 ) ) ;
#197 = FACE_OUTER_BOUND ( 'NONE', #327, .T. ) ;
#198 = DIRECTION ( 'NONE',  ( -0.0000000000000000000, -1.000000000000000000, -0.0000000000000000000 ) ) ;
#199 = CIRCLE ( 'NONE', #333, 1.815331160274324700 ) ;
#200 = DIRECTION ( 'NONE',  ( 0.0000000000000000000, 1.000000000000000000, 0.0000000000000000000 ) ) ;
#201 = ORIENTED_EDGE ( 'NONE', *, *, #220, .T. ) ;
#202 = DIRECTION ( 'NONE',  ( 0.0000000000000000000, 0.0000000000000000000, 1.000000000000000000 ) ) ;
#203 = DIRECTION ( 'NONE',  ( 0.0000000000000000000, -1.000000000000000000, -0.0000000000000000000 ) ) ;
#204 = AXIS2_PLACEMENT_3D ( 'NONE', #29, #178, #181 ) ;
#205 = EDGE_LOOP ( 'NONE', ( #182, #41 ) ) ;
#206 = CIRCLE ( 'NONE', #329, 1.991052631578945400 ) ;
#207 = ORIENTED_EDGE ( 'NONE', *, *, #167, .T. ) ;
#208 = TOROIDAL_SURFACE ( 'NONE', #139, 4.924999999999999800, 3.379460093896712500 ) ;
#209 = ORIENTED_EDGE ( 'NONE', *, *, #272, .F. ) ;
#210 = EDGE_CURVE ( 'NONE', #244, #217, #65, .T. ) ;
#211 = ADVANCED_FACE ( 'NONE', ( #171 ), #208, .T. ) ;
#212 = PRODUCT_RELATED_PRODUCT_CATEGORY ( 'part', '', ( #176 ) ) ;
#213 = CIRCLE ( 'NONE', #146, 3.379460093896712500 ) ;
#214 = VERTEX_POINT ( 'NONE', #290 ) ;
#215 = CARTESIAN_POINT ( 'NONE',  ( 0.0000000000000000000, 0.0000000000000000000, 0.0000000000000000000 ) ) ;
#216 = CIRCLE ( 'NONE', #102, 2.414999999999999600 ) ;
#217 = VERTEX_POINT ( 'NONE', #278 ) ;
#218 = SPHERICAL_SURFACE ( 'NONE', #130, 2.414999999999999600 ) ;
#219 = PRESENTATION_LAYER_ASSIGNMENT (  '', '', ( #155 ) ) ;
#220 = EDGE_CURVE ( 'NONE', #214, #31, #168, .T. ) ;
#221 = AXIS2_PLACEMENT_3D ( 'NONE', #245, #203, #30 ) ;
#222 = CIRCLE ( 'NONE', #239, 1.991052631578946300 ) ;
#223 = DIRECTION ( 'NONE',  ( 0.0000000000000000000, 0.0000000000000000000, -1.000000000000000000 ) ) ;
#224 = AXIS2_PLACEMENT_3D ( 'NONE', #289, #22, #366 ) ;
#225 = TOROIDAL_SURFACE ( 'NONE', #370, 1.658947368421053600, 1.991052631578945400 ) ;
#226 = FACE_OUTER_BOUND ( 'NONE', #205, .T. ) ;
#227 = EDGE_CURVE ( 'NONE', #154, #90, #222, .T. ) ;
#228 = DIRECTION ( 'NONE',  ( 0.0000000000000000000, 0.0000000000000000000, -1.000000000000000000 ) ) ;
#229 = CIRCLE ( 'NONE', #84, 2.524999999999999900 ) ;
#230 = PRODUCT_DEFINITION_FORMATION_WITH_SPECIFIED_SOURCE ( 'ANY', '', #176, .NOT_KNOWN. ) ;
#231 = ORIENTED_EDGE ( 'NONE', *, *, #281, .F. ) ;
#232 =( GEOMETRIC_REPRESENTATION_CONTEXT ( 3 ) GLOBAL_UNCERTAINTY_ASSIGNED_CONTEXT ( ( #1 ) ) GLOBAL_UNIT_ASSIGNED_CONTEXT ( ( #63, #94, #95 ) ) REPRESENTATION_CONTEXT ( 'NONE', 'WORKASPACE' ) );
#233 = EDGE_CURVE ( 'NONE', #165, #5, #354, .T. ) ;
#234 = DIRECTION ( 'NONE',  ( -0.0000000000000000000, -0.0000000000000000000, -1.000000000000000000 ) ) ;
#235 = EDGE_LOOP ( 'NONE', ( #285, #119, #153, #193 ) ) ;
#236 = DIRECTION ( 'NONE',  ( 1.000000000000000000, 0.0000000000000000000, 0.0000000000000000000 ) ) ;
#237 = ORIENTED_EDGE ( 'NONE', *, *, #188, .T. ) ;
#238 = DIRECTION ( 'NONE',  ( -1.000000000000000000, 0.0000000000000000000, 1.224646799147353200E-016 ) ) ;
#239 = AXIS2_PLACEMENT_3D ( 'NONE', #73, #45, #202 ) ;
#240 = ADVANCED_FACE ( 'NONE', ( #152 ), #284, .T. ) ;
#241 = CARTESIAN_POINT ( 'NONE',  ( 0.0000000000000000000, 0.8222671980093240200, 0.0000000000000000000 ) ) ;
#242 =( GEOMETRIC_REPRESENTATION_CONTEXT ( 3 ) GLOBAL_UNCERTAINTY_ASSIGNED_CONTEXT ( ( #271 ) ) GLOBAL_UNIT_ASSIGNED_CONTEXT ( ( #81, #83, #86 ) ) REPRESENTATION_CONTEXT ( 'NONE', 'WORKASPACE' ) );
#243 = EDGE_CURVE ( 'NONE', #154, #214, #246, .T. ) ;
#244 = VERTEX_POINT ( 'NONE', #36 ) ;
#245 = CARTESIAN_POINT ( 'NONE',  ( 2.524999999999999900, 9.449999999999999300, 0.0000000000000000000 ) ) ;
#246 = CIRCLE ( 'NONE', #356, 2.524999999999999900 ) ;
#247 = ORIENTED_EDGE ( 'NONE', *, *, #251, .F. ) ;
#248 = FACE_OUTER_BOUND ( 'NONE', #48, .T. ) ;
#249 = ORIENTED_EDGE ( 'NONE', *, *, #347, .F. ) ;
#250 = CARTESIAN_POINT ( 'NONE',  ( 0.0000000000000000000, 2.807168881056380200, 0.0000000000000000000 ) ) ;
#251 = EDGE_CURVE ( 'NONE', #23, #154, #345, .T. ) ;
#252 = EDGE_CURVE ( 'NONE', #165, #4, #185, .T. ) ;
#253 = CARTESIAN_POINT ( 'NONE',  ( 0.0000000000000000000, 2.415000000000000000, 0.0000000000000000000 ) ) ;
#254 = CIRCLE ( 'NONE', #121, 4.924999999999999800 ) ;
#255 = DIRECTION ( 'NONE',  ( 1.000000000000000000, 0.0000000000000000000, -1.224646799147353200E-016 ) ) ;
#256 = DIRECTION ( 'NONE',  ( -1.000000000000000000, 0.0000000000000000000, 0.0000000000000000000 ) ) ;
#257 = MECHANICAL_DESIGN_GEOMETRIC_PRESENTATION_REPRESENTATION (  '', ( #280 ), #242 ) ;
#258 = ORIENTED_EDGE ( 'NONE', *, *, #227, .F. ) ;
#259 = ORIENTED_EDGE ( 'NONE', *, *, #347, .T. ) ;
#260 = PRESENTATION_STYLE_ASSIGNMENT (( #78 ) ) ;
#261 = DIRECTION ( 'NONE',  ( 0.0000000000000000000, 0.0000000000000000000, 1.000000000000000000 ) ) ;
#262 = DIRECTION ( 'NONE',  ( 0.0000000000000000000, 0.0000000000000000000, -1.000000000000000000 ) ) ;
#263 = DIRECTION ( 'NONE',  ( -0.0000000000000000000, -1.000000000000000000, -0.0000000000000000000 ) ) ;
#264 = PRESENTATION_LAYER_ASSIGNMENT (  '', '', ( #280 ) ) ;
#265 = CARTESIAN_POINT ( 'NONE',  ( 0.0000000000000000000, 5.500000000000000000, 0.0000000000000000000 ) ) ;
#266 = EDGE_CURVE ( 'NONE', #71, #244, #199, .T. ) ;
#267 = DIRECTION ( 'NONE',  ( 0.0000000000000000000, 0.0000000000000000000, -1.000000000000000000 ) ) ;
#268 = EDGE_LOOP ( 'NONE', ( #321, #201, #275, #258 ) ) ;
#269 = CARTESIAN_POINT ( 'NONE',  ( 0.0000000000000000000, 2.415000000000000000, 0.0000000000000000000 ) ) ;
#270 = DIRECTION ( 'NONE',  ( -0.0000000000000000000, -1.000000000000000000, -0.0000000000000000000 ) ) ;
#271 = UNCERTAINTY_MEASURE_WITH_UNIT (LENGTH_MEASURE( 1.000000000000000100E-005 ), #81, 'distance_accuracy_value', 'NONE');
#272 = EDGE_CURVE ( 'NONE', #195, #23, #114, .T. ) ;
#273 = PLANE ( 'NONE',  #221 ) ;
#274 = DIRECTION ( 'NONE',  ( -0.0000000000000000000, -1.000000000000000000, -0.0000000000000000000 ) ) ;
#275 = ORIENTED_EDGE ( 'NONE', *, *, #324, .F. ) ;
#276 = ORIENTED_EDGE ( 'NONE', *, *, #129, .F. ) ;
#277 = ADVANCED_FACE ( 'NONE', ( #360 ), #161, .T. ) ;
#278 = CARTESIAN_POINT ( 'NONE',  ( 0.0000000000000000000, 0.8222671980093240200, -1.815331160274324700 ) ) ;
#279 = CARTESIAN_POINT ( 'NONE',  ( 0.0000000000000000000, 2.807168881056380200, 0.0000000000000000000 ) ) ;
#280 = STYLED_ITEM ( 'NONE', ( #260 ), #364 ) ;
#281 = EDGE_CURVE ( 'NONE', #355, #71, #372, .T. ) ;
#282 = DIRECTION ( 'NONE',  ( 0.0000000000000000000, 0.0000000000000000000, -1.000000000000000000 ) ) ;
#283 = AXIS2_PLACEMENT_3D ( 'NONE', #241, #270, #118 ) ;
#284 = SPHERICAL_SURFACE ( 'NONE', #288, 2.414999999999999600 ) ;
#285 = ORIENTED_EDGE ( 'NONE', *, *, #157, .T. ) ;
#286 = ORIENTED_EDGE ( 'NONE', *, *, #311, .T. ) ;
#287 = ORIENTED_EDGE ( 'NONE', *, *, #188, .F. ) ;
#288 = AXIS2_PLACEMENT_3D ( 'NONE', #196, #234, #117 ) ;
#289 = CARTESIAN_POINT ( 'NONE',  ( 0.0000000000000000000, 0.0000000000000000000, 0.0000000000000000000 ) ) ;
#290 = CARTESIAN_POINT ( 'NONE',  ( 3.749550683206629800E-016, 5.500000000000000000, 2.524999999999999900 ) ) ;
#291 = CIRCLE ( 'NONE', #358, 2.524999999999999900 ) ;
#292 = ORIENTED_EDGE ( 'NONE', *, *, #66, .T. ) ;
#293 = CARTESIAN_POINT ( 'NONE',  ( 0.0000000000000000000, 9.450000000000001100, -8.064999999999999500 ) ) ;
#294 = CARTESIAN_POINT ( 'NONE',  ( 3.092233167847066500E-016, 9.449999999999999300, 2.524999999999999900 ) ) ;
#295 = TOROIDAL_SURFACE ( 'NONE', #305, 4.924999999999999800, 3.379460093896712500 ) ;
#296 = AXIS2_PLACEMENT_3D ( 'NONE', #307, #131, #158 ) ;
#297 = CARTESIAN_POINT ( 'NONE',  ( 0.0000000000000000000, 2.415000000000000000, 0.0000000000000000000 ) ) ;
#298 = CARTESIAN_POINT ( 'NONE',  ( 0.0000000000000000000, 9.449999999999999300, -2.524999999999999900 ) ) ;
#299 = FACE_OUTER_BOUND ( 'NONE', #325, .T. ) ;
#300 = PRODUCT_DEFINITION ( 'UNKNOWN', '', #230, #323 ) ;
#301 = FACE_OUTER_BOUND ( 'NONE', #235, .T. ) ;
#302 = AXIS2_PLACEMENT_3D ( 'NONE', #35, #150, #42 ) ;
#303 = SHAPE_DEFINITION_REPRESENTATION ( #25, #107 ) ;
#304 = CARTESIAN_POINT ( 'NONE',  ( 9.876776435123404100E-016, 9.450000000000001100, 8.064999999999999500 ) ) ;
#305 = AXIS2_PLACEMENT_3D ( 'NONE', #132, #79, #223 ) ;
#306 = CIRCLE ( 'NONE', #160, 3.598480967438468300 ) ;
#307 = CARTESIAN_POINT ( 'NONE',  ( 0.0000000000000000000, 0.8222671980093240200, 0.0000000000000000000 ) ) ;
#308 = CLOSED_SHELL ( 'NONE', ( #164, #310, #277, #331, #240, #99, #189, #357, #76, #11, #211, #43 ) ) ;
#309 = AXIS2_PLACEMENT_3D ( 'NONE', #67, #68, #69 ) ;
#310 = ADVANCED_FACE ( 'NONE', ( #365 ), #339, .T. ) ;
#311 = EDGE_CURVE ( 'NONE', #217, #355, #60, .T. ) ;
#312 = EDGE_CURVE ( 'NONE', #31, #71, #206, .T. ) ;
#313 = CIRCLE ( 'NONE', #58, 2.414999999999999600 ) ;
#314 = CARTESIAN_POINT ( 'NONE',  ( 0.0000000000000000000, 0.8222671980093240200, 0.0000000000000000000 ) ) ;
#315 = ORIENTED_EDGE ( 'NONE', *, *, #252, .T. ) ;
#316 = EDGE_LOOP ( 'NONE', ( #259, #237, #166, #247 ) ) ;
#317 = SURFACE_STYLE_FILL_AREA ( #70 ) ;
#318 = COLOUR_RGB ( '',0.7921568627450980000, 0.8196078431372548800, 0.9333333333333333500 ) ;
#319 = ORIENTED_EDGE ( 'NONE', *, *, #173, .F. ) ;
#320 = ORIENTED_EDGE ( 'NONE', *, *, #167, .F. ) ;
#321 = ORIENTED_EDGE ( 'NONE', *, *, #243, .T. ) ;
#322 = DIRECTION ( 'NONE',  ( -1.000000000000000000, 0.0000000000000000000, 0.0000000000000000000 ) ) ;
#323 = PRODUCT_DEFINITION_CONTEXT ( 'detailed design', #148, 'design' ) ;
#324 = EDGE_CURVE ( 'NONE', #90, #31, #306, .T. ) ;
#325 = EDGE_LOOP ( 'NONE', ( #172, #46, #40, #134 ) ) ;
#326 = AXIS2_PLACEMENT_3D ( 'NONE', #26, #27, #34 ) ;
#327 = EDGE_LOOP ( 'NONE', ( #100, #32, #207, #138, #192 ) ) ;
#328 = DIRECTION ( 'NONE',  ( 0.0000000000000000000, 0.0000000000000000000, 1.000000000000000000 ) ) ;
#329 = AXIS2_PLACEMENT_3D ( 'NONE', #135, #2, #3 ) ;
#330 = CARTESIAN_POINT ( 'NONE',  ( 3.315003846694297000E-016, 0.8222671980093240200, 1.815331160274324700 ) ) ;
#331 = ADVANCED_FACE ( 'NONE', ( #351 ), #194, .T. ) ;
#332 = DIRECTION ( 'NONE',  ( 1.000000000000000000, 0.0000000000000000000, 0.0000000000000000000 ) ) ;
#333 = AXIS2_PLACEMENT_3D ( 'NONE', #314, #350, #369 ) ;
#334 = PRESENTATION_STYLE_ASSIGNMENT (( #115 ) ) ;
#335 = AXIS2_PLACEMENT_3D ( 'NONE', #142, #143, #332 ) ;
#336 = SURFACE_STYLE_FILL_AREA ( #108 ) ;
#337 = DIRECTION ( 'NONE',  ( -1.224646799147353200E-016, 0.0000000000000000000, -1.000000000000000000 ) ) ;
#338 = COLOUR_RGB ( '',0.7921568627450980000, 0.8196078431372548800, 0.9333333333333333500 ) ;
#339 = CYLINDRICAL_SURFACE ( 'NONE', #224, 2.524999999999999900 ) ;
#340 = CARTESIAN_POINT ( 'NONE',  ( 0.0000000000000000000, 0.8222671980093240200, 0.0000000000000000000 ) ) ;
#341 = AXIS2_PLACEMENT_3D ( 'NONE', #279, #371, #13 ) ;
#342 = FACE_OUTER_BOUND ( 'NONE', #151, .T. ) ;
#343 = AXIS2_PLACEMENT_3D ( 'NONE', #109, #156, #180 ) ;
#344 = CARTESIAN_POINT ( 'NONE',  ( 0.0000000000000000000, 5.500000000000000000, 0.0000000000000000000 ) ) ;
#345 = LINE ( 'NONE', #38, #122 ) ;
#346 = EDGE_LOOP ( 'NONE', ( #162, #286, #51, #361 ) ) ;
#347 = EDGE_CURVE ( 'NONE', #23, #195, #291, .T. ) ;
#348 = AXIS2_PLACEMENT_3D ( 'NONE', #183, #123, #228 ) ;
#349 = DIRECTION ( 'NONE',  ( -0.0000000000000000000, -1.000000000000000000, -0.0000000000000000000 ) ) ;
#350 = DIRECTION ( 'NONE',  ( -0.0000000000000000000, -1.000000000000000000, -0.0000000000000000000 ) ) ;
#351 = FACE_OUTER_BOUND ( 'NONE', #105, .T. ) ;
#352 = DIRECTION ( 'NONE',  ( 0.0000000000000000000, 0.0000000000000000000, -1.000000000000000000 ) ) ;
#353 = EDGE_CURVE ( 'NONE', #10, #5, #174, .T. ) ;
#354 = CIRCLE ( 'NONE', #343, 3.379460093896712500 ) ;
#355 = VERTEX_POINT ( 'NONE', #18 ) ;
#356 = AXIS2_PLACEMENT_3D ( 'NONE', #265, #349, #267 ) ;
#357 = ADVANCED_FACE ( 'NONE', ( #299 ), #72, .T. ) ;
#358 = AXIS2_PLACEMENT_3D ( 'NONE', #113, #96, #21 ) ;
#359 = EDGE_CURVE ( 'NONE', #31, #90, #98, .T. ) ;
#360 = FACE_OUTER_BOUND ( 'NONE', #268, .T. ) ;
#361 = ORIENTED_EDGE ( 'NONE', *, *, #66, .F. ) ;
#362 = CYLINDRICAL_SURFACE ( 'NONE', #93, 2.524999999999999900 ) ;
#363 = DIRECTION ( 'NONE',  ( -0.0000000000000000000, -1.000000000000000000, -0.0000000000000000000 ) ) ;
#364 = MANIFOLD_SOLID_BREP ( 'Revolve1', #308 ) ;
#365 = FACE_OUTER_BOUND ( 'NONE', #316, .T. ) ;
#366 = DIRECTION ( 'NONE',  ( 0.0000000000000000000, 0.0000000000000000000, -1.000000000000000000 ) ) ;
#367 = DIRECTION ( 'NONE',  ( -0.0000000000000000000, -1.000000000000000000, -0.0000000000000000000 ) ) ;
#368 = CARTESIAN_POINT ( 'NONE',  ( -1.478761009970428900E-016, 4.336808689942017700E-016, 0.0000000000000000000 ) ) ;
#369 = DIRECTION ( 'NONE',  ( 0.0000000000000000000, 0.0000000000000000000, -1.000000000000000000 ) ) ;
#370 = AXIS2_PLACEMENT_3D ( 'NONE', #250, #363, #28 ) ;
#371 = DIRECTION ( 'NONE',  ( -0.0000000000000000000, -1.000000000000000000, -0.0000000000000000000 ) ) ;
#372 = CIRCLE ( 'NONE', #296, 1.815331160274324700 ) ;
ENDSEC;
END-ISO-10303-21;
