ISO-10303-21;
HEADER;
FILE_DESCRIPTION (( 'STEP AP214' ),
    '1' );
FILE_NAME ('01641-00613MAXG_03_95mm.STEP',
    '2016-04-28T12:56:33',
    ( '' ),
    ( '' ),
    'SwSTEP 2.0',
    'SolidWorks 2015',
    '' );
FILE_SCHEMA (( 'AUTOMOTIVE_DESIGN' ));
ENDSEC;

DATA;
#1 = DIRECTION ( 'NONE',  ( -0.0000000000000000000, -1.000000000000000000, -0.0000000000000000000 ) ) ;
#2 = PRESENTATION_LAYER_ASSIGNMENT (  '', '', ( #320 ) ) ;
#3 = TOROIDAL_SURFACE ( 'NONE', #307, 4.924999999999999800, 3.379460093896713000 ) ;
#4 = CARTESIAN_POINT ( 'NONE',  ( 0.0000000000000000000, 10.55053990610328700, 0.0000000000000000000 ) ) ;
#5 = ORIENTED_EDGE ( 'NONE', *, *, #47, .F. ) ;
#6 = APPLICATION_CONTEXT ( 'automotive_design' ) ;
#7 = DIRECTION ( 'NONE',  ( 0.0000000000000000000, 0.0000000000000000000, -1.000000000000000000 ) ) ;
#8 = DIRECTION ( 'NONE',  ( -0.0000000000000000000, -1.000000000000000000, -0.0000000000000000000 ) ) ;
#9 = DIRECTION ( 'NONE',  ( 0.0000000000000000000, 0.0000000000000000000, -1.000000000000000000 ) ) ;
#10 = DIRECTION ( 'NONE',  ( -1.224646799147353200E-016, 0.0000000000000000000, -1.000000000000000000 ) ) ;
#11 = DIRECTION ( 'NONE',  ( -0.0000000000000000000, -1.000000000000000000, -0.0000000000000000000 ) ) ;
#12 = SURFACE_SIDE_STYLE ('',( #110 ) ) ;
#13 = EDGE_CURVE ( 'NONE', #192, #203, #242, .T. ) ;
#14 = FACE_OUTER_BOUND ( 'NONE', #113, .T. ) ;
#15 = EDGE_CURVE ( 'NONE', #151, #180, #219, .T. ) ;
#16 = DIRECTION ( 'NONE',  ( 0.0000000000000000000, 0.0000000000000000000, -1.000000000000000000 ) ) ;
#17 = AXIS2_PLACEMENT_3D ( 'NONE', #258, #147, #135 ) ;
#18 = COLOUR_RGB ( '',0.7921568627450980000, 0.8196078431372548800, 0.9333333333333333500 ) ;
#19 = PRODUCT_DEFINITION_SHAPE ( 'NONE', 'NONE',  #58 ) ;
#20 = CARTESIAN_POINT ( 'NONE',  ( 0.0000000000000000000, 3.257168881056379000, -3.598480967438468300 ) ) ;
#21 = DIRECTION ( 'NONE',  ( 0.0000000000000000000, -1.000000000000000000, -0.0000000000000000000 ) ) ;
#22 = ADVANCED_FACE ( 'NONE', ( #188, #231 ), #335, .T. ) ;
#23 = CARTESIAN_POINT ( 'NONE',  ( 0.0000000000000000000, 13.93000000000000000, 0.0000000000000000000 ) ) ;
#24 = CIRCLE ( 'NONE', #274, 3.598480967438468300 ) ;
#25 = SHAPE_DEFINITION_REPRESENTATION ( #19, #96 ) ;
#26 = CARTESIAN_POINT ( 'NONE',  ( 0.0000000000000000000, 2.415000000000000000, 0.0000000000000000000 ) ) ;
#27 = CARTESIAN_POINT ( 'NONE',  ( 0.0000000000000000000, 2.415000000000000000, 0.0000000000000000000 ) ) ;
#28 = VERTEX_POINT ( 'NONE', #39 ) ;
#29 = DIRECTION ( 'NONE',  ( 0.0000000000000000000, 0.0000000000000000000, -1.000000000000000000 ) ) ;
#30 = CARTESIAN_POINT ( 'NONE',  ( 0.0000000000000000000, 11.79999999999999900, 0.0000000000000000000 ) ) ;
#31 = DIRECTION ( 'NONE',  ( -0.0000000000000000000, -1.000000000000000000, -0.0000000000000000000 ) ) ;
#32 = CIRCLE ( 'NONE', #224, 8.064999999999999500 ) ;
#33 = SPHERICAL_SURFACE ( 'NONE', #271, 2.414999999999999600 ) ;
#34 = CARTESIAN_POINT ( 'NONE',  ( 3.092233167847066500E-016, 0.0000000000000000000, 2.524999999999999900 ) ) ;
#35 = CARTESIAN_POINT ( 'NONE',  ( 0.0000000000000000000, 13.93000000000000000, 0.0000000000000000000 ) ) ;
#36 = CIRCLE ( 'NONE', #107, 8.064999999999999500 ) ;
#37 = DIRECTION ( 'NONE',  ( 0.0000000000000000000, 0.0000000000000000000, -1.000000000000000000 ) ) ;
#38 = EDGE_CURVE ( 'NONE', #203, #346, #299, .T. ) ;
#39 = CARTESIAN_POINT ( 'NONE',  ( 3.749550683206629800E-016, 5.500000000000000000, 2.524999999999999900 ) ) ;
#40 = EDGE_CURVE ( 'NONE', #142, #341, #302, .T. ) ;
#41 = MECHANICAL_DESIGN_GEOMETRIC_PRESENTATION_REPRESENTATION (  '', ( #320 ), #129 ) ;
#42 = DIRECTION ( 'NONE',  ( -1.224646799147353200E-016, 0.0000000000000000000, -1.000000000000000000 ) ) ;
#43 = DIRECTION ( 'NONE',  ( -0.0000000000000000000, -1.000000000000000000, -0.0000000000000000000 ) ) ;
#44 = SURFACE_STYLE_USAGE ( .BOTH. , #12 ) ;
#45 = DIRECTION ( 'NONE',  ( 0.0000000000000000000, 0.0000000000000000000, -1.000000000000000000 ) ) ;
#46 = ADVANCED_FACE ( 'NONE', ( #293 ), #326, .T. ) ;
#47 = EDGE_CURVE ( 'NONE', #368, #162, #333, .T. ) ;
#48 = PRODUCT_CONTEXT ( 'NONE', #319, 'mechanical' ) ;
#49 = CARTESIAN_POINT ( 'NONE',  ( 0.0000000000000000000, 5.500000000000000000, 0.0000000000000000000 ) ) ;
#50 = FACE_OUTER_BOUND ( 'NONE', #221, .T. ) ;
#51 = SURFACE_STYLE_FILL_AREA ( #68 ) ;
#52 = DIRECTION ( 'NONE',  ( 0.0000000000000000000, 0.0000000000000000000, -1.000000000000000000 ) ) ;
#53 = AXIS2_PLACEMENT_3D ( 'NONE', #92, #240, #37 ) ;
#54 = DIRECTION ( 'NONE',  ( 0.0000000000000000000, 0.0000000000000000000, -1.000000000000000000 ) ) ;
#55 = CARTESIAN_POINT ( 'NONE',  ( 0.0000000000000000000, 3.707168881056380500, 0.0000000000000000000 ) ) ;
#56 = PRESENTATION_STYLE_ASSIGNMENT (( #136 ) ) ;
#57 = EDGE_CURVE ( 'NONE', #368, #151, #291, .T. ) ;
#58 = PRODUCT_DEFINITION ( 'UNKNOWN', '', #81, #220 ) ;
#59 = CARTESIAN_POINT ( 'NONE',  ( 2.031624584690768300E-016, 3.707168881056380500, 1.658947368421053600 ) ) ;
#60 = FILL_AREA_STYLE_COLOUR ( '', #18 ) ;
#61 = CIRCLE ( 'NONE', #95, 2.524999999999999900 ) ;
#62 = CARTESIAN_POINT ( 'NONE',  ( -1.815331160274325000, 0.8222671980093240200, 0.0000000000000000000 ) ) ;
#63 = CARTESIAN_POINT ( 'NONE',  ( 0.0000000000000000000, 0.8222671980093240200, 0.0000000000000000000 ) ) ;
#64 = CIRCLE ( 'NONE', #328, 1.991052631578946300 ) ;
#65 = DIRECTION ( 'NONE',  ( -0.0000000000000000000, -1.000000000000000000, -0.0000000000000000000 ) ) ;
#66 = CARTESIAN_POINT ( 'NONE',  ( 0.0000000000000000000, 2.807168881056380200, -1.658947368421053600 ) ) ;
#67 = PRESENTATION_LAYER_ASSIGNMENT (  '', '', ( #88 ) ) ;
#68 = FILL_AREA_STYLE ('',( #60 ) ) ;
#69 = ORIENTED_EDGE ( 'NONE', *, *, #200, .F. ) ;
#70 = ADVANCED_FACE ( 'NONE', ( #93 ), #157, .T. ) ;
#71 = DIRECTION ( 'NONE',  ( 0.0000000000000000000, 0.0000000000000000000, -1.000000000000000000 ) ) ;
#72 = PRODUCT_RELATED_PRODUCT_CATEGORY ( 'part', '', ( #160 ) ) ;
#73 = CIRCLE ( 'NONE', #358, 1.815331160274324700 ) ;
#74 = EDGE_LOOP ( 'NONE', ( #5, #272, #214, #331 ) ) ;
#75 = DIRECTION ( 'NONE',  ( -0.0000000000000000000, -1.000000000000000000, -0.0000000000000000000 ) ) ;
#76 = DIRECTION ( 'NONE',  ( 0.0000000000000000000, 0.0000000000000000000, 1.000000000000000000 ) ) ;
#77 = CARTESIAN_POINT ( 'NONE',  ( 0.0000000000000000000, 10.55053990610328700, 0.0000000000000000000 ) ) ;
#78 = AXIS2_PLACEMENT_3D ( 'NONE', #311, #125, #42 ) ;
#79 = ORIENTED_EDGE ( 'NONE', *, *, #289, .F. ) ;
#80 = ORIENTED_EDGE ( 'NONE', *, *, #13, .F. ) ;
#81 = PRODUCT_DEFINITION_FORMATION_WITH_SPECIFIED_SOURCE ( 'ANY', '', #160, .NOT_KNOWN. ) ;
#82 = CARTESIAN_POINT ( 'NONE',  ( 0.0000000000000000000, 11.79999999999999900, -2.524999999999999900 ) ) ;
#83 = CARTESIAN_POINT ( 'NONE',  ( 0.0000000000000000000, 11.80000000000000100, 0.0000000000000000000 ) ) ;
#84 = CIRCLE ( 'NONE', #137, 1.815331160274324700 ) ;
#85 = DIRECTION ( 'NONE',  ( -0.0000000000000000000, -1.000000000000000000, -0.0000000000000000000 ) ) ;
#86 = ORIENTED_EDGE ( 'NONE', *, *, #294, .T. ) ;
#87 = CARTESIAN_POINT ( 'NONE',  ( 0.0000000000000000000, 11.79999999999999900, 0.0000000000000000000 ) ) ;
#88 = STYLED_ITEM ( 'NONE', ( #284 ), #363 ) ;
#89 = CARTESIAN_POINT ( 'NONE',  ( 0.0000000000000000000, 5.500000000000000000, 0.0000000000000000000 ) ) ;
#90 = CARTESIAN_POINT ( 'NONE',  ( 0.0000000000000000000, 0.8222671980093240200, 0.0000000000000000000 ) ) ;
#91 = UNCERTAINTY_MEASURE_WITH_UNIT (LENGTH_MEASURE( 1.000000000000000100E-005 ), #348, 'distance_accuracy_value', 'NONE');
#92 = CARTESIAN_POINT ( 'NONE',  ( 0.0000000000000000000, 0.0000000000000000000, 0.0000000000000000000 ) ) ;
#93 = FACE_OUTER_BOUND ( 'NONE', #173, .T. ) ;
#94 = SPHERICAL_SURFACE ( 'NONE', #190, 2.414999999999999600 ) ;
#95 = AXIS2_PLACEMENT_3D ( 'NONE', #30, #31, #342 ) ;
#96 = ADVANCED_BREP_SHAPE_REPRESENTATION ( '01641-00613MAXG_03_95mm', ( #363, #99 ), #211 ) ;
#97 = CARTESIAN_POINT ( 'NONE',  ( 0.0000000000000000000, 3.707168881056380500, 0.0000000000000000000 ) ) ;
#98 = EDGE_LOOP ( 'NONE', ( #247, #323 ) ) ;
#99 = AXIS2_PLACEMENT_3D ( 'NONE', #164, #253, #171 ) ;
#100 = CARTESIAN_POINT ( 'NONE',  ( 4.924999999999999800, 13.93000000000000000, 0.0000000000000000000 ) ) ;
#101 = CARTESIAN_POINT ( 'NONE',  ( 6.031385485800714100E-016, 10.55053990610328700, 4.924999999999999800 ) ) ;
#102 = UNCERTAINTY_MEASURE_WITH_UNIT (LENGTH_MEASURE( 1.000000000000000100E-005 ), #353, 'distance_accuracy_value', 'NONE');
#103 = CARTESIAN_POINT ( 'NONE',  ( 0.0000000000000000000, 11.80000000000000100, 0.0000000000000000000 ) ) ;
#104 = DIRECTION ( 'NONE',  ( 1.000000000000000000, 0.0000000000000000000, 0.0000000000000000000 ) ) ;
#105 = ORIENTED_EDGE ( 'NONE', *, *, #329, .T. ) ;
#106 = VERTEX_POINT ( 'NONE', #246 ) ;
#107 = AXIS2_PLACEMENT_3D ( 'NONE', #83, #349, #45 ) ;
#108 = ORIENTED_EDGE ( 'NONE', *, *, #228, .F. ) ;
#109 = EDGE_CURVE ( 'NONE', #142, #312, #61, .T. ) ;
#110 = SURFACE_STYLE_FILL_AREA ( #295 ) ;
#111 = DIRECTION ( 'NONE',  ( 0.0000000000000000000, 0.0000000000000000000, -1.000000000000000000 ) ) ;
#112 = CARTESIAN_POINT ( 'NONE',  ( 3.092233167847066500E-016, 11.79999999999999900, 2.524999999999999900 ) ) ;
#113 = EDGE_LOOP ( 'NONE', ( #372, #155, #298, #273, #139 ) ) ;
#114 = DIRECTION ( 'NONE',  ( 0.0000000000000000000, 0.0000000000000000000, -1.000000000000000000 ) ) ;
#115 = EDGE_CURVE ( 'NONE', #192, #151, #306, .T. ) ;
#116 = VERTEX_POINT ( 'NONE', #267 ) ;
#117 = EDGE_CURVE ( 'NONE', #346, #368, #73, .T. ) ;
#118 = DIRECTION ( 'NONE',  ( -0.0000000000000000000, -1.000000000000000000, -0.0000000000000000000 ) ) ;
#119 = ORIENTED_EDGE ( 'NONE', *, *, #288, .F. ) ;
#120 = AXIS2_PLACEMENT_3D ( 'NONE', #226, #222, #54 ) ;
#121 = CLOSED_SHELL ( 'NONE', ( #128, #278, #70, #364, #308, #338, #46, #248, #225, #22, #163, #186 ) ) ;
#122 = CARTESIAN_POINT ( 'NONE',  ( -1.478761009970428900E-016, 4.336808689942017700E-016, 0.0000000000000000000 ) ) ;
#123 = VECTOR ( 'NONE', #118, 1000.000000000000000 ) ;
#124 = CYLINDRICAL_SURFACE ( 'NONE', #201, 2.524999999999999900 ) ;
#125 = DIRECTION ( 'NONE',  ( 1.000000000000000000, 0.0000000000000000000, -1.224646799147353200E-016 ) ) ;
#126 = EDGE_CURVE ( 'NONE', #203, #192, #24, .T. ) ;
#127 = ORIENTED_EDGE ( 'NONE', *, *, #243, .F. ) ;
#128 = ADVANCED_FACE ( 'NONE', ( #187 ), #179, .T. ) ;
#129 =( GEOMETRIC_REPRESENTATION_CONTEXT ( 3 ) GLOBAL_UNCERTAINTY_ASSIGNED_CONTEXT ( ( #91 ) ) GLOBAL_UNIT_ASSIGNED_CONTEXT ( ( #348, #227, #138 ) ) REPRESENTATION_CONTEXT ( 'NONE', 'WORKASPACE' ) );
#130 = DIRECTION ( 'NONE',  ( 1.000000000000000000, 0.0000000000000000000, -1.224646799147353200E-016 ) ) ;
#131 = ORIENTED_EDGE ( 'NONE', *, *, #40, .F. ) ;
#132 = EDGE_LOOP ( 'NONE', ( #313, #198, #292, #297, #154 ) ) ;
#133 = CARTESIAN_POINT ( 'NONE',  ( 1.815331160274325000, 0.8222671980093240200, -2.223139494822402500E-016 ) ) ;
#134 = ORIENTED_EDGE ( 'NONE', *, *, #40, .T. ) ;
#135 = DIRECTION ( 'NONE',  ( 0.0000000000000000000, 0.0000000000000000000, 1.000000000000000000 ) ) ;
#136 = SURFACE_STYLE_USAGE ( .BOTH. , #150 ) ;
#137 = AXIS2_PLACEMENT_3D ( 'NONE', #204, #75, #275 ) ;
#138 =( NAMED_UNIT ( * ) SI_UNIT ( $, .STERADIAN. ) SOLID_ANGLE_UNIT ( ) );
#139 = ORIENTED_EDGE ( 'NONE', *, *, #38, .F. ) ;
#140 = EDGE_LOOP ( 'NONE', ( #209, #233, #208, #131 ) ) ;
#141 = DIRECTION ( 'NONE',  ( 0.0000000000000000000, -0.0000000000000000000, 1.000000000000000000 ) ) ;
#142 = VERTEX_POINT ( 'NONE', #82 ) ;
#143 =( NAMED_UNIT ( * ) PLANE_ANGLE_UNIT ( ) SI_UNIT ( $, .RADIAN. ) );
#144 = DIRECTION ( 'NONE',  ( -0.0000000000000000000, -1.000000000000000000, -0.0000000000000000000 ) ) ;
#145 = DIRECTION ( 'NONE',  ( 0.0000000000000000000, 0.0000000000000000000, -1.000000000000000000 ) ) ;
#146 = TOROIDAL_SURFACE ( 'NONE', #169, 1.658947368421053600, 1.991052631578946300 ) ;
#147 = DIRECTION ( 'NONE',  ( -1.000000000000000000, 0.0000000000000000000, 0.0000000000000000000 ) ) ;
#148 = CARTESIAN_POINT ( 'NONE',  ( 0.0000000000000000000, 0.0000000000000000000, -2.524999999999999900 ) ) ;
#149 = AXIS2_PLACEMENT_3D ( 'NONE', #283, #21, #249 ) ;
#150 = SURFACE_SIDE_STYLE ('',( #51 ) ) ;
#151 = VERTEX_POINT ( 'NONE', #176 ) ;
#152 = DIRECTION ( 'NONE',  ( -1.000000000000000000, 0.0000000000000000000, 0.0000000000000000000 ) ) ;
#153 = DIRECTION ( 'NONE',  ( -1.224646799147353200E-016, 0.0000000000000000000, -1.000000000000000000 ) ) ;
#154 = ORIENTED_EDGE ( 'NONE', *, *, #15, .F. ) ;
#155 = ORIENTED_EDGE ( 'NONE', *, *, #115, .T. ) ;
#156 = FACE_OUTER_BOUND ( 'NONE', #251, .T. ) ;
#157 = TOROIDAL_SURFACE ( 'NONE', #325, 1.658947368421053600, 1.991052631578946300 ) ;
#158 = AXIS2_PLACEMENT_3D ( 'NONE', #100, #210, #141 ) ;
#159 = EDGE_CURVE ( 'NONE', #312, #142, #191, .T. ) ;
#160 = PRODUCT ( '01641-00613MAXG_03_95mm', '01641-00613MAXG_03_95mm', '', ( #48 ) ) ;
#161 = ORIENTED_EDGE ( 'NONE', *, *, #243, .T. ) ;
#162 = VERTEX_POINT ( 'NONE', #122 ) ;
#163 = ADVANCED_FACE ( 'NONE', ( #156 ), #3, .T. ) ;
#164 = CARTESIAN_POINT ( 'NONE',  ( 0.0000000000000000000, 0.0000000000000000000, 0.0000000000000000000 ) ) ;
#165 = EDGE_LOOP ( 'NONE', ( #184, #357, #322, #80 ) ) ;
#166 = CIRCLE ( 'NONE', #172, 4.924999999999999800 ) ;
#167 = DIRECTION ( 'NONE',  ( -0.0000000000000000000, -1.000000000000000000, -0.0000000000000000000 ) ) ;
#168 = DIRECTION ( 'NONE',  ( 0.0000000000000000000, 0.0000000000000000000, -1.000000000000000000 ) ) ;
#169 = AXIS2_PLACEMENT_3D ( 'NONE', #97, #85, #52 ) ;
#170 = DIRECTION ( 'NONE',  ( -0.0000000000000000000, -1.000000000000000000, -0.0000000000000000000 ) ) ;
#171 = DIRECTION ( 'NONE',  ( 1.000000000000000000, 0.0000000000000000000, 0.0000000000000000000 ) ) ;
#172 = AXIS2_PLACEMENT_3D ( 'NONE', #23, #355, #9 ) ;
#173 = EDGE_LOOP ( 'NONE', ( #105, #279, #205, #321 ) ) ;
#174 = DIRECTION ( 'NONE',  ( -1.224646799147353200E-016, 0.0000000000000000000, -1.000000000000000000 ) ) ;
#175 = AXIS2_PLACEMENT_3D ( 'NONE', #290, #199, #16 ) ;
#176 = CARTESIAN_POINT ( 'NONE',  ( 3.315003846694297000E-016, 0.8222671980093240200, 1.815331160274324700 ) ) ;
#177 = EDGE_LOOP ( 'NONE', ( #223, #237, #134, #79 ) ) ;
#178 = CIRCLE ( 'NONE', #286, 4.924999999999999800 ) ;
#179 = TOROIDAL_SURFACE ( 'NONE', #337, 4.924999999999999800, 3.379460093896713000 ) ;
#180 = VERTEX_POINT ( 'NONE', #62 ) ;
#181 = DIRECTION ( 'NONE',  ( -0.0000000000000000000, -1.000000000000000000, -0.0000000000000000000 ) ) ;
#182 = AXIS2_PLACEMENT_3D ( 'NONE', #260, #343, #76 ) ;
#183 = DIRECTION ( 'NONE',  ( 0.0000000000000000000, 0.0000000000000000000, -1.000000000000000000 ) ) ;
#184 = ORIENTED_EDGE ( 'NONE', *, *, #345, .F. ) ;
#185 = LINE ( 'NONE', #34, #123 ) ;
#186 = ADVANCED_FACE ( 'NONE', ( #50 ), #218, .T. ) ;
#187 = FACE_OUTER_BOUND ( 'NONE', #197, .T. ) ;
#188 = FACE_OUTER_BOUND ( 'NONE', #309, .T. ) ;
#189 = DIRECTION ( 'NONE',  ( 1.000000000000000000, 0.0000000000000000000, -1.224646799147353200E-016 ) ) ;
#190 = AXIS2_PLACEMENT_3D ( 'NONE', #27, #194, #330 ) ;
#191 = CIRCLE ( 'NONE', #296, 2.524999999999999900 ) ;
#192 = VERTEX_POINT ( 'NONE', #268 ) ;
#193 = CARTESIAN_POINT ( 'NONE',  ( 0.0000000000000000000, 0.8222671980093240200, -1.815331160274324700 ) ) ;
#194 = DIRECTION ( 'NONE',  ( -0.0000000000000000000, -0.0000000000000000000, -1.000000000000000000 ) ) ;
#195 = APPLICATION_PROTOCOL_DEFINITION ( 'draft international standard', 'automotive_design', 1998, #6 ) ;
#196 = ORIENTED_EDGE ( 'NONE', *, *, #359, .T. ) ;
#197 = EDGE_LOOP ( 'NONE', ( #217, #362, #250, #127 ) ) ;
#198 = ORIENTED_EDGE ( 'NONE', *, *, #13, .T. ) ;
#199 = DIRECTION ( 'NONE',  ( -0.0000000000000000000, -1.000000000000000000, -0.0000000000000000000 ) ) ;
#200 = EDGE_CURVE ( 'NONE', #180, #162, #202, .T. ) ;
#201 = AXIS2_PLACEMENT_3D ( 'NONE', #324, #256, #111 ) ;
#202 = CIRCLE ( 'NONE', #265, 2.414999999999999600 ) ;
#203 = VERTEX_POINT ( 'NONE', #20 ) ;
#204 = CARTESIAN_POINT ( 'NONE',  ( 0.0000000000000000000, 0.8222671980093240200, 0.0000000000000000000 ) ) ;
#205 = ORIENTED_EDGE ( 'NONE', *, *, #126, .F. ) ;
#206 = CARTESIAN_POINT ( 'NONE',  ( 7.954080960462058600E-016, 13.93000000000000000, 4.924999999999999800 ) ) ;
#207 = EDGE_CURVE ( 'NONE', #312, #28, #185, .T. ) ;
#208 = ORIENTED_EDGE ( 'NONE', *, *, #329, .F. ) ;
#209 = ORIENTED_EDGE ( 'NONE', *, *, #109, .T. ) ;
#210 = DIRECTION ( 'NONE',  ( 0.0000000000000000000, 1.000000000000000000, 0.0000000000000000000 ) ) ;
#211 =( GEOMETRIC_REPRESENTATION_CONTEXT ( 3 ) GLOBAL_UNCERTAINTY_ASSIGNED_CONTEXT ( ( #102 ) ) GLOBAL_UNIT_ASSIGNED_CONTEXT ( ( #353, #143, #257 ) ) REPRESENTATION_CONTEXT ( 'NONE', 'WORKASPACE' ) );
#212 = ORIENTED_EDGE ( 'NONE', *, *, #47, .T. ) ;
#213 = EDGE_CURVE ( 'NONE', #327, #106, #236, .T. ) ;
#214 = ORIENTED_EDGE ( 'NONE', *, *, #15, .T. ) ;
#215 = AXIS2_PLACEMENT_3D ( 'NONE', #262, #153, #314 ) ;
#216 = DIRECTION ( 'NONE',  ( -0.0000000000000000000, 0.0000000000000000000, 1.000000000000000000 ) ) ;
#217 = ORIENTED_EDGE ( 'NONE', *, *, #288, .T. ) ;
#218 = PLANE ( 'NONE',  #158 ) ;
#219 = CIRCLE ( 'NONE', #269, 1.815331160274324700 ) ;
#220 = PRODUCT_DEFINITION_CONTEXT ( 'detailed design', #6, 'design' ) ;
#221 = EDGE_LOOP ( 'NONE', ( #119, #347 ) ) ;
#222 = DIRECTION ( 'NONE',  ( -0.0000000000000000000, -1.000000000000000000, -0.0000000000000000000 ) ) ;
#223 = ORIENTED_EDGE ( 'NONE', *, *, #207, .F. ) ;
#224 = AXIS2_PLACEMENT_3D ( 'NONE', #103, #181, #145 ) ;
#225 = ADVANCED_FACE ( 'NONE', ( #339 ), #336, .T. ) ;
#226 = CARTESIAN_POINT ( 'NONE',  ( 0.0000000000000000000, 3.257168881056379000, 0.0000000000000000000 ) ) ;
#227 =( NAMED_UNIT ( * ) PLANE_ANGLE_UNIT ( ) SI_UNIT ( $, .RADIAN. ) );
#228 = EDGE_CURVE ( 'NONE', #106, #116, #36, .T. ) ;
#229 = ORIENTED_EDGE ( 'NONE', *, *, #117, .T. ) ;
#230 = FACE_OUTER_BOUND ( 'NONE', #140, .T. ) ;
#231 = FACE_BOUND ( 'NONE', #98, .T. ) ;
#232 = DIRECTION ( 'NONE',  ( -0.0000000000000000000, -1.000000000000000000, -0.0000000000000000000 ) ) ;
#233 = ORIENTED_EDGE ( 'NONE', *, *, #207, .T. ) ;
#234 =( GEOMETRIC_REPRESENTATION_CONTEXT ( 3 ) GLOBAL_UNCERTAINTY_ASSIGNED_CONTEXT ( ( #304 ) ) GLOBAL_UNIT_ASSIGNED_CONTEXT ( ( #266, #285, #276 ) ) REPRESENTATION_CONTEXT ( 'NONE', 'WORKASPACE' ) );
#235 = DIRECTION ( 'NONE',  ( -0.0000000000000000000, -1.000000000000000000, -0.0000000000000000000 ) ) ;
#236 = CIRCLE ( 'NONE', #315, 3.379460093896713000 ) ;
#237 = ORIENTED_EDGE ( 'NONE', *, *, #159, .T. ) ;
#238 = CIRCLE ( 'NONE', #254, 2.524999999999999900 ) ;
#239 = EDGE_LOOP ( 'NONE', ( #196, #229, #212, #69 ) ) ;
#240 = DIRECTION ( 'NONE',  ( -0.0000000000000000000, -1.000000000000000000, -0.0000000000000000000 ) ) ;
#241 = ORIENTED_EDGE ( 'NONE', *, *, #332, .T. ) ;
#242 = CIRCLE ( 'NONE', #120, 3.598480967438468300 ) ;
#243 = EDGE_CURVE ( 'NONE', #264, #116, #281, .T. ) ;
#244 = AXIS2_PLACEMENT_3D ( 'NONE', #49, #232, #7 ) ;
#245 = FILL_AREA_STYLE_COLOUR ( '', #287 ) ;
#246 = CARTESIAN_POINT ( 'NONE',  ( 9.876776435123404100E-016, 11.80000000000000100, 8.064999999999999500 ) ) ;
#247 = ORIENTED_EDGE ( 'NONE', *, *, #109, .F. ) ;
#248 = ADVANCED_FACE ( 'NONE', ( #351 ), #146, .T. ) ;
#249 = DIRECTION ( 'NONE',  ( 0.0000000000000000000, 0.0000000000000000000, -1.000000000000000000 ) ) ;
#250 = ORIENTED_EDGE ( 'NONE', *, *, #294, .F. ) ;
#251 = EDGE_LOOP ( 'NONE', ( #340, #241, #161, #108 ) ) ;
#252 = DIRECTION ( 'NONE',  ( 0.0000000000000000000, 0.0000000000000000000, -1.000000000000000000 ) ) ;
#253 = DIRECTION ( 'NONE',  ( 0.0000000000000000000, 0.0000000000000000000, 1.000000000000000000 ) ) ;
#254 = AXIS2_PLACEMENT_3D ( 'NONE', #89, #344, #71 ) ;
#255 = FACE_OUTER_BOUND ( 'NONE', #239, .T. ) ;
#256 = DIRECTION ( 'NONE',  ( -0.0000000000000000000, -1.000000000000000000, -0.0000000000000000000 ) ) ;
#257 =( NAMED_UNIT ( * ) SI_UNIT ( $, .STERADIAN. ) SOLID_ANGLE_UNIT ( ) );
#258 = CARTESIAN_POINT ( 'NONE',  ( 0.0000000000000000000, 10.55053990610328700, -4.924999999999999800 ) ) ;
#259 = CIRCLE ( 'NONE', #244, 2.524999999999999900 ) ;
#260 = CARTESIAN_POINT ( 'NONE',  ( 0.0000000000000000000, 3.707168881056380500, -1.658947368421053600 ) ) ;
#261 = DIRECTION ( 'NONE',  ( 0.0000000000000000000, 0.0000000000000000000, 1.000000000000000000 ) ) ;
#262 = CARTESIAN_POINT ( 'NONE',  ( 0.0000000000000000000, 2.415000000000000000, 0.0000000000000000000 ) ) ;
#263 = CARTESIAN_POINT ( 'NONE',  ( 0.0000000000000000000, 2.415000000000000000, 0.0000000000000000000 ) ) ;
#264 = VERTEX_POINT ( 'NONE', #277 ) ;
#265 = AXIS2_PLACEMENT_3D ( 'NONE', #26, #216, #104 ) ;
#266 =( LENGTH_UNIT ( ) NAMED_UNIT ( * ) SI_UNIT ( .MILLI., .METRE. ) );
#267 = CARTESIAN_POINT ( 'NONE',  ( 0.0000000000000000000, 11.80000000000000100, -8.064999999999999500 ) ) ;
#268 = CARTESIAN_POINT ( 'NONE',  ( 4.406868198566191100E-016, 3.257168881056379000, 3.598480967438468300 ) ) ;
#269 = AXIS2_PLACEMENT_3D ( 'NONE', #90, #280, #29 ) ;
#270 = DIRECTION ( 'NONE',  ( -0.0000000000000000000, -1.000000000000000000, -0.0000000000000000000 ) ) ;
#271 = AXIS2_PLACEMENT_3D ( 'NONE', #263, #303, #152 ) ;
#272 = ORIENTED_EDGE ( 'NONE', *, *, #57, .T. ) ;
#273 = ORIENTED_EDGE ( 'NONE', *, *, #117, .F. ) ;
#274 = AXIS2_PLACEMENT_3D ( 'NONE', #300, #8, #252 ) ;
#275 = DIRECTION ( 'NONE',  ( 0.0000000000000000000, 0.0000000000000000000, -1.000000000000000000 ) ) ;
#276 =( NAMED_UNIT ( * ) SI_UNIT ( $, .STERADIAN. ) SOLID_ANGLE_UNIT ( ) );
#277 = CARTESIAN_POINT ( 'NONE',  ( 0.0000000000000000000, 13.93000000000000000, -4.924999999999999800 ) ) ;
#278 = ADVANCED_FACE ( 'NONE', ( #230 ), #124, .T. ) ;
#279 = ORIENTED_EDGE ( 'NONE', *, *, #345, .T. ) ;
#280 = DIRECTION ( 'NONE',  ( -0.0000000000000000000, -1.000000000000000000, -0.0000000000000000000 ) ) ;
#281 = CIRCLE ( 'NONE', #17, 3.379460093896713000 ) ;
#282 = APPLICATION_PROTOCOL_DEFINITION ( 'draft international standard', 'automotive_design', 1998, #319 ) ;
#283 = CARTESIAN_POINT ( 'NONE',  ( 2.524999999999999900, 11.80000000000000100, 0.0000000000000000000 ) ) ;
#284 = PRESENTATION_STYLE_ASSIGNMENT (( #44 ) ) ;
#285 =( NAMED_UNIT ( * ) PLANE_ANGLE_UNIT ( ) SI_UNIT ( $, .RADIAN. ) );
#286 = AXIS2_PLACEMENT_3D ( 'NONE', #35, #144, #168 ) ;
#287 = COLOUR_RGB ( '',0.7921568627450980000, 0.8196078431372548800, 0.9333333333333333500 ) ;
#288 = EDGE_CURVE ( 'NONE', #264, #327, #166, .T. ) ;
#289 = EDGE_CURVE ( 'NONE', #28, #341, #259, .T. ) ;
#290 = CARTESIAN_POINT ( 'NONE',  ( 0.0000000000000000000, 2.807168881056380200, 0.0000000000000000000 ) ) ;
#291 = CIRCLE ( 'NONE', #354, 1.815331160274324700 ) ;
#292 = ORIENTED_EDGE ( 'NONE', *, *, #38, .T. ) ;
#293 = FACE_OUTER_BOUND ( 'NONE', #132, .T. ) ;
#294 = EDGE_CURVE ( 'NONE', #116, #106, #32, .T. ) ;
#295 = FILL_AREA_STYLE ('',( #245 ) ) ;
#296 = AXIS2_PLACEMENT_3D ( 'NONE', #87, #235, #361 ) ;
#297 = ORIENTED_EDGE ( 'NONE', *, *, #359, .F. ) ;
#298 = ORIENTED_EDGE ( 'NONE', *, *, #57, .F. ) ;
#299 = CIRCLE ( 'NONE', #367, 1.991052631578945400 ) ;
#300 = CARTESIAN_POINT ( 'NONE',  ( 0.0000000000000000000, 3.257168881056379000, 0.0000000000000000000 ) ) ;
#301 = DIRECTION ( 'NONE',  ( 0.0000000000000000000, 0.0000000000000000000, -1.000000000000000000 ) ) ;
#302 = LINE ( 'NONE', #148, #310 ) ;
#303 = DIRECTION ( 'NONE',  ( -0.0000000000000000000, -0.0000000000000000000, -1.000000000000000000 ) ) ;
#304 = UNCERTAINTY_MEASURE_WITH_UNIT (LENGTH_MEASURE( 1.000000000000000100E-005 ), #266, 'distance_accuracy_value', 'NONE');
#305 = CARTESIAN_POINT ( 'NONE',  ( 0.0000000000000000000, 2.807168881056380200, 0.0000000000000000000 ) ) ;
#306 = CIRCLE ( 'NONE', #78, 1.991052631578945400 ) ;
#307 = AXIS2_PLACEMENT_3D ( 'NONE', #4, #11, #114 ) ;
#308 = ADVANCED_FACE ( 'NONE', ( #255 ), #33, .T. ) ;
#309 = EDGE_LOOP ( 'NONE', ( #86, #356 ) ) ;
#310 = VECTOR ( 'NONE', #170, 1000.000000000000000 ) ;
#311 = CARTESIAN_POINT ( 'NONE',  ( 2.031624584690768300E-016, 2.807168881056380200, 1.658947368421053600 ) ) ;
#312 = VERTEX_POINT ( 'NONE', #112 ) ;
#313 = ORIENTED_EDGE ( 'NONE', *, *, #115, .F. ) ;
#314 = DIRECTION ( 'NONE',  ( -1.000000000000000000, 0.0000000000000000000, 1.224646799147353200E-016 ) ) ;
#315 = AXIS2_PLACEMENT_3D ( 'NONE', #101, #130, #174 ) ;
#316 = CIRCLE ( 'NONE', #182, 1.991052631578946300 ) ;
#317 = TOROIDAL_SURFACE ( 'NONE', #175, 1.658947368421053600, 1.991052631578945400 ) ;
#318 = AXIS2_PLACEMENT_3D ( 'NONE', #305, #1, #370 ) ;
#319 = APPLICATION_CONTEXT ( 'automotive_design' ) ;
#320 = STYLED_ITEM ( 'NONE', ( #56 ), #96 ) ;
#321 = ORIENTED_EDGE ( 'NONE', *, *, #350, .F. ) ;
#322 = ORIENTED_EDGE ( 'NONE', *, *, #350, .T. ) ;
#323 = ORIENTED_EDGE ( 'NONE', *, *, #159, .F. ) ;
#324 = CARTESIAN_POINT ( 'NONE',  ( 0.0000000000000000000, 0.0000000000000000000, 0.0000000000000000000 ) ) ;
#325 = AXIS2_PLACEMENT_3D ( 'NONE', #55, #43, #366 ) ;
#326 = TOROIDAL_SURFACE ( 'NONE', #318, 1.658947368421053600, 1.991052631578945400 ) ;
#327 = VERTEX_POINT ( 'NONE', #206 ) ;
#328 = AXIS2_PLACEMENT_3D ( 'NONE', #59, #189, #10 ) ;
#329 = EDGE_CURVE ( 'NONE', #341, #28, #238, .T. ) ;
#330 = DIRECTION ( 'NONE',  ( -1.000000000000000000, 0.0000000000000000000, 0.0000000000000000000 ) ) ;
#331 = ORIENTED_EDGE ( 'NONE', *, *, #200, .T. ) ;
#332 = EDGE_CURVE ( 'NONE', #327, #264, #178, .T. ) ;
#333 = CIRCLE ( 'NONE', #215, 2.414999999999999600 ) ;
#334 = DIRECTION ( 'NONE',  ( -1.000000000000000000, 0.0000000000000000000, 0.0000000000000000000 ) ) ;
#335 = PLANE ( 'NONE',  #149 ) ;
#336 = CYLINDRICAL_SURFACE ( 'NONE', #53, 2.524999999999999900 ) ;
#337 = AXIS2_PLACEMENT_3D ( 'NONE', #77, #65, #301 ) ;
#338 = ADVANCED_FACE ( 'NONE', ( #360 ), #94, .T. ) ;
#339 = FACE_OUTER_BOUND ( 'NONE', #177, .T. ) ;
#340 = ORIENTED_EDGE ( 'NONE', *, *, #213, .F. ) ;
#341 = VERTEX_POINT ( 'NONE', #365 ) ;
#342 = DIRECTION ( 'NONE',  ( 0.0000000000000000000, 0.0000000000000000000, -1.000000000000000000 ) ) ;
#343 = DIRECTION ( 'NONE',  ( -1.000000000000000000, 0.0000000000000000000, 0.0000000000000000000 ) ) ;
#344 = DIRECTION ( 'NONE',  ( -0.0000000000000000000, -1.000000000000000000, -0.0000000000000000000 ) ) ;
#345 = EDGE_CURVE ( 'NONE', #28, #192, #64, .T. ) ;
#346 = VERTEX_POINT ( 'NONE', #193 ) ;
#347 = ORIENTED_EDGE ( 'NONE', *, *, #332, .F. ) ;
#348 =( LENGTH_UNIT ( ) NAMED_UNIT ( * ) SI_UNIT ( .MILLI., .METRE. ) );
#349 = DIRECTION ( 'NONE',  ( -0.0000000000000000000, -1.000000000000000000, -0.0000000000000000000 ) ) ;
#350 = EDGE_CURVE ( 'NONE', #341, #203, #316, .T. ) ;
#351 = FACE_OUTER_BOUND ( 'NONE', #165, .T. ) ;
#352 = DIRECTION ( 'NONE',  ( 0.0000000000000000000, 0.0000000000000000000, -1.000000000000000000 ) ) ;
#353 =( LENGTH_UNIT ( ) NAMED_UNIT ( * ) SI_UNIT ( .MILLI., .METRE. ) );
#354 = AXIS2_PLACEMENT_3D ( 'NONE', #371, #167, #183 ) ;
#355 = DIRECTION ( 'NONE',  ( -0.0000000000000000000, -1.000000000000000000, -0.0000000000000000000 ) ) ;
#356 = ORIENTED_EDGE ( 'NONE', *, *, #228, .T. ) ;
#357 = ORIENTED_EDGE ( 'NONE', *, *, #289, .T. ) ;
#358 = AXIS2_PLACEMENT_3D ( 'NONE', #63, #270, #352 ) ;
#359 = EDGE_CURVE ( 'NONE', #180, #346, #84, .T. ) ;
#360 = FACE_OUTER_BOUND ( 'NONE', #74, .T. ) ;
#361 = DIRECTION ( 'NONE',  ( 0.0000000000000000000, 0.0000000000000000000, -1.000000000000000000 ) ) ;
#362 = ORIENTED_EDGE ( 'NONE', *, *, #213, .T. ) ;
#363 = MANIFOLD_SOLID_BREP ( 'Revolve1', #121 ) ;
#364 = ADVANCED_FACE ( 'NONE', ( #14 ), #317, .T. ) ;
#365 = CARTESIAN_POINT ( 'NONE',  ( 0.0000000000000000000, 5.500000000000000000, -2.524999999999999900 ) ) ;
#366 = DIRECTION ( 'NONE',  ( 0.0000000000000000000, 0.0000000000000000000, -1.000000000000000000 ) ) ;
#367 = AXIS2_PLACEMENT_3D ( 'NONE', #66, #334, #261 ) ;
#368 = VERTEX_POINT ( 'NONE', #133 ) ;
#369 = MECHANICAL_DESIGN_GEOMETRIC_PRESENTATION_REPRESENTATION (  '', ( #88 ), #234 ) ;
#370 = DIRECTION ( 'NONE',  ( 0.0000000000000000000, 0.0000000000000000000, -1.000000000000000000 ) ) ;
#371 = CARTESIAN_POINT ( 'NONE',  ( 0.0000000000000000000, 0.8222671980093240200, 0.0000000000000000000 ) ) ;
#372 = ORIENTED_EDGE ( 'NONE', *, *, #126, .T. ) ;
ENDSEC;
END-ISO-10303-21;
