ISO-10303-21;
HEADER;
FILE_DESCRIPTION (( 'STEP AP214' ),
    '1' );
FILE_NAME ('01641-00613.STEP',
    '2016-04-05T09:57:05',
    ( '' ),
    ( '' ),
    'SwSTEP 2.0',
    'SolidWorks 2015',
    '' );
FILE_SCHEMA (( 'AUTOMOTIVE_DESIGN' ));
ENDSEC;

DATA;
#1 = LINE ( 'NONE', #90, #210 ) ;
#2 = ORIENTED_EDGE ( 'NONE', *, *, #368, .F. ) ;
#3 = EDGE_CURVE ( 'NONE', #367, #170, #357, .T. ) ;
#4 = CARTESIAN_POINT ( 'NONE',  ( 1.416000000000000100, 16.03000000000000100, 0.0000000000000000000 ) ) ;
#5 = MECHANICAL_DESIGN_GEOMETRIC_PRESENTATION_REPRESENTATION (  '', ( #27 ), #65 ) ;
#6 = DIRECTION ( 'NONE',  ( 0.0000000000000000000, 0.0000000000000000000, -1.000000000000000000 ) ) ;
#7 = EDGE_CURVE ( 'NONE', #42, #385, #171, .T. ) ;
#8 = CIRCLE ( 'NONE', #89, 1.416000000000000100 ) ;
#9 = ADVANCED_FACE ( 'NONE', ( #145 ), #117, .T. ) ;
#10 = DIRECTION ( 'NONE',  ( -0.0000000000000000000, -1.000000000000000000, -0.0000000000000000000 ) ) ;
#11 = CIRCLE ( 'NONE', #293, 2.415000000000000000 ) ;
#12 = PRESENTATION_LAYER_ASSIGNMENT (  '', '', ( #27 ) ) ;
#13 = ORIENTED_EDGE ( 'NONE', *, *, #332, .F. ) ;
#14 = EDGE_LOOP ( 'NONE', ( #100, #154 ) ) ;
#15 = CARTESIAN_POINT ( 'NONE',  ( 0.0000000000000000000, 42.86355512369681300, 0.0000000000000000000 ) ) ;
#16 = FACE_OUTER_BOUND ( 'NONE', #364, .T. ) ;
#17 = CARTESIAN_POINT ( 'NONE',  ( 0.0000000000000000000, 2.415000000000000000, -2.415000000000000000 ) ) ;
#18 = FACE_OUTER_BOUND ( 'NONE', #63, .T. ) ;
#19 = FILL_AREA_STYLE ('',( #139 ) ) ;
#20 =( NAMED_UNIT ( * ) PLANE_ANGLE_UNIT ( ) SI_UNIT ( $, .RADIAN. ) );
#21 = EDGE_CURVE ( 'NONE', #175, #253, #52, .T. ) ;
#22 = CARTESIAN_POINT ( 'NONE',  ( 0.0000000000000000000, 44.23000000000000400, -0.8499999999999999800 ) ) ;
#23 = ORIENTED_EDGE ( 'NONE', *, *, #120, .T. ) ;
#24 = DIRECTION ( 'NONE',  ( 0.0000000000000000000, 0.0000000000000000000, -1.000000000000000000 ) ) ;
#25 = DIRECTION ( 'NONE',  ( 0.0000000000000000000, 0.0000000000000000000, -1.000000000000000000 ) ) ;
#26 = DIRECTION ( 'NONE',  ( 0.0000000000000000000, 1.000000000000000000, 0.0000000000000000000 ) ) ;
#27 = STYLED_ITEM ( 'NONE', ( #224 ), #305 ) ;
#28 = CARTESIAN_POINT ( 'NONE',  ( 0.0000000000000000000, 13.66000000000000200, -5.707183213224571000 ) ) ;
#29 = SURFACE_STYLE_USAGE ( .BOTH. , #102 ) ;
#30 = AXIS2_PLACEMENT_3D ( 'NONE', #207, #240, #186 ) ;
#31 = ORIENTED_EDGE ( 'NONE', *, *, #368, .T. ) ;
#32 = CARTESIAN_POINT ( 'NONE',  ( 0.0000000000000000000, 16.03000000000000100, 0.0000000000000000000 ) ) ;
#33 = ORIENTED_EDGE ( 'NONE', *, *, #151, .T. ) ;
#34 = AXIS2_PLACEMENT_3D ( 'NONE', #172, #67, #273 ) ;
#35 = ORIENTED_EDGE ( 'NONE', *, *, #144, .F. ) ;
#36 = ORIENTED_EDGE ( 'NONE', *, *, #128, .T. ) ;
#37 = ORIENTED_EDGE ( 'NONE', *, *, #70, .T. ) ;
#38 = VERTEX_POINT ( 'NONE', #234 ) ;
#39 =( GEOMETRIC_REPRESENTATION_CONTEXT ( 3 ) GLOBAL_UNCERTAINTY_ASSIGNED_CONTEXT ( ( #334 ) ) GLOBAL_UNIT_ASSIGNED_CONTEXT ( ( #140, #108, #379 ) ) REPRESENTATION_CONTEXT ( 'NONE', 'WORKASPACE' ) );
#40 = ORIENTED_EDGE ( 'NONE', *, *, #383, .F. ) ;
#41 =( LENGTH_UNIT ( ) NAMED_UNIT ( * ) SI_UNIT ( .MILLI., .METRE. ) );
#42 = VERTEX_POINT ( 'NONE', #362 ) ;
#43 = AXIS2_PLACEMENT_3D ( 'NONE', #335, #179, #276 ) ;
#44 = VECTOR ( 'NONE', #87, 1000.000000000000000 ) ;
#45 = CARTESIAN_POINT ( 'NONE',  ( 2.415000000000000000, 13.89999999999999900, 0.0000000000000000000 ) ) ;
#46 = DIRECTION ( 'NONE',  ( -0.0000000000000000000, -1.000000000000000000, -0.0000000000000000000 ) ) ;
#47 =( NAMED_UNIT ( * ) SI_UNIT ( $, .STERADIAN. ) SOLID_ANGLE_UNIT ( ) );
#48 = AXIS2_PLACEMENT_3D ( 'NONE', #106, #76, #160 ) ;
#49 = VERTEX_POINT ( 'NONE', #54 ) ;
#50 = AXIS2_PLACEMENT_3D ( 'NONE', #130, #359, #274 ) ;
#51 = ORIENTED_EDGE ( 'NONE', *, *, #7, .F. ) ;
#52 = CIRCLE ( 'NONE', #315, 2.415000000000000000 ) ;
#53 = PRODUCT_DEFINITION_SHAPE ( 'NONE', 'NONE',  #84 ) ;
#54 = CARTESIAN_POINT ( 'NONE',  ( 1.387524823433950900E-016, 44.23000000000000400, 0.8499999999999999800 ) ) ;
#55 = AXIS2_PLACEMENT_3D ( 'NONE', #28, #313, #209 ) ;
#56 = FILL_AREA_STYLE ('',( #153 ) ) ;
#57 = ORIENTED_EDGE ( 'NONE', *, *, #358, .T. ) ;
#58 = PLANE ( 'NONE',  #142 ) ;
#59 = DIRECTION ( 'NONE',  ( -0.0000000000000000000, -1.000000000000000000, -0.0000000000000000000 ) ) ;
#60 = EDGE_LOOP ( 'NONE', ( #95, #126, #309, #250 ) ) ;
#61 = ADVANCED_FACE ( 'NONE', ( #18 ), #394, .T. ) ;
#62 = VERTEX_POINT ( 'NONE', #285 ) ;
#63 = EDGE_LOOP ( 'NONE', ( #35, #177, #372, #382 ) ) ;
#64 = AXIS2_PLACEMENT_3D ( 'NONE', #271, #213, #6 ) ;
#65 =( GEOMETRIC_REPRESENTATION_CONTEXT ( 3 ) GLOBAL_UNCERTAINTY_ASSIGNED_CONTEXT ( ( #343 ) ) GLOBAL_UNIT_ASSIGNED_CONTEXT ( ( #41, #239, #195 ) ) REPRESENTATION_CONTEXT ( 'NONE', 'WORKASPACE' ) );
#66 = DIRECTION ( 'NONE',  ( -0.0000000000000000000, -1.000000000000000000, -0.0000000000000000000 ) ) ;
#67 = DIRECTION ( 'NONE',  ( -0.0000000000000000000, -1.000000000000000000, -0.0000000000000000000 ) ) ;
#68 = AXIS2_PLACEMENT_3D ( 'NONE', #143, #167, #127 ) ;
#69 = AXIS2_PLACEMENT_3D ( 'NONE', #45, #371, #248 ) ;
#70 = EDGE_CURVE ( 'NONE', #367, #385, #11, .T. ) ;
#71 = AXIS2_PLACEMENT_3D ( 'NONE', #289, #159, #225 ) ;
#72 = VERTEX_POINT ( 'NONE', #174 ) ;
#73 = ORIENTED_EDGE ( 'NONE', *, *, #70, .F. ) ;
#74 = DIRECTION ( 'NONE',  ( -0.0000000000000000000, -1.000000000000000000, -0.0000000000000000000 ) ) ;
#75 = DIRECTION ( 'NONE',  ( -0.0000000000000000000, -1.000000000000000000, -0.0000000000000000000 ) ) ;
#76 = DIRECTION ( 'NONE',  ( -0.0000000000000000000, -1.000000000000000000, -0.0000000000000000000 ) ) ;
#77 = DIRECTION ( 'NONE',  ( 1.000000000000000000, 0.0000000000000000000, 0.0000000000000000000 ) ) ;
#78 = CIRCLE ( 'NONE', #34, 2.415000000000000000 ) ;
#79 = AXIS2_PLACEMENT_3D ( 'NONE', #338, #355, #345 ) ;
#80 = VERTEX_POINT ( 'NONE', #22 ) ;
#81 = DIRECTION ( 'NONE',  ( -1.000000000000000000, 0.0000000000000000000, 0.0000000000000000000 ) ) ;
#82 = DIRECTION ( 'NONE',  ( -0.0000000000000000000, -0.0000000000000000000, -1.000000000000000000 ) ) ;
#83 = ORIENTED_EDGE ( 'NONE', *, *, #361, .T. ) ;
#84 = PRODUCT_DEFINITION ( 'UNKNOWN', '', #387, #398 ) ;
#85 = DIRECTION ( 'NONE',  ( 0.0000000000000000000, -0.9238795325112886300, -0.3826834323650851700 ) ) ;
#86 = EDGE_CURVE ( 'NONE', #194, #178, #251, .T. ) ;
#87 = DIRECTION ( 'NONE',  ( -0.0000000000000000000, -1.000000000000000000, -0.0000000000000000000 ) ) ;
#88 = ORIENTED_EDGE ( 'NONE', *, *, #337, .F. ) ;
#89 = AXIS2_PLACEMENT_3D ( 'NONE', #32, #138, #227 ) ;
#90 = CARTESIAN_POINT ( 'NONE',  ( 0.0000000000000000000, 0.0000000000000000000, -1.416000000000000100 ) ) ;
#91 = CARTESIAN_POINT ( 'NONE',  ( 0.0000000000000000000, 16.03000000000000100, -5.707183213224571000 ) ) ;
#92 = DIRECTION ( 'NONE',  ( -0.0000000000000000000, 0.0000000000000000000, 1.000000000000000000 ) ) ;
#93 = DIRECTION ( 'NONE',  ( -0.0000000000000000000, -1.000000000000000000, -0.0000000000000000000 ) ) ;
#94 = EDGE_LOOP ( 'NONE', ( #2, #336, #328, #236, #166 ) ) ;
#95 = ORIENTED_EDGE ( 'NONE', *, *, #332, .T. ) ;
#96 = LINE ( 'NONE', #395, #235 ) ;
#97 = DIRECTION ( 'NONE',  ( 0.0000000000000000000, 0.0000000000000000000, -1.000000000000000000 ) ) ;
#98 = AXIS2_PLACEMENT_3D ( 'NONE', #192, #349, #193 ) ;
#99 =( GEOMETRIC_REPRESENTATION_CONTEXT ( 3 ) GLOBAL_UNCERTAINTY_ASSIGNED_CONTEXT ( ( #380 ) ) GLOBAL_UNIT_ASSIGNED_CONTEXT ( ( #350, #20, #47 ) ) REPRESENTATION_CONTEXT ( 'NONE', 'WORKASPACE' ) );
#100 = ORIENTED_EDGE ( 'NONE', *, *, #361, .F. ) ;
#101 = CARTESIAN_POINT ( 'NONE',  ( 0.0000000000000000000, 2.415000000000000000, 0.0000000000000000000 ) ) ;
#102 = SURFACE_SIDE_STYLE ('',( #249 ) ) ;
#103 = MECHANICAL_DESIGN_GEOMETRIC_PRESENTATION_REPRESENTATION (  '', ( #137 ), #99 ) ;
#104 = CARTESIAN_POINT ( 'NONE',  ( 0.0000000000000000000, 13.66000000000000200, 0.0000000000000000000 ) ) ;
#105 = DIRECTION ( 'NONE',  ( 0.0000000000000000000, 0.0000000000000000000, -1.000000000000000000 ) ) ;
#106 = CARTESIAN_POINT ( 'NONE',  ( 0.0000000000000000000, 13.89999999999999900, 0.0000000000000000000 ) ) ;
#107 = EDGE_CURVE ( 'NONE', #62, #314, #344, .T. ) ;
#108 =( NAMED_UNIT ( * ) PLANE_ANGLE_UNIT ( ) SI_UNIT ( $, .RADIAN. ) );
#109 = ORIENTED_EDGE ( 'NONE', *, *, #164, .T. ) ;
#110 = DIRECTION ( 'NONE',  ( 0.0000000000000000000, 0.0000000000000000000, -1.000000000000000000 ) ) ;
#111 = EDGE_CURVE ( 'NONE', #80, #38, #199, .T. ) ;
#112 = CARTESIAN_POINT ( 'NONE',  ( 9.876776435123404100E-016, 13.90000000000000000, 8.064999999999999500 ) ) ;
#113 = CARTESIAN_POINT ( 'NONE',  ( 0.0000000000000000000, 44.23000000000000400, 0.0000000000000000000 ) ) ;
#114 = CARTESIAN_POINT ( 'NONE',  ( 0.0000000000000000000, 0.0000000000000000000, 0.0000000000000000000 ) ) ;
#115 = CARTESIAN_POINT ( 'NONE',  ( 0.0000000000000000000, 13.89999999999999900, -2.415000000000000000 ) ) ;
#116 = CYLINDRICAL_SURFACE ( 'NONE', #30, 2.415000000000000000 ) ;
#117 = TOROIDAL_SURFACE ( 'NONE', #306, 5.707183213224571000, 2.370000000000000600 ) ;
#118 = APPLICATION_CONTEXT ( 'automotive_design' ) ;
#119 = DIRECTION ( 'NONE',  ( -0.0000000000000000000, -1.000000000000000000, -0.0000000000000000000 ) ) ;
#120 = EDGE_CURVE ( 'NONE', #311, #38, #203, .T. ) ;
#121 = DIRECTION ( 'NONE',  ( -0.0000000000000000000, -1.000000000000000000, -0.0000000000000000000 ) ) ;
#122 = EDGE_LOOP ( 'NONE', ( #36, #180, #340, #295 ) ) ;
#123 = ADVANCED_FACE ( 'NONE', ( #202 ), #231, .T. ) ;
#124 = SURFACE_STYLE_USAGE ( .BOTH. , #287 ) ;
#125 = EDGE_CURVE ( 'NONE', #49, #80, #155, .T. ) ;
#126 = ORIENTED_EDGE ( 'NONE', *, *, #337, .T. ) ;
#127 = DIRECTION ( 'NONE',  ( -1.224646799147353200E-016, 0.0000000000000000000, -1.000000000000000000 ) ) ;
#128 = EDGE_CURVE ( 'NONE', #80, #49, #220, .T. ) ;
#129 = DIRECTION ( 'NONE',  ( -0.0000000000000000000, -1.000000000000000000, -0.0000000000000000000 ) ) ;
#130 = CARTESIAN_POINT ( 'NONE',  ( 0.0000000000000000000, 13.90000000000000000, 0.0000000000000000000 ) ) ;
#131 = AXIS2_PLACEMENT_3D ( 'NONE', #114, #373, #324 ) ;
#132 = ADVANCED_FACE ( 'NONE', ( #16 ), #292, .T. ) ;
#133 = DIRECTION ( 'NONE',  ( 4.686520405326241300E-017, -0.9238795325112886300, 0.3826834323650851700 ) ) ;
#134 = ORIENTED_EDGE ( 'NONE', *, *, #7, .T. ) ;
#135 = CARTESIAN_POINT ( 'NONE',  ( 0.0000000000000000000, 42.86355512369681300, 0.0000000000000000000 ) ) ;
#136 = DIRECTION ( 'NONE',  ( -0.0000000000000000000, -1.000000000000000000, -0.0000000000000000000 ) ) ;
#137 = STYLED_ITEM ( 'NONE', ( #272 ), #279 ) ;
#138 = DIRECTION ( 'NONE',  ( -0.0000000000000000000, -1.000000000000000000, -0.0000000000000000000 ) ) ;
#139 = FILL_AREA_STYLE_COLOUR ( '', #376 ) ;
#140 =( LENGTH_UNIT ( ) NAMED_UNIT ( * ) SI_UNIT ( .MILLI., .METRE. ) );
#141 = DIRECTION ( 'NONE',  ( 0.0000000000000000000, -0.0000000000000000000, 1.000000000000000000 ) ) ;
#142 = AXIS2_PLACEMENT_3D ( 'NONE', #321, #26, #141 ) ;
#143 = CARTESIAN_POINT ( 'NONE',  ( 6.989283654222977500E-016, 13.66000000000000200, 5.707183213224571000 ) ) ;
#144 = EDGE_CURVE ( 'NONE', #49, #311, #266, .T. ) ;
#145 = FACE_OUTER_BOUND ( 'NONE', #60, .T. ) ;
#146 = CARTESIAN_POINT ( 'NONE',  ( 0.0000000000000000000, 13.66000000000000200, 0.0000000000000000000 ) ) ;
#147 = ORIENTED_EDGE ( 'NONE', *, *, #322, .T. ) ;
#148 = ORIENTED_EDGE ( 'NONE', *, *, #358, .F. ) ;
#149 = ORIENTED_EDGE ( 'NONE', *, *, #378, .T. ) ;
#150 = DIRECTION ( 'NONE',  ( -0.0000000000000000000, -1.000000000000000000, -0.0000000000000000000 ) ) ;
#151 = EDGE_CURVE ( 'NONE', #363, #367, #241, .T. ) ;
#152 = PRESENTATION_LAYER_ASSIGNMENT (  '', '', ( #137 ) ) ;
#153 = FILL_AREA_STYLE_COLOUR ( '', #346 ) ;
#154 = ORIENTED_EDGE ( 'NONE', *, *, #21, .F. ) ;
#155 = CIRCLE ( 'NONE', #230, 0.8499999999999999800 ) ;
#156 = CARTESIAN_POINT ( 'NONE',  ( -1.478761009970429100E-016, 0.0000000000000000000, 0.0000000000000000000 ) ) ;
#157 = PLANE ( 'NONE',  #69 ) ;
#158 = DIRECTION ( 'NONE',  ( 0.0000000000000000000, 0.0000000000000000000, -1.000000000000000000 ) ) ;
#159 = DIRECTION ( 'NONE',  ( -0.0000000000000000000, -1.000000000000000000, -0.0000000000000000000 ) ) ;
#160 = DIRECTION ( 'NONE',  ( 0.0000000000000000000, 0.0000000000000000000, -1.000000000000000000 ) ) ;
#161 = AXIS2_PLACEMENT_3D ( 'NONE', #282, #82, #300 ) ;
#162 = CARTESIAN_POINT ( 'NONE',  ( 2.957522019940858200E-016, 0.0000000000000000000, 2.415000000000000000 ) ) ;
#163 = ORIENTED_EDGE ( 'NONE', *, *, #125, .F. ) ;
#164 = EDGE_CURVE ( 'NONE', #38, #311, #393, .T. ) ;
#165 = CARTESIAN_POINT ( 'NONE',  ( 0.0000000000000000000, 0.0000000000000000000, 0.0000000000000000000 ) ) ;
#166 = ORIENTED_EDGE ( 'NONE', *, *, #151, .F. ) ;
#167 = DIRECTION ( 'NONE',  ( 1.000000000000000000, 0.0000000000000000000, -1.224646799147353200E-016 ) ) ;
#168 = EDGE_LOOP ( 'NONE', ( #109, #257, #330, #270 ) ) ;
#169 = FACE_OUTER_BOUND ( 'NONE', #392, .T. ) ;
#170 = VERTEX_POINT ( 'NONE', #17 ) ;
#171 = CIRCLE ( 'NONE', #317, 2.415000000000000000 ) ;
#172 = CARTESIAN_POINT ( 'NONE',  ( 0.0000000000000000000, 2.415000000000000000, 0.0000000000000000000 ) ) ;
#173 = AXIS2_PLACEMENT_3D ( 'NONE', #4, #190, #267 ) ;
#174 = CARTESIAN_POINT ( 'NONE',  ( 0.0000000000000000000, 13.90000000000000000, -8.064999999999999500 ) ) ;
#175 = VERTEX_POINT ( 'NONE', #303 ) ;
#176 = ORIENTED_EDGE ( 'NONE', *, *, #378, .F. ) ;
#177 = ORIENTED_EDGE ( 'NONE', *, *, #125, .T. ) ;
#178 = VERTEX_POINT ( 'NONE', #91 ) ;
#179 = DIRECTION ( 'NONE',  ( -0.0000000000000000000, -1.000000000000000000, -0.0000000000000000000 ) ) ;
#180 = ORIENTED_EDGE ( 'NONE', *, *, #144, .T. ) ;
#181 = AXIS2_PLACEMENT_3D ( 'NONE', #348, #129, #278 ) ;
#182 = AXIS2_PLACEMENT_3D ( 'NONE', #146, #258, #377 ) ;
#183 = DIRECTION ( 'NONE',  ( -1.224646799147353200E-016, 0.0000000000000000000, -1.000000000000000000 ) ) ;
#184 = EDGE_LOOP ( 'NONE', ( #147, #365 ) ) ;
#185 = ORIENTED_EDGE ( 'NONE', *, *, #389, .F. ) ;
#186 = DIRECTION ( 'NONE',  ( 0.0000000000000000000, 0.0000000000000000000, -1.000000000000000000 ) ) ;
#187 = CARTESIAN_POINT ( 'NONE',  ( 0.0000000000000000000, 13.89999999999999900, 0.0000000000000000000 ) ) ;
#188 = ADVANCED_FACE ( 'NONE', ( #216 ), #237, .T. ) ;
#189 = EDGE_LOOP ( 'NONE', ( #323, #391, #134, #73 ) ) ;
#190 = DIRECTION ( 'NONE',  ( 0.0000000000000000000, 1.000000000000000000, 0.0000000000000000000 ) ) ;
#191 = FACE_OUTER_BOUND ( 'NONE', #256, .T. ) ;
#192 = CARTESIAN_POINT ( 'NONE',  ( 0.0000000000000000000, 0.0000000000000000000, 0.0000000000000000000 ) ) ;
#193 = DIRECTION ( 'NONE',  ( 1.000000000000000000, 0.0000000000000000000, 0.0000000000000000000 ) ) ;
#194 = VERTEX_POINT ( 'NONE', #318 ) ;
#195 =( NAMED_UNIT ( * ) SI_UNIT ( $, .STERADIAN. ) SOLID_ANGLE_UNIT ( ) );
#196 = LINE ( 'NONE', #162, #390 ) ;
#197 = AXIS2_PLACEMENT_3D ( 'NONE', #135, #46, #221 ) ;
#198 = CARTESIAN_POINT ( 'NONE',  ( 0.0000000000000000000, 42.86355512369681300, -1.415999999999999900 ) ) ;
#199 = LINE ( 'NONE', #198, #397 ) ;
#200 = CIRCLE ( 'NONE', #68, 2.370000000000000600 ) ;
#201 = EDGE_LOOP ( 'NONE', ( #13, #275 ) ) ;
#202 = FACE_OUTER_BOUND ( 'NONE', #168, .T. ) ;
#203 = CIRCLE ( 'NONE', #263, 1.415999999999999900 ) ;
#204 = CARTESIAN_POINT ( 'NONE',  ( 0.0000000000000000000, 16.03000000000000100, 0.0000000000000000000 ) ) ;
#205 = ADVANCED_FACE ( 'NONE', ( #259, #212 ), #252, .T. ) ;
#206 = AXIS2_PLACEMENT_3D ( 'NONE', #101, #299, #81 ) ;
#207 = CARTESIAN_POINT ( 'NONE',  ( 0.0000000000000000000, 0.0000000000000000000, 0.0000000000000000000 ) ) ;
#208 = FACE_BOUND ( 'NONE', #14, .T. ) ;
#209 = DIRECTION ( 'NONE',  ( 0.0000000000000000000, 0.0000000000000000000, 1.000000000000000000 ) ) ;
#210 = VECTOR ( 'NONE', #298, 1000.000000000000000 ) ;
#211 = AXIS2_PLACEMENT_3D ( 'NONE', #329, #150, #24 ) ;
#212 = FACE_OUTER_BOUND ( 'NONE', #201, .T. ) ;
#213 = DIRECTION ( 'NONE',  ( -0.0000000000000000000, -1.000000000000000000, -0.0000000000000000000 ) ) ;
#214 = AXIS2_PLACEMENT_3D ( 'NONE', #165, #66, #110 ) ;
#215 = CARTESIAN_POINT ( 'NONE',  ( 1.734099867592652000E-016, 42.86355512369681300, 1.415999999999999900 ) ) ;
#216 = FACE_OUTER_BOUND ( 'NONE', #312, .T. ) ;
#217 = VERTEX_POINT ( 'NONE', #112 ) ;
#218 = CIRCLE ( 'NONE', #55, 2.370000000000000600 ) ;
#219 = EDGE_LOOP ( 'NONE', ( #83, #31, #176, #40, #185 ) ) ;
#220 = CIRCLE ( 'NONE', #244, 0.8499999999999999800 ) ;
#221 = DIRECTION ( 'NONE',  ( 0.0000000000000000000, 0.0000000000000000000, -1.000000000000000000 ) ) ;
#222 = CIRCLE ( 'NONE', #43, 2.415000000000000000 ) ;
#223 = CARTESIAN_POINT ( 'NONE',  ( 1.734099867592652000E-016, 42.86355512369681300, 1.415999999999999900 ) ) ;
#224 = PRESENTATION_STYLE_ASSIGNMENT (( #29 ) ) ;
#225 = DIRECTION ( 'NONE',  ( 0.0000000000000000000, 0.0000000000000000000, -1.000000000000000000 ) ) ;
#226 = CIRCLE ( 'NONE', #71, 5.707183213224571000 ) ;
#227 = DIRECTION ( 'NONE',  ( 0.0000000000000000000, 0.0000000000000000000, -1.000000000000000000 ) ) ;
#228 = CYLINDRICAL_SURFACE ( 'NONE', #79, 1.416000000000000100 ) ;
#229 = ADVANCED_FACE ( 'NONE', ( #265 ), #262, .T. ) ;
#230 = AXIS2_PLACEMENT_3D ( 'NONE', #347, #93, #339 ) ;
#231 = CYLINDRICAL_SURFACE ( 'NONE', #214, 1.416000000000000100 ) ;
#232 = CIRCLE ( 'NONE', #50, 8.064999999999999500 ) ;
#233 = ADVANCED_FACE ( 'NONE', ( #268 ), #283, .T. ) ;
#234 = CARTESIAN_POINT ( 'NONE',  ( 0.0000000000000000000, 42.86355512369681300, -1.415999999999999900 ) ) ;
#235 = VECTOR ( 'NONE', #326, 1000.000000000000000 ) ;
#236 = ORIENTED_EDGE ( 'NONE', *, *, #3, .F. ) ;
#237 = TOROIDAL_SURFACE ( 'NONE', #182, 5.707183213224571000, 2.370000000000000600 ) ;
#238 = CIRCLE ( 'NONE', #64, 8.064999999999999500 ) ;
#239 =( NAMED_UNIT ( * ) PLANE_ANGLE_UNIT ( ) SI_UNIT ( $, .RADIAN. ) );
#240 = DIRECTION ( 'NONE',  ( -0.0000000000000000000, -1.000000000000000000, -0.0000000000000000000 ) ) ;
#241 = CIRCLE ( 'NONE', #211, 2.415000000000000000 ) ;
#242 = ORIENTED_EDGE ( 'NONE', *, *, #128, .F. ) ;
#243 = CARTESIAN_POINT ( 'NONE',  ( 0.0000000000000000000, 16.03000000000000100, -1.416000000000000100 ) ) ;
#244 = AXIS2_PLACEMENT_3D ( 'NONE', #113, #74, #281 ) ;
#245 = CARTESIAN_POINT ( 'NONE',  ( 0.0000000000000000000, 2.415000000000000000, 0.0000000000000000000 ) ) ;
#246 = CARTESIAN_POINT ( 'NONE',  ( 0.0000000000000000000, 16.03000000000000100, 0.0000000000000000000 ) ) ;
#247 = EDGE_LOOP ( 'NONE', ( #242, #163 ) ) ;
#248 = DIRECTION ( 'NONE',  ( 0.0000000000000000000, 0.0000000000000000000, -1.000000000000000000 ) ) ;
#249 = SURFACE_STYLE_FILL_AREA ( #56 ) ;
#250 = ORIENTED_EDGE ( 'NONE', *, *, #353, .F. ) ;
#251 = CIRCLE ( 'NONE', #288, 5.707183213224571000 ) ;
#252 = PLANE ( 'NONE',  #173 ) ;
#253 = VERTEX_POINT ( 'NONE', #115 ) ;
#254 = ADVANCED_FACE ( 'NONE', ( #386 ), #58, .T. ) ;
#255 = LINE ( 'NONE', #316, #44 ) ;
#256 = EDGE_LOOP ( 'NONE', ( #284, #57 ) ) ;
#257 = ORIENTED_EDGE ( 'NONE', *, *, #375, .T. ) ;
#258 = DIRECTION ( 'NONE',  ( -0.0000000000000000000, -1.000000000000000000, -0.0000000000000000000 ) ) ;
#259 = FACE_BOUND ( 'NONE', #184, .T. ) ;
#260 = SURFACE_STYLE_FILL_AREA ( #19 ) ;
#261 = CLOSED_SHELL ( 'NONE', ( #233, #123, #9, #381, #229, #132, #264, #331, #188, #205, #280, #61, #254 ) ) ;
#262 = SPHERICAL_SURFACE ( 'NONE', #161, 2.415000000000000000 ) ;
#263 = AXIS2_PLACEMENT_3D ( 'NONE', #325, #75, #158 ) ;
#264 = ADVANCED_FACE ( 'NONE', ( #277 ), #286, .T. ) ;
#265 = FACE_OUTER_BOUND ( 'NONE', #189, .T. ) ;
#266 = LINE ( 'NONE', #223, #384 ) ;
#267 = DIRECTION ( 'NONE',  ( 0.0000000000000000000, -0.0000000000000000000, 1.000000000000000000 ) ) ;
#268 = FACE_OUTER_BOUND ( 'NONE', #122, .T. ) ;
#269 = AXIS2_PLACEMENT_3D ( 'NONE', #204, #307, #105 ) ;
#270 = ORIENTED_EDGE ( 'NONE', *, *, #333, .F. ) ;
#271 = CARTESIAN_POINT ( 'NONE',  ( 0.0000000000000000000, 13.90000000000000000, 0.0000000000000000000 ) ) ;
#272 = PRESENTATION_STYLE_ASSIGNMENT (( #124 ) ) ;
#273 = DIRECTION ( 'NONE',  ( 0.0000000000000000000, 0.0000000000000000000, -1.000000000000000000 ) ) ;
#274 = DIRECTION ( 'NONE',  ( 0.0000000000000000000, 0.0000000000000000000, -1.000000000000000000 ) ) ;
#275 = ORIENTED_EDGE ( 'NONE', *, *, #86, .F. ) ;
#276 = DIRECTION ( 'NONE',  ( 0.0000000000000000000, 0.0000000000000000000, -1.000000000000000000 ) ) ;
#277 = FACE_OUTER_BOUND ( 'NONE', #94, .T. ) ;
#278 = DIRECTION ( 'NONE',  ( 0.0000000000000000000, 0.0000000000000000000, -1.000000000000000000 ) ) ;
#279 = MANIFOLD_SOLID_BREP ( 'Revolve1', #261 ) ;
#280 = ADVANCED_FACE ( 'NONE', ( #169 ), #228, .T. ) ;
#281 = DIRECTION ( 'NONE',  ( 0.0000000000000000000, 0.0000000000000000000, -1.000000000000000000 ) ) ;
#282 = CARTESIAN_POINT ( 'NONE',  ( 0.0000000000000000000, 2.415000000000000000, 0.0000000000000000000 ) ) ;
#283 = CONICAL_SURFACE ( 'NONE', #181, 1.415999999999999900, 0.3926990816987191400 ) ;
#284 = ORIENTED_EDGE ( 'NONE', *, *, #342, .T. ) ;
#285 = CARTESIAN_POINT ( 'NONE',  ( 1.734099867592652200E-016, 16.03000000000000100, 1.416000000000000100 ) ) ;
#286 = CYLINDRICAL_SURFACE ( 'NONE', #131, 2.415000000000000000 ) ;
#287 = SURFACE_SIDE_STYLE ('',( #260 ) ) ;
#288 = AXIS2_PLACEMENT_3D ( 'NONE', #246, #59, #25 ) ;
#289 = CARTESIAN_POINT ( 'NONE',  ( 0.0000000000000000000, 16.03000000000000100, 0.0000000000000000000 ) ) ;
#290 = DIRECTION ( 'NONE',  ( 0.0000000000000000000, 0.0000000000000000000, -1.000000000000000000 ) ) ;
#291 = PRODUCT ( '01641-00613', '01641-00613', '', ( #352 ) ) ;
#292 = SPHERICAL_SURFACE ( 'NONE', #206, 2.415000000000000000 ) ;
#293 = AXIS2_PLACEMENT_3D ( 'NONE', #320, #92, #77 ) ;
#294 = APPLICATION_CONTEXT ( 'automotive_design' ) ;
#295 = ORIENTED_EDGE ( 'NONE', *, *, #111, .F. ) ;
#296 = ORIENTED_EDGE ( 'NONE', *, *, #86, .T. ) ;
#297 = PRODUCT_RELATED_PRODUCT_CATEGORY ( 'part', '', ( #291 ) ) ;
#298 = DIRECTION ( 'NONE',  ( -0.0000000000000000000, -1.000000000000000000, -0.0000000000000000000 ) ) ;
#299 = DIRECTION ( 'NONE',  ( -0.0000000000000000000, -0.0000000000000000000, -1.000000000000000000 ) ) ;
#300 = DIRECTION ( 'NONE',  ( -1.000000000000000000, 0.0000000000000000000, 0.0000000000000000000 ) ) ;
#301 = CARTESIAN_POINT ( 'NONE',  ( -2.415000000000000000, 2.415000000000000000, 0.0000000000000000000 ) ) ;
#302 = AXIS2_PLACEMENT_3D ( 'NONE', #15, #10, #370 ) ;
#303 = CARTESIAN_POINT ( 'NONE',  ( 2.957522019940858200E-016, 13.89999999999999900, 2.415000000000000000 ) ) ;
#304 = DIRECTION ( 'NONE',  ( 0.0000000000000000000, 0.0000000000000000000, -1.000000000000000000 ) ) ;
#305 = ADVANCED_BREP_SHAPE_REPRESENTATION ( '01641-00613', ( #279, #98 ), #39 ) ;
#306 = AXIS2_PLACEMENT_3D ( 'NONE', #104, #121, #97 ) ;
#307 = DIRECTION ( 'NONE',  ( -0.0000000000000000000, -1.000000000000000000, -0.0000000000000000000 ) ) ;
#308 = ORIENTED_EDGE ( 'NONE', *, *, #107, .F. ) ;
#309 = ORIENTED_EDGE ( 'NONE', *, *, #342, .F. ) ;
#310 = SHAPE_DEFINITION_REPRESENTATION ( #53, #305 ) ;
#311 = VERTEX_POINT ( 'NONE', #215 ) ;
#312 = EDGE_LOOP ( 'NONE', ( #88, #296, #356, #148 ) ) ;
#313 = DIRECTION ( 'NONE',  ( -1.000000000000000000, 0.0000000000000000000, 0.0000000000000000000 ) ) ;
#314 = VERTEX_POINT ( 'NONE', #243 ) ;
#315 = AXIS2_PLACEMENT_3D ( 'NONE', #187, #136, #290 ) ;
#316 = CARTESIAN_POINT ( 'NONE',  ( 0.0000000000000000000, 0.0000000000000000000, -2.415000000000000000 ) ) ;
#317 = AXIS2_PLACEMENT_3D ( 'NONE', #245, #183, #327 ) ;
#318 = CARTESIAN_POINT ( 'NONE',  ( 8.433030044673189800E-016, 16.03000000000000100, 5.707183213224571000 ) ) ;
#319 = AXIS2_PLACEMENT_3D ( 'NONE', #366, #119, #304 ) ;
#320 = CARTESIAN_POINT ( 'NONE',  ( 0.0000000000000000000, 2.415000000000000000, 0.0000000000000000000 ) ) ;
#321 = CARTESIAN_POINT ( 'NONE',  ( 0.8499999999999999800, 44.23000000000000400, 0.0000000000000000000 ) ) ;
#322 = EDGE_CURVE ( 'NONE', #314, #62, #8, .T. ) ;
#323 = ORIENTED_EDGE ( 'NONE', *, *, #3, .T. ) ;
#324 = DIRECTION ( 'NONE',  ( 0.0000000000000000000, 0.0000000000000000000, -1.000000000000000000 ) ) ;
#325 = CARTESIAN_POINT ( 'NONE',  ( 0.0000000000000000000, 42.86355512369681300, 0.0000000000000000000 ) ) ;
#326 = DIRECTION ( 'NONE',  ( -0.0000000000000000000, -1.000000000000000000, -0.0000000000000000000 ) ) ;
#327 = DIRECTION ( 'NONE',  ( -1.000000000000000000, 0.0000000000000000000, 1.224646799147353200E-016 ) ) ;
#328 = ORIENTED_EDGE ( 'NONE', *, *, #389, .T. ) ;
#329 = CARTESIAN_POINT ( 'NONE',  ( 0.0000000000000000000, 2.415000000000000000, 0.0000000000000000000 ) ) ;
#330 = ORIENTED_EDGE ( 'NONE', *, *, #322, .F. ) ;
#331 = ADVANCED_FACE ( 'NONE', ( #191, #208 ), #157, .T. ) ;
#332 = EDGE_CURVE ( 'NONE', #178, #194, #226, .T. ) ;
#333 = EDGE_CURVE ( 'NONE', #38, #314, #1, .T. ) ;
#334 = UNCERTAINTY_MEASURE_WITH_UNIT (LENGTH_MEASURE( 1.000000000000000100E-005 ), #140, 'distance_accuracy_value', 'NONE');
#335 = CARTESIAN_POINT ( 'NONE',  ( 0.0000000000000000000, 2.415000000000000000, 0.0000000000000000000 ) ) ;
#336 = ORIENTED_EDGE ( 'NONE', *, *, #21, .T. ) ;
#337 = EDGE_CURVE ( 'NONE', #194, #217, #200, .T. ) ;
#338 = CARTESIAN_POINT ( 'NONE',  ( 0.0000000000000000000, 0.0000000000000000000, 0.0000000000000000000 ) ) ;
#339 = DIRECTION ( 'NONE',  ( 0.0000000000000000000, 0.0000000000000000000, -1.000000000000000000 ) ) ;
#340 = ORIENTED_EDGE ( 'NONE', *, *, #164, .F. ) ;
#341 = CIRCLE ( 'NONE', #48, 2.415000000000000000 ) ;
#342 = EDGE_CURVE ( 'NONE', #72, #217, #238, .T. ) ;
#343 = UNCERTAINTY_MEASURE_WITH_UNIT (LENGTH_MEASURE( 1.000000000000000100E-005 ), #41, 'distance_accuracy_value', 'NONE');
#344 = CIRCLE ( 'NONE', #269, 1.416000000000000100 ) ;
#345 = DIRECTION ( 'NONE',  ( 0.0000000000000000000, 0.0000000000000000000, -1.000000000000000000 ) ) ;
#346 = COLOUR_RGB ( '',0.7921568627450980000, 0.8196078431372548800, 0.9333333333333333500 ) ;
#347 = CARTESIAN_POINT ( 'NONE',  ( 0.0000000000000000000, 44.23000000000000400, 0.0000000000000000000 ) ) ;
#348 = CARTESIAN_POINT ( 'NONE',  ( 0.0000000000000000000, 42.86355512369681300, 0.0000000000000000000 ) ) ;
#349 = DIRECTION ( 'NONE',  ( 0.0000000000000000000, 0.0000000000000000000, 1.000000000000000000 ) ) ;
#350 =( LENGTH_UNIT ( ) NAMED_UNIT ( * ) SI_UNIT ( .MILLI., .METRE. ) );
#351 = ORIENTED_EDGE ( 'NONE', *, *, #333, .T. ) ;
#352 = PRODUCT_CONTEXT ( 'NONE', #294, 'mechanical' ) ;
#353 = EDGE_CURVE ( 'NONE', #178, #72, #218, .T. ) ;
#354 = FACE_OUTER_BOUND ( 'NONE', #219, .T. ) ;
#355 = DIRECTION ( 'NONE',  ( -0.0000000000000000000, -1.000000000000000000, -0.0000000000000000000 ) ) ;
#356 = ORIENTED_EDGE ( 'NONE', *, *, #353, .T. ) ;
#357 = CIRCLE ( 'NONE', #319, 2.415000000000000000 ) ;
#358 = EDGE_CURVE ( 'NONE', #217, #72, #232, .T. ) ;
#359 = DIRECTION ( 'NONE',  ( -0.0000000000000000000, -1.000000000000000000, -0.0000000000000000000 ) ) ;
#360 = ORIENTED_EDGE ( 'NONE', *, *, #375, .F. ) ;
#361 = EDGE_CURVE ( 'NONE', #253, #175, #341, .T. ) ;
#362 = CARTESIAN_POINT ( 'NONE',  ( 2.415000000000000000, 2.415000000000000000, -2.957522019940858200E-016 ) ) ;
#363 = VERTEX_POINT ( 'NONE', #388 ) ;
#364 = EDGE_LOOP ( 'NONE', ( #51, #149, #33, #37 ) ) ;
#365 = ORIENTED_EDGE ( 'NONE', *, *, #107, .T. ) ;
#366 = CARTESIAN_POINT ( 'NONE',  ( 0.0000000000000000000, 2.415000000000000000, 0.0000000000000000000 ) ) ;
#367 = VERTEX_POINT ( 'NONE', #301 ) ;
#368 = EDGE_CURVE ( 'NONE', #175, #363, #196, .T. ) ;
#369 = DIRECTION ( 'NONE',  ( -0.0000000000000000000, -1.000000000000000000, -0.0000000000000000000 ) ) ;
#370 = DIRECTION ( 'NONE',  ( 0.0000000000000000000, 0.0000000000000000000, -1.000000000000000000 ) ) ;
#371 = DIRECTION ( 'NONE',  ( 0.0000000000000000000, -1.000000000000000000, -0.0000000000000000000 ) ) ;
#372 = ORIENTED_EDGE ( 'NONE', *, *, #111, .T. ) ;
#373 = DIRECTION ( 'NONE',  ( -0.0000000000000000000, -1.000000000000000000, -0.0000000000000000000 ) ) ;
#374 = APPLICATION_PROTOCOL_DEFINITION ( 'draft international standard', 'automotive_design', 1998, #294 ) ;
#375 = EDGE_CURVE ( 'NONE', #311, #62, #96, .T. ) ;
#376 = COLOUR_RGB ( '',0.7921568627450980000, 0.8196078431372548800, 0.9333333333333333500 ) ;
#377 = DIRECTION ( 'NONE',  ( 0.0000000000000000000, 0.0000000000000000000, -1.000000000000000000 ) ) ;
#378 = EDGE_CURVE ( 'NONE', #42, #363, #222, .T. ) ;
#379 =( NAMED_UNIT ( * ) SI_UNIT ( $, .STERADIAN. ) SOLID_ANGLE_UNIT ( ) );
#380 = UNCERTAINTY_MEASURE_WITH_UNIT (LENGTH_MEASURE( 1.000000000000000100E-005 ), #350, 'distance_accuracy_value', 'NONE');
#381 = ADVANCED_FACE ( 'NONE', ( #354 ), #116, .T. ) ;
#382 = ORIENTED_EDGE ( 'NONE', *, *, #120, .F. ) ;
#383 = EDGE_CURVE ( 'NONE', #170, #42, #78, .T. ) ;
#384 = VECTOR ( 'NONE', #133, 1000.000000000000200 ) ;
#385 = VERTEX_POINT ( 'NONE', #156 ) ;
#386 = FACE_OUTER_BOUND ( 'NONE', #247, .T. ) ;
#387 = PRODUCT_DEFINITION_FORMATION_WITH_SPECIFIED_SOURCE ( 'ANY', '', #291, .NOT_KNOWN. ) ;
#388 = CARTESIAN_POINT ( 'NONE',  ( 2.957522019940858200E-016, 2.415000000000000000, 2.415000000000000000 ) ) ;
#389 = EDGE_CURVE ( 'NONE', #253, #170, #255, .T. ) ;
#390 = VECTOR ( 'NONE', #369, 1000.000000000000000 ) ;
#391 = ORIENTED_EDGE ( 'NONE', *, *, #383, .T. ) ;
#392 = EDGE_LOOP ( 'NONE', ( #360, #23, #351, #308 ) ) ;
#393 = CIRCLE ( 'NONE', #197, 1.415999999999999900 ) ;
#394 = CONICAL_SURFACE ( 'NONE', #302, 1.415999999999999900, 0.3926990816987191400 ) ;
#395 = CARTESIAN_POINT ( 'NONE',  ( 1.734099867592652200E-016, 0.0000000000000000000, 1.416000000000000100 ) ) ;
#396 = APPLICATION_PROTOCOL_DEFINITION ( 'draft international standard', 'automotive_design', 1998, #118 ) ;
#397 = VECTOR ( 'NONE', #85, 1000.000000000000200 ) ;
#398 = PRODUCT_DEFINITION_CONTEXT ( 'detailed design', #118, 'design' ) ;
ENDSEC;
END-ISO-10303-21;
